0
SECTION
2
HEADER
9
$INSUNITS
70
4
9
$ACADVER
1
AC1014
9
$HANDSEED
5
FFFF
0
ENDSEC
0
SECTION
2
TABLES
0
TABLE
2
VPORT
5
8
100
AcDbSymbolTable
0
ENDTAB
0
TABLE
2
LTYPE
5
5
100
AcDbSymbolTable
0
LTYPE
5
14
100
AcDbSymbolTableRecord
100
AcDbLinetypeTableRecord
2
BYBLOCK
70
0
0
LTYPE
5
15
100
AcDbSymbolTableRecord
100
AcDbLinetypeTableRecord
2
BYLAYER
70
0
0
ENDTAB
0
TABLE
2
LAYER
5
2
100
AcDbSymbolTable
70
2
0
LAYER
5
50
100
AcDbSymbolTableRecord
100
AcDbLayerTableRecord
2
0
70
0
6
CONTINUOUS
0
ENDTAB
0
TABLE
2
STYLE
5
3
100
AcDbSymbolTable
70
1
0
STYLE
5
11
100
AcDbSymbolTableRecord
100
AcDbTextStyleTableRecord
2
STANDARD
70
0
0
ENDTAB
0
TABLE
2
VIEW
5
6
100
AcDbSymbolTable
70
0
0
ENDTAB
0
TABLE
2
UCS
5
7
100
AcDbSymbolTable
70
0
0
ENDTAB
0
TABLE
2
APPID
5
9
100
AcDbSymbolTable
70
2
0
APPID
5
12
100
AcDbSymbolTableRecord
100
AcDbRegAppTableRecord
2
ACAD
70
0
0
ENDTAB
0
TABLE
2
DIMSTYLE
5
A
100
AcDbSymbolTable
70
1
0
ENDTAB
0
TABLE
2
BLOCK_RECORD
5
1
100
AcDbSymbolTable
70
1
0
BLOCK_RECORD
5
1F
100
AcDbSymbolTableRecord
100
AcDbBlockTableRecord
2
*MODEL_SPACE
0
BLOCK_RECORD
5
1B
100
AcDbSymbolTableRecord
100
AcDbBlockTableRecord
2
*PAPER_SPACE
0
ENDTAB
0
ENDSEC
0
SECTION
2
BLOCKS
0
BLOCK
5
20
100
AcDbEntity
100
AcDbBlockBegin
2
*MODEL_SPACE
0
ENDBLK
5
21
100
AcDbEntity
100
AcDbBlockEnd
0
BLOCK
5
1C
100
AcDbEntity
100
AcDbBlockBegin
2
*PAPER_SPACE
0
ENDBLK
5
1D
100
AcDbEntity
100
AcDbBlockEnd
0
ENDSEC
0
SECTION
2
ENTITIES
0
CIRCLE
5
100
100
AcDbEntity
8
0
100
AcDbCircle
10
2.5128772435106117
20
-53.502452178559203
30
0
40
1.5999999999999992
210
0
220
0
230
1
0
CIRCLE
5
101
100
AcDbEntity
8
0
100
AcDbCircle
10
-120.9742455129782
20
27.999999999999979
30
0
40
1.6000000000000014
210
0
220
0
230
1
0
CIRCLE
5
102
100
AcDbEntity
8
0
100
AcDbCircle
10
130
20
-18
30
0
40
1.6000000000000014
210
0
220
0
230
1
0
CIRCLE
5
103
100
AcDbEntity
8
0
100
AcDbCircle
10
126.00000000000001
20
28.000000000000004
30
0
40
1.6000000000000014
210
0
220
0
230
1
0
CIRCLE
5
104
100
AcDbEntity
8
0
100
AcDbCircle
10
102.00000000000001
20
-39
30
0
40
1.6000000000000014
210
0
220
0
230
1
0
CIRCLE
5
105
100
AcDbEntity
8
0
100
AcDbCircle
10
-94.974245512978186
20
27.999999999999986
30
0
40
1.6000000000000014
210
0
220
0
230
1
0
CIRCLE
5
106
100
AcDbEntity
8
0
100
AcDbCircle
10
-124.97424551297819
20
-18.000000000000014
30
0
40
1.6000000000000014
210
0
220
0
230
1
0
CIRCLE
5
107
100
AcDbEntity
8
0
100
AcDbCircle
10
110
20
65
30
0
40
1.6000000000000014
210
0
220
0
230
1
0
CIRCLE
5
108
100
AcDbEntity
8
0
100
AcDbCircle
10
100
20
28.000000000000004
30
0
40
1.6000000000000014
210
0
220
0
230
1
0
CIRCLE
5
109
100
AcDbEntity
8
0
100
AcDbCircle
10
-96.9742455129782
20
-39.000000000000021
30
0
40
1.6000000000000014
210
0
220
0
230
1
0
CIRCLE
5
110
100
AcDbEntity
8
0
100
AcDbCircle
10
-104.97424551297819
20
64.999999999999986
30
0
40
1.6000000000000014
210
0
220
0
230
1
0
CIRCLE
5
111
100
AcDbEntity
8
0
100
AcDbCircle
10
76.403702822266766
20
18.798783660265002
30
0
40
6.7999999999999972
210
0
220
0
230
1
0
CIRCLE
5
112
100
AcDbEntity
8
0
100
AcDbCircle
10
-55.731020411840404
20
-22.231008700725123
30
0
40
6.7999999999999972
210
0
220
0
230
1
0
CIRCLE
5
113
100
AcDbEntity
8
0
100
AcDbCircle
10
-50.547232322194446
20
43.182024884843536
30
0
40
6.7999999999999972
210
0
220
0
230
1
0
CIRCLE
5
114
100
AcDbEntity
8
0
100
AcDbCircle
10
-33.801920302401129
20
-53.979539650447208
30
0
40
6.8000000000000016
210
0
220
0
230
1
0
CIRCLE
5
115
100
AcDbEntity
8
0
100
AcDbCircle
10
44.866967649020566
20
19.20247970702955
30
0
40
6.7999999999999972
210
0
220
0
230
1
0
CIRCLE
5
116
100
AcDbEntity
8
0
100
AcDbCircle
10
60.75677489886224
20
-22.231008700725113
30
0
40
6.7999999999999972
210
0
220
0
230
1
0
CIRCLE
5
117
100
AcDbEntity
8
0
100
AcDbCircle
10
-39.841213161998752
20
19.202479707029543
30
0
40
6.8000000000000016
210
0
220
0
230
1
0
CIRCLE
5
118
100
AcDbEntity
8
0
100
AcDbCircle
10
-71.377948335244952
20
18.798783660264991
30
0
40
6.7999999999999972
210
0
220
0
230
1
0
CIRCLE
5
119
100
AcDbEntity
8
0
100
AcDbCircle
10
38.827674789422957
20
-53.979539650447201
30
0
40
6.7999999999999972
210
0
220
0
230
1
0
CIRCLE
5
120
100
AcDbEntity
8
0
100
AcDbCircle
10
55.57298680921626
20
43.182024884843543
30
0
40
6.7999999999999972
210
0
220
0
230
1
0
CIRCLE
5
121
100
AcDbEntity
8
0
100
AcDbCircle
10
-71.487122756489086
20
-42.002452178559665
30
0
40
1.5999999999999979
210
0
220
0
230
1
0
CIRCLE
5
122
100
AcDbEntity
8
0
100
AcDbCircle
10
76.512877243550733
20
-42.002452178520571
30
0
40
1.5999999999999979
210
0
220
0
230
1
0
CIRCLE
5
123
100
AcDbEntity
8
0
100
AcDbCircle
10
-68.487122756488702
20
36.36948533020648
30
0
40
1.5999999999999979
210
0
220
0
230
1
0
CIRCLE
5
124
100
AcDbEntity
8
0
100
AcDbCircle
10
73.512877243508939
20
36.36948533024399
30
0
40
1.5999999999999979
210
0
220
0
230
1
0
SPLINE
5
125
100
AcDbEntity
8
0
100
AcDbSpline
70
0
71
3
72
10
73
6
74
0
42
0.000000001
43
0.0000000001
44
0.0000000001
40
0
40
0
40
0
40
0
40
0.18255872613905766
40
0.18255872613905766
40
0.36511745227808368
40
0.36511745227808368
40
0.36511745227808368
40
0.36511745227808368
10
4.3377516680431292
20
-57.937523214521612
30
0
10
3.7298561930527452
20
-57.96528544371381
30
0
10
3.1214063306411974
20
-57.979171980584439
30
0
10
1.9043481563809184
20
-57.979171980584439
30
0
10
1.2958982939694397
20
-57.965285443713825
30
0
10
0.68800281897916038
20
-57.93752321452164
30
0
0
SPLINE
5
126
100
AcDbEntity
8
0
100
AcDbSpline
70
4
71
5
72
16
73
10
74
0
42
0.000000001
43
0.0000000001
44
0.0000000001
40
0.57452908263915325
40
0.57452908263915325
40
0.57452908263915325
40
0.57452908263915325
40
0.57452908263915325
40
0.57452908263915325
40
0.59999999999999998
40
0.69999999999999996
40
0.79999999999999993
40
0.89999999999999991
40
1
40
1
40
1
40
1
40
1
40
1
41
1
41
1
41
1
41
1
41
1
41
1
41
1
41
1
41
1
41
1
10
4.3377516680428707
20
-57.937523214521619
30
0
10
4.4607490962579552
20
-57.931905994238456
30
0
10
5.0665791926544843
20
-57.903356528916952
30
0
10
6.1545147619864649
20
-57.844575675044197
30
0
10
7.7203996602031308
20
-57.744355933480648
30
0
10
9.748586256618534
20
-57.600294054565673
30
0
10
11.617885569998867
20
-57.474412919139965
30
0
10
12.991667575197789
20
-57.396333251804947
30
0
10
13.894027905369203
20
-57.352981760638365
30
0
10
14.341834237343853
20
-57.333481683547561
30
0
0
SPLINE
5
127
100
AcDbEntity
8
0
100
AcDbSpline
70
4
71
5
72
26
73
20
74
0
42
0.000000001
43
0.0000000001
44
0.0000000001
40
-1
40
-1
40
-1
40
-1
40
-1
40
-1
40
-0.93333333333333324
40
-0.86666666666666659
40
-0.79999999999999993
40
-0.73333333333333328
40
-0.66666666666666663
40
-0.59999999999999998
40
-0.53333333333333333
40
-0.46666666666666662
40
-0.39999999999999997
40
-0.33333333333333331
40
-0.26666666666666666
40
-0.20000000000000001
40
-0.13333333333333333
40
-0.066666666666666666
40
0
40
0
40
0
40
0
40
0
40
0
41
1
41
1
41
1
41
1
41
1
41
1
41
1
41
1
41
1
41
1
41
1
41
1
41
1
41
1
41
1
41
1
41
1
41
1
41
1
41
1
10
14.341834237343853
20
-57.333481683547561
30
0
10
15.23475404702436
20
-57.294598791811978
30
0
10
16.90492761983776
20
-57.294805408364304
30
0
10
19.063077086206032
20
-57.528584771569136
30
0
10
21.285836095299253
20
-58.231543727436595
30
0
10
23.209955861095033
20
-59.390793956569354
30
0
10
24.631428141637279
20
-60.576539625999843
30
0
10
25.941164832178039
20
-61.746897950815892
30
0
10
27.634700570060687
20
-63.673285446998293
30
0
10
29.661780878536213
20
-66.14087942729158
30
0
10
31.773996512247177
20
-68.471438425912211
30
0
10
33.767524044395856
20
-69.96483639606214
30
0
10
35.847094914550546
20
-70.429070065567714
30
0
10
38.774107060750225
20
-70.535781740694901
30
0
10
42.3426021173685
20
-70.147123520145385
30
0
10
46.036393546584399
20
-68.913754484725928
30
0
10
48.508176315115918
20
-66.825395715749323
30
0
10
49.808510487051379
20
-64.432932024479499
30
0
10
50.389003397400643
20
-62.440472118186243
30
0
10
50.607684016581231
20
-61.344905613568834
30
0
0
SPLINE
5
128
100
AcDbEntity
8
0
100
AcDbSpline
70
4
71
5
72
26
73
20
74
0
42
0.000000001
43
0.0000000001
44
0.0000000001
40
-1
40
-1
40
-1
40
-1
40
-1
40
-1
40
-0.93333333333333324
40
-0.86666666666666659
40
-0.79999999999999993
40
-0.73333333333333328
40
-0.66666666666666663
40
-0.59999999999999998
40
-0.53333333333333333
40
-0.46666666666666662
40
-0.39999999999999997
40
-0.33333333333333331
40
-0.26666666666666666
40
-0.20000000000000001
40
-0.13333333333333333
40
-0.066666666666666666
40
0
40
0
40
0
40
0
40
0
40
0
41
1
41
1
41
1
41
1
41
1
41
1
41
1
41
1
41
1
41
1
41
1
41
1
41
1
41
1
41
1
41
1
41
1
41
1
41
1
41
1
10
50.607684016581231
20
-61.344905613568834
30
0
10
50.653030327598572
20
-61.073867527157866
30
0
10
50.763782620778613
20
-60.489780507708616
30
0
10
50.990275318268381
20
-59.487661593371328
30
0
10
51.423385093209355
20
-57.939436630115885
30
0
10
52.234929370412537
20
-55.870689189254705
30
0
10
53.321660562512449
20
-53.922953404647089
30
0
10
54.654613694799508
20
-52.318909129273166
30
0
10
55.985917100518691
20
-51.140697650567645
30
0
10
57.22367655033355
20
-50.336181621143922
30
0
10
58.539447788824113
20
-49.811503944755373
30
0
10
60.146143406209163
20
-49.448508736205071
30
0
10
62.208630881250087
20
-49.149696671783829
30
0
10
64.696402860836713
20
-48.870920529490647
30
0
10
67.454158302584943
20
-48.607944705493878
30
0
10
70.257913328608836
20
-48.38161307283422
30
0
10
72.350469679619621
20
-48.2558929975213
30
0
10
73.750713922026023
20
-48.206501303794809
30
0
10
74.597948883062571
20
-48.195525266530865
30
0
10
75
20
-48.195525266530865
30
0
0
SPLINE
5
129
100
AcDbEntity
8
0
100
AcDbSpline
70
4
71
5
72
21
73
15
74
0
42
0.000000001
43
0.0000000001
44
0.0000000001
40
-1
40
-1
40
-1
40
-1
40
-1
40
-1
40
-0.89999999999999991
40
-0.79999999999999993
40
-0.69999999999999996
40
-0.59999999999999998
40
-0.5
40
-0.40000000000000002
40
-0.30000000000000004
40
-0.20000000000000001
40
-0.10000000000000001
40
0
40
0
40
0
40
0
40
0
40
0
41
1
41
1
41
1
41
1
41
1
41
1
41
1
41
1
41
1
41
1
41
1
41
1
41
1
41
1
41
1
10
75
20
-48.195525266530865
30
0
10
75.399954566262423
20
-48.18603066959259
30
0
10
76.200702656024916
20
-48.167874549424738
30
0
10
77.404341605531258
20
-48.143139533847503
30
0
10
79.014310471799888
20
-48.115240562092197
30
0
10
81.035875130829822
20
-48.089406581054405
30
0
10
83.067343458693358
20
-48.073406815329861
30
0
10
85.109502667626884
20
-48.068022956500286
30
0
10
87.162743832767035
20
-48.073643337120011
30
0
10
89.226583000481398
20
-48.089787397470914
30
0
10
91.300201502498737
20
-48.115642210518921
30
0
10
92.966268382063092
20
-48.143447841751865
30
0
10
94.219595014683989
20
-48.168052054045809
30
0
10
95.056797101150622
20
-48.186094281987486
30
0
10
95.47581090964357
20
-48.195525266530865
30
0
0
SPLINE
5
130
100
AcDbEntity
8
0
100
AcDbSpline
70
4
71
5
72
26
73
20
74
0
42
0.000000001
43
0.0000000001
44
0.0000000001
40
-1
40
-1
40
-1
40
-1
40
-1
40
-1
40
-0.93333333333333324
40
-0.86666666666666659
40
-0.79999999999999993
40
-0.73333333333333328
40
-0.66666666666666663
40
-0.59999999999999998
40
-0.53333333333333333
40
-0.46666666666666662
40
-0.39999999999999997
40
-0.33333333333333331
40
-0.26666666666666666
40
-0.20000000000000001
40
-0.13333333333333333
40
-0.066666666666666666
40
0
40
0
40
0
40
0
40
0
40
0
41
1
41
1
41
1
41
1
41
1
41
1
41
1
41
1
41
1
41
1
41
1
41
1
41
1
41
1
41
1
41
1
41
1
41
1
41
1
41
1
10
95.47581090964357
20
-48.195525266530865
30
0
10
98.840186379421368
20
-48.276564496258878
30
0
10
105.27575184724041
20
-48.284740405643738
30
0
10
114.04924186263123
20
-47.83582870560592
30
0
10
123.97733568530887
20
-46.303607370360552
30
0
10
133.41741291793107
20
-42.782131088434625
30
0
10
140.01230400009828
20
-37.488888267481649
30
0
10
144.03800657902266
20
-30.299410210505116
30
0
10
146.27081938669832
20
-20.717005963919462
30
0
10
147.25445934803417
20
-9.3874170963318555
30
0
10
147.18922433731021
20
2.2906503007371928
30
0
10
146.13860475018919
20
13.123795780733174
30
0
10
144.07975392121804
20
22.643799753268674
30
0
10
141.0765535912316
20
32.35459278334757
30
0
10
136.9706748632091
20
42.774943108073728
30
0
10
131.49727596257421
20
53.943806906963026
30
0
10
125.78233719140037
20
63.25064924666583
30
0
10
120.63082665635783
20
70.285046896242335
30
0
10
116.796352473824
20
74.972830513821037
30
0
10
114.77908301623046
20
77.316285125443557
30
0
0
SPLINE
5
131
100
AcDbEntity
8
0
100
AcDbSpline
70
4
71
5
72
31
73
25
74
0
42
0.000000001
43
0.0000000001
44
0.0000000001
40
0
40
0
40
0
40
0
40
0
40
0
40
0.050000000000000003
40
0.10000000000000001
40
0.15000000000000002
40
0.20000000000000001
40
0.25
40
0.29999999999999999
40
0.34999999999999998
40
0.39999999999999997
40
0.44999999999999996
40
0.49999999999999994
40
0.54999999999999993
40
0.59999999999999998
40
0.65000000000000002
40
0.70000000000000007
40
0.75000000000000011
40
0.80000000000000016
40
0.8500000000000002
40
0.90000000000000024
40
0.95000000000000029
40
1
40
1
40
1
40
1
40
1
40
1
41
1
41
1
41
1
41
1
41
1
41
1
41
1
41
1
41
1
41
1
41
1
41
1
41
1
41
1
41
1
41
1
41
1
41
1
41
1
41
1
41
1
41
1
41
1
41
1
41
1
10
114.77908301623046
20
77.316285125443557
30
0
10
114.13222395793049
20
78.067738947111579
30
0
10
112.87562174424346
20
79.350496406985812
30
0
10
111.10242636707463
20
80.614725469371081
30
0
10
109.01634114443651
20
81.171823523124118
30
0
10
107.09332972150801
20
80.9416360765984
30
0
10
105.8819687141266
20
80.610217136294551
30
0
10
105.10380534833968
20
80.519137737932937
30
0
10
103.63414221937717
20
79.540075900962279
30
0
10
101.49557366189357
20
77.66979666166543
30
0
10
99.252039894066229
20
75.402154550746857
30
0
10
97.615947076675468
20
73.317132347754594
30
0
10
96.977685687906188
20
71.59264864932878
30
0
10
96.970019308602218
20
69.553493235696095
30
0
10
97.519483614700732
20
66.93742674601306
30
0
10
98.543764643323868
20
63.641628686655153
30
0
10
99.982239193295413
20
59.776321938808501
30
0
10
101.62435157217585
20
55.67086629875277
30
0
10
103.18226415190593
20
51.74417311064029
30
0
10
103.87540925619645
20
48.817668661707046
30
0
10
103.33098990075283
20
47.128848975857515
30
0
10
102.1887141307861
20
46.309520839305861
30
0
10
101.13585563241344
20
45.699576742515532
30
0
10
100.38660084846853
20
45.241650756445644
30
0
10
100
20
45
30
0
0
LINE
5
132
100
AcDbEntity
8
0
100
AcDbLine
10
99.999999999999986
20
45
30
0
11
84.312491450743181
21
35.194283528625057
31
0
0
SPLINE
5
133
100
AcDbEntity
8
0
100
AcDbSpline
70
4
71
5
72
41
73
35
74
0
42
0.000000001
43
0.0000000001
44
0.0000000001
40
0
40
0
40
0
40
0
40
0
40
0
40
0.033333333333333333
40
0.066666666666666666
40
0.10000000000000001
40
0.13333333333333333
40
0.16666666666666666
40
0.19999999999999998
40
0.23333333333333331
40
0.26666666666666666
40
0.29999999999999999
40
0.33333333333333331
40
0.36666666666666664
40
0.39999999999999997
40
0.43333333333333329
40
0.46666666666666662
40
0.49999999999999994
40
0.53333333333333333
40
0.56666666666666665
40
0.59999999999999998
40
0.6333333333333333
40
0.66666666666666663
40
0.69999999999999996
40
0.73333333333333328
40
0.76666666666666661
40
0.79999999999999993
40
0.83333333333333326
40
0.86666666666666659
40
0.89999999999999991
40
0.93333333333333324
40
0.96666666666666656
40
1
40
1
40
1
40
1
40
1
40
1
41
1
41
1
41
1
41
1
41
1
41
1
41
1
41
1
41
1
41
1
41
1
41
1
41
1
41
1
41
1
41
1
41
1
41
1
41
1
41
1
41
1
41
1
41
1
41
1
41
1
41
1
41
1
41
1
41
1
41
1
41
1
41
1
41
1
41
1
41
1
10
84.312491450743181
20
35.194283528625057
30
0
10
84.183584265445461
20
35.12591839622462
30
0
10
83.865517200877107
20
34.977517050080557
30
0
10
83.208281915369156
20
34.723937520670852
30
0
10
82.01730236899067
20
34.739499510735953
30
0
10
80.146595582756561
20
36.814076334968476
30
0
10
77.690929760331898
20
40.071325180073359
30
0
10
74.622795432519894
20
43.860140061002618
30
0
10
71.02082228576262
20
47.645946828961677
30
0
10
67.046767908779103
20
51.015856200360318
30
0
10
62.909024670521731
20
53.664192766501785
30
0
10
58.832069493745031
20
55.386254949386249
30
0
10
55.023984523874027
20
56.069489524185016
30
0
10
51.643866229026578
20
55.686759901543212
30
0
10
48.77153666695105
20
54.289439318792233
30
0
10
46.405793444266394
20
51.99947044928485
30
0
10
44.459186775776217
20
49.002030554772901
30
0
10
42.754221857120022
20
45.538623324518539
30
0
10
41.016609903948876
20
41.900567403032916
30
0
10
38.864851940963923
20
38.425520218986435
30
0
10
36.182374611748038
20
35.364157117991176
30
0
10
32.994038086715911
20
32.901244538428692
30
0
10
29.442099996223451
20
31.146502576067938
30
0
10
25.723414019614541
20
30.135898756708954
30
0
10
22.046093223966196
20
29.829295135445712
30
0
10
18.572541224699382
20
30.105280059898831
30
0
10
15.385397555393208
20
30.767808428542939
30
0
10
12.514384315807781
20
31.592943020914479
30
0
10
9.9528842308973378
20
32.369508509846348
30
0
10
7.6776195482983844
20
32.939610076492507
30
0
10
5.6680576297256593
20
33.24539867524819
30
0
10
4.271219339325695
20
33.334194976299599
30
0
10
3.3444765152357485
20
33.360271895712025
30
0
10
2.7810163258161142
20
33.368051350340259
30
0
10
2.5128772435109061
20
33.369535124423535
30
0
0
SPLINE
5
134
100
AcDbEntity
8
0
100
AcDbSpline
70
4
71
5
72
41
73
35
74
0
42
0.000000001
43
0.0000000001
44
0.0000000001
40
-1
40
-1
40
-1
40
-1
40
-1
40
-1
40
-0.96666666666666656
40
-0.93333333333333324
40
-0.89999999999999991
40
-0.86666666666666659
40
-0.83333333333333326
40
-0.79999999999999993
40
-0.76666666666666661
40
-0.73333333333333328
40
-0.69999999999999996
40
-0.66666666666666663
40
-0.6333333333333333
40
-0.59999999999999998
40
-0.56666666666666665
40
-0.53333333333333333
40
-0.49999999999999994
40
-0.46666666666666662
40
-0.43333333333333329
40
-0.39999999999999997
40
-0.36666666666666664
40
-0.33333333333333331
40
-0.29999999999999999
40
-0.26666666666666666
40
-0.23333333333333331
40
-0.19999999999999998
40
-0.16666666666666666
40
-0.13333333333333333
40
-0.10000000000000001
40
-0.066666666666666666
40
-0.033333333333333333
40
0
40
0
40
0
40
0
40
0
40
0
41
1
41
1
41
1
41
1
41
1
41
1
41
1
41
1
41
1
41
1
41
1
41
1
41
1
41
1
41
1
41
1
41
1
41
1
41
1
41
1
41
1
41
1
41
1
41
1
41
1
41
1
41
1
41
1
41
1
41
1
41
1
41
1
41
1
41
1
41
1
10
2.5128772435109061
20
33.369535124423535
30
0
10
2.2447381612056976
20
33.368051350340259
30
0
10
1.681277971786024
20
33.360271895712032
30
0
10
0.75453514769593844
20
33.334194976299614
30
0
10
-0.64230314270404065
20
33.245398675248197
30
0
10
-2.6518650612766121
20
32.9396100764925
30
0
10
-4.9271297438753576
20
32.369508509846369
30
0
10
-7.4886298287856636
20
31.592943020914547
30
0
10
-10.359643068371065
20
30.767808428543042
30
0
10
-13.546786737677364
20
30.105280059898909
30
0
10
-17.02033873694436
20
29.829295135445729
30
0
10
-20.697659532592834
20
30.135898756708897
30
0
10
-24.416345509201825
20
31.146502576067835
30
0
10
-27.968283599694267
20
32.901244538428585
30
0
10
-31.156620124726324
20
35.364157117991098
30
0
10
-33.839097453942102
20
38.425520218986392
30
0
10
-35.990855416927047
20
41.900567403032916
30
0
10
-37.728467370098222
20
45.538623324518539
30
0
10
-39.433432288754339
20
49.002030554772844
30
0
10
-41.380038957244352
20
51.999470449284729
30
0
10
-43.745782179928895
20
54.28943931879212
30
0
10
-46.618111742004416
20
55.686759901543148
30
0
10
-49.998230036852121
20
56.069489524185016
30
0
10
-53.806315006723565
20
55.386254949386277
30
0
10
-57.883270183500755
20
53.66419276650177
30
0
10
-62.02101342175834
20
51.015856200360247
30
0
10
-65.995067798741729
20
47.645946828961556
30
0
10
-69.597040945498662
20
43.860140061002511
30
0
10
-72.665175273310282
20
40.071325180073309
30
0
10
-75.120841095734733
20
36.81407633496849
30
0
10
-76.99154788196887
20
34.739499510735918
30
0
10
-78.182527428347498
20
34.723937520670852
30
0
10
-78.839762713855336
20
34.97751705008055
30
0
10
-79.157829778423661
20
35.125918396224606
30
0
10
-79.286736963721367
20
35.194283528625043
30
0
0
LINE
5
135
100
AcDbEntity
8
0
100
AcDbLine
10
-79.286736963721353
20
35.194283528625036
30
0
11
-94.974245512978186
21
44.999999999999986
31
0
0
SPLINE
5
136
100
AcDbEntity
8
0
100
AcDbSpline
70
4
71
5
72
31
73
25
74
0
42
0.000000001
43
0.0000000001
44
0.0000000001
40
-1
40
-1
40
-1
40
-1
40
-1
40
-1
40
-0.95000000000000029
40
-0.90000000000000024
40
-0.8500000000000002
40
-0.80000000000000016
40
-0.75000000000000011
40
-0.70000000000000007
40
-0.65000000000000002
40
-0.59999999999999998
40
-0.54999999999999993
40
-0.49999999999999994
40
-0.44999999999999996
40
-0.39999999999999997
40
-0.34999999999999998
40
-0.29999999999999999
40
-0.25
40
-0.20000000000000001
40
-0.15000000000000002
40
-0.10000000000000001
40
-0.050000000000000003
40
0
40
0
40
0
40
0
40
0
40
0
41
1
41
1
41
1
41
1
41
1
41
1
41
1
41
1
41
1
41
1
41
1
41
1
41
1
41
1
41
1
41
1
41
1
41
1
41
1
41
1
41
1
41
1
41
1
41
1
41
1
10
-94.974245512978186
20
44.999999999999986
30
0
10
-95.360846361446718
20
45.241650756445623
30
0
10
-96.110101145391624
20
45.699576742515511
30
0
10
-97.162959643764282
20
46.30952083930584
30
0
10
-98.305235413730998
20
47.128848975857494
30
0
10
-98.849654769174634
20
48.817668661707032
30
0
10
-98.156509664884112
20
51.744173110640268
30
0
10
-96.598597085154054
20
55.670866298752756
30
0
10
-94.956484706273613
20
59.776321938808479
30
0
10
-93.518010156302068
20
63.641628686655132
30
0
10
-92.493729127678947
20
66.937426746013045
30
0
10
-91.944264821580418
20
69.553493235696081
30
0
10
-91.951931200884388
20
71.592648649328765
30
0
10
-92.590192589653668
20
73.31713234775458
30
0
10
-94.226285407044429
20
75.402154550746843
30
0
10
-96.469819174871787
20
77.669796661665401
30
0
10
-98.608387732355368
20
79.540075900962265
30
0
10
-100.07805086131788
20
80.519137737932908
30
0
10
-100.8562142271048
20
80.610217136294523
30
0
10
-102.06757523448621
20
80.941636076598385
30
0
10
-103.99058665741471
20
81.171823523124104
30
0
10
-106.07667188005283
20
80.614725469371052
30
0
10
-107.84986725722166
20
79.350496406985783
30
0
10
-109.10646947090869
20
78.067738947111565
30
0
10
-109.75332852920866
20
77.316285125443542
30
0
0
SPLINE
5
137
100
AcDbEntity
8
0
100
AcDbSpline
70
4
71
5
72
26
73
20
74
0
42
0.000000001
43
0.0000000001
44
0.0000000001
40
0
40
0
40
0
40
0
40
0
40
0
40
0.066666666666666666
40
0.13333333333333333
40
0.20000000000000001
40
0.26666666666666666
40
0.33333333333333331
40
0.39999999999999997
40
0.46666666666666662
40
0.53333333333333333
40
0.59999999999999998
40
0.66666666666666663
40
0.73333333333333328
40
0.79999999999999993
40
0.86666666666666659
40
0.93333333333333324
40
1
40
1
40
1
40
1
40
1
40
1
41
1
41
1
41
1
41
1
41
1
41
1
41
1
41
1
41
1
41
1
41
1
41
1
41
1
41
1
41
1
41
1
41
1
41
1
41
1
41
1
10
-109.75332852920866
20
77.316285125443542
30
0
10
-111.7705979868022
20
74.972830513821009
30
0
10
-115.60507216933603
20
70.285046896242321
30
0
10
-120.75658270437857
20
63.250649246665809
30
0
10
-126.47152147555241
20
53.943806906963005
30
0
10
-131.94492037618727
20
42.7749431080737
30
0
10
-136.0507991042098
20
32.354592783347542
30
0
10
-139.05399943419621
20
22.643799753268645
30
0
10
-141.11285026316736
20
13.12379578073315
30
0
10
-142.16346985028841
20
2.2906503007371675
30
0
10
-142.22870486101237
20
-9.3874170963318804
30
0
10
-141.24506489967649
20
-20.71700596391949
30
0
10
-139.01225209200084
20
-30.299410210505144
30
0
10
-134.98654951307648
20
-37.48888826748167
30
0
10
-128.39165843090927
20
-42.782131088434653
30
0
10
-118.95158119828706
20
-46.303607370360567
30
0
10
-109.02348737560942
20
-47.835828705605934
30
0
10
-100.2499973602186
20
-48.28474040564376
30
0
10
-93.814431892399568
20
-48.276564496258899
30
0
10
-90.450056422621756
20
-48.195525266530879
30
0
0
SPLINE
5
138
100
AcDbEntity
8
0
100
AcDbSpline
70
4
71
5
72
21
73
15
74
0
42
0.000000001
43
0.0000000001
44
0.0000000001
40
0
40
0
40
0
40
0
40
0
40
0
40
0.10000000000000001
40
0.20000000000000001
40
0.30000000000000004
40
0.40000000000000002
40
0.5
40
0.59999999999999998
40
0.69999999999999996
40
0.79999999999999993
40
0.89999999999999991
40
1
40
1
40
1
40
1
40
1
40
1
41
1
41
1
41
1
41
1
41
1
41
1
41
1
41
1
41
1
41
1
41
1
41
1
41
1
41
1
41
1
10
-90.450056422621756
20
-48.195525266530879
30
0
10
-90.031042614128808
20
-48.186094281987508
30
0
10
-89.193840527662175
20
-48.16805205404583
30
0
10
-87.940513895041278
20
-48.143447841751879
30
0
10
-86.274447015476909
20
-48.115642210518942
30
0
10
-84.200828513459584
20
-48.089787397470936
30
0
10
-82.136989345745221
20
-48.073643337120025
30
0
10
-80.083748180605056
20
-48.0680229565003
30
0
10
-78.041588971671544
20
-48.073406815329882
30
0
10
-76.010120643807994
20
-48.089406581054419
30
0
10
-73.98855598477806
20
-48.115240562092218
30
0
10
-72.378587118509444
20
-48.14313953384751
30
0
10
-71.174948169003102
20
-48.167874549424745
30
0
10
-70.374200079240609
20
-48.186030669592597
30
0
10
-69.974245512978172
20
-48.195525266530872
30
0
0
SPLINE
5
139
100
AcDbEntity
8
0
100
AcDbSpline
70
4
71
5
72
26
73
20
74
0
42
0.000000001
43
0.0000000001
44
0.0000000001
40
0
40
0
40
0
40
0
40
0
40
0
40
0.066666666666666666
40
0.13333333333333333
40
0.20000000000000001
40
0.26666666666666666
40
0.33333333333333331
40
0.39999999999999997
40
0.46666666666666662
40
0.53333333333333333
40
0.59999999999999998
40
0.66666666666666663
40
0.73333333333333328
40
0.79999999999999993
40
0.86666666666666659
40
0.93333333333333324
40
1
40
1
40
1
40
1
40
1
40
1
41
1
41
1
41
1
41
1
41
1
41
1
41
1
41
1
41
1
41
1
41
1
41
1
41
1
41
1
41
1
41
1
41
1
41
1
41
1
41
1
10
-69.974245512978172
20
-48.195525266530872
30
0
10
-69.572194396040743
20
-48.195525266530872
30
0
10
-68.724959435004209
20
-48.206501303794823
30
0
10
-67.324715192597807
20
-48.255892997521308
30
0
10
-65.232158841587008
20
-48.381613072834227
30
0
10
-62.428403815563122
20
-48.607944705493892
30
0
10
-59.670648373814885
20
-48.870920529490654
30
0
10
-57.182876394228266
20
-49.149696671783836
30
0
10
-55.120388919187342
20
-49.448508736205085
30
0
10
-53.513693301802292
20
-49.81150394475538
30
0
10
-52.197922063311722
20
-50.336181621143929
30
0
10
-50.960162613496863
20
-51.140697650567652
30
0
10
-49.628859207777687
20
-52.31890912927318
30
0
10
-48.29590607549062
20
-53.922953404647096
30
0
10
-47.209174883390716
20
-55.870689189254712
30
0
10
-46.397630606187533
20
-57.939436630115893
30
0
10
-45.96452083124656
20
-59.487661593371335
30
0
10
-45.738028133756792
20
-60.489780507708623
30
0
10
-45.62727584057675
20
-61.073867527157873
30
0
10
-45.58192952955941
20
-61.344905613568841
30
0
0
SPLINE
5
140
100
AcDbEntity
8
0
100
AcDbSpline
70
4
71
5
72
26
73
20
74
0
42
0.000000001
43
0.0000000001
44
0.0000000001
40
0
40
0
40
0
40
0
40
0
40
0
40
0.066666666666666666
40
0.13333333333333333
40
0.20000000000000001
40
0.26666666666666666
40
0.33333333333333331
40
0.39999999999999997
40
0.46666666666666662
40
0.53333333333333333
40
0.59999999999999998
40
0.66666666666666663
40
0.73333333333333328
40
0.79999999999999993
40
0.86666666666666659
40
0.93333333333333324
40
1
40
1
40
1
40
1
40
1
40
1
41
1
41
1
41
1
41
1
41
1
41
1
41
1
41
1
41
1
41
1
41
1
41
1
41
1
41
1
41
1
41
1
41
1
41
1
41
1
41
1
10
-45.58192952955941
20
-61.344905613568841
30
0
10
-45.363248910378822
20
-62.44047211818625
30
0
10
-44.782756000029558
20
-64.432932024479513
30
0
10
-43.48242182809409
20
-66.825395715749323
30
0
10
-41.010639059562578
20
-68.913754484725928
30
0
10
-37.316847630346672
20
-70.147123520145399
30
0
10
-33.74835257372839
20
-70.535781740694915
30
0
10
-30.821340427528714
20
-70.429070065567714
30
0
10
-28.741769557374024
20
-69.964836396062154
30
0
10
-26.748242025225345
20
-68.471438425912211
30
0
10
-24.636026391514385
20
-66.14087942729158
30
0
10
-22.608946083038859
20
-63.6732854469983
30
0
10
-20.915410345156214
20
-61.746897950815899
30
0
10
-19.605673654615451
20
-60.576539625999843
30
0
10
-18.184201374073204
20
-59.390793956569354
30
0
10
-16.260081608277424
20
-58.231543727436595
30
0
10
-14.037322599184208
20
-57.528584771569136
30
0
10
-11.879173132815936
20
-57.294805408364304
30
0
10
-10.208999560002532
20
-57.294598791811978
30
0
10
-9.316079750322027
20
-57.333481683547561
30
0
0
SPLINE
5
141
100
AcDbEntity
8
0
100
AcDbSpline
70
4
71
5
72
16
73
10
74
0
42
0.000000001
43
0.0000000001
44
0.0000000001
40
-1
40
-1
40
-1
40
-1
40
-1
40
-1
40
-0.89999999999999991
40
-0.79999999999999993
40
-0.69999999999999996
40
-0.59999999999999998
40
-0.57452908263914582
40
-0.57452908263914582
40
-0.57452908263914582
40
-0.57452908263914582
40
-0.57452908263914582
40
-0.57452908263914582
41
1
41
1
41
1
41
1
41
1
41
1
41
1
41
1
41
1
41
1
10
-9.316079750322027
20
-57.333481683547561
30
0
10
-8.8682734183473784
20
-57.352981760638365
30
0
10
-7.965913088175963
20
-57.396333251804947
30
0
10
-6.5921310829770405
20
-57.474412919139965
30
0
10
-4.7228317695967075
20
-57.600294054565673
30
0
10
-2.6946451731812679
20
-57.744355933480655
30
0
10
-1.1287602749645662
20
-57.844575675044197
30
0
10
-0.040824705632549231
20
-57.903356528916959
30
0
10
0.56500539076401524
20
-57.931905994238477
30
0
10
0.68800281897913651
20
-57.93752321452164
30
0
0
CIRCLE
5
142
100
AcDbEntity
8
0
100
AcDbCircle
10
2.5128772435080844
20
22.683023076852564
30
0
40
2.7499999999999996
210
0
220
0
230
1
0
CIRCLE
5
143
100
AcDbEntity
8
0
100
AcDbCircle
10
-27.798011888961128
20
-29.816976923139418
30
0
40
2.7499999999999991
210
0
220
0
230
1
0
CIRCLE
5
144
100
AcDbEntity
8
0
100
AcDbCircle
10
32.82376637594956
20
-29.81697692315544
30
0
40
2.7499999999999991
210
0
220
0
230
1
0
SPLINE
5
145
100
AcDbEntity
8
0
100
AcDbSpline
70
6
71
5
72
66
73
60
74
0
42
0.000000001
43
0.0000000001
44
0.0000000001
40
0
40
0
40
0
40
0
40
0
40
0
40
0.018181818181818181
40
0.036363636363636362
40
0.054545454545454543
40
0.072727272727272724
40
0.090909090909090912
40
0.1090909090909091
40
0.12727272727272729
40
0.14545454545454548
40
0.16363636363636366
40
0.18181818181818185
40
0.20000000000000004
40
0.21818181818181823
40
0.23636363636363641
40
0.25454545454545457
40
0.27272727272727276
40
0.29090909090909095
40
0.30909090909090914
40
0.32727272727272733
40
0.34545454545454551
40
0.3636363636363637
40
0.38181818181818189
40
0.40000000000000008
40
0.41818181818181827
40
0.43636363636363645
40
0.45454545454545464
40
0.47272727272727283
40
0.49090909090909102
40
0.50909090909090915
40
0.52727272727272734
40
0.54545454545454553
40
0.56363636363636371
40
0.5818181818181819
40
0.60000000000000009
40
0.61818181818181828
40
0.63636363636363646
40
0.65454545454545465
40
0.67272727272727284
40
0.69090909090909103
40
0.70909090909090922
40
0.7272727272727274
40
0.74545454545454559
40
0.76363636363636378
40
0.78181818181818197
40
0.80000000000000016
40
0.81818181818181834
40
0.83636363636363653
40
0.85454545454545472
40
0.87272727272727291
40
0.89090909090909109
40
0.90909090909090928
40
0.92727272727272747
40
0.94545454545454566
40
0.96363636363636385
40
0.98181818181818203
40
1
40
1
40
1
40
1
40
1
40
1
41
1
41
1
41
1
41
1
41
1
41
1
41
1
41
1
41
1
41
1
41
1
41
1
41
1
41
1
41
1
41
1
41
1
41
1
41
1
41
1
41
1
41
1
41
1
41
1
41
1
41
1
41
1
41
1
41
1
41
1
41
1
41
1
41
1
41
1
41
1
41
1
41
1
41
1
41
1
41
1
41
1
41
1
41
1
41
1
41
1
41
1
41
1
41
1
41
1
41
1
41
1
41
1
41
1
41
1
41
1
41
1
41
1
41
1
41
1
41
1
10
-72.974246675268759
20
-2.0000000298023357
30
0
10
-73.047954255925063
20
-2.3849517794031456
30
0
10
-73.235649120452024
20
-3.2208014256095172
30
0
10
-73.625901491908195
20
-4.6802083405359411
30
0
10
-74.307583294396579
20
-7.0403947861946836
30
0
10
-75.273722461465354
20
-10.571658525917776
30
0
10
-76.20581745023388
20
-14.47791906675751
30
0
10
-76.986869384428203
20
-18.485212263900635
30
0
10
-77.549183201799877
20
-22.260297889643546
30
0
10
-77.90671751129247
20
-25.465626249221284
30
0
10
-78.154928816851381
20
-27.706502936159577
30
0
10
-78.548659527922979
20
-28.725797347573717
30
0
10
-79.540406429378919
20
-29.025466911451648
30
0
10
-81.303503742703228
20
-29.101341025939945
30
0
10
-83.640010293586926
20
-29.141546240157741
30
0
10
-86.479590795367628
20
-29.234835355584174
30
0
10
-89.709181266500224
20
-29.358093229063819
30
0
10
-93.219419544604477
20
-29.424731895514938
30
0
10
-96.850985242390948
20
-29.310027241140283
30
0
10
-100.40715550585517
20
-28.881678797631704
30
0
10
-103.57741553679516
20
-28.039638453657322
30
0
10
-106.21221327383715
20
-26.697177568192885
30
0
10
-108.27840102604888
20
-24.794304886821731
30
0
10
-109.82066150065337
20
-22.308688388302667
30
0
10
-110.91254413547061
20
-19.280085345305572
30
0
10
-111.63668769879104
20
-15.799684597130707
30
0
10
-111.99288750898083
20
-12.085719454715498
30
0
10
-112.0283108300566
20
-8.293864394502279
30
0
10
-111.86260326661392
20
-4.475166433746594
30
0
10
-111.62416773789779
20
-0.64538279114761166
30
0
10
-111.40657693873544
20
3.1832347985414118
30
0
10
-111.25289661897381
20
6.9719584138726844
30
0
10
-111.04303086103683
20
10.583381726001432
30
0
10
-110.62031637034858
20
13.823732764901511
30
0
10
-109.33848618546546
20
16.203034879915862
30
0
10
-107.36465679574145
20
17.55699836186767
30
0
10
-105.42090717946679
20
18.093671746039533
30
0
10
-104.11426591299387
20
18.113236436358115
30
0
10
-102.77816623863086
20
17.752067612766183
30
0
10
-100.20963999992404
20
16.995124102206411
30
0
10
-96.704632912145954
20
16.015258658358007
30
0
10
-92.895028579995781
20
14.981576905551588
30
0
10
-89.670965309709032
20
14.036325284765887
30
0
10
-87.711105190334308
20
13.238494956294772
30
0
10
-87.033436709641322
20
12.433949390137277
30
0
10
-86.90085559099542
20
11.375216056744083
30
0
10
-86.781422314666585
20
10.101136737106247
30
0
10
-86.242914934765338
20
8.6936617985259605
30
0
10
-85.146000310467798
20
7.2575791532798117
30
0
10
-83.516320713831902
20
5.8893256703972447
30
0
10
-81.51049414768481
20
4.6698401596416215
30
0
10
-79.34017149411433
20
3.6457913040710488
30
0
10
-77.223541503684814
20
2.8183282932282094
30
0
10
-75.365298958508745
20
2.1409808635903094
30
0
10
-73.932874446355513
20
1.5149858064547908
30
0
10
-73.035582264090209
20
0.78854028253588004
30
0
10
-72.765668593970403
20
-0.045199336120494253
30
0
10
-72.793403636514114
20
-0.91109092800466251
30
0
10
-72.900539094612427
20
-1.6150482802015309
30
0
10
-72.974246675268759
20
-2.0000000298023357
30
0
0
LWPOLYLINE
5
146
100
AcDbEntity
8
0
100
AcDbPolyline
90
4
70
1
43
0.0
10
83.773161708319208
20
31.9089521659558
10
83.916357143869433
20
31.998468173954965
10
83.914018293633717
20
32.002162493274952
10
83.770765529668537
20
31.912610647465527
0
SPLINE
5
147
100
AcDbEntity
8
0
100
AcDbSpline
70
6
71
5
72
66
73
60
74
0
42
0.000000001
43
0.0000000001
44
0.0000000001
40
-1
40
-1
40
-1
40
-1
40
-1
40
-1
40
-0.98181818181818203
40
-0.96363636363636385
40
-0.94545454545454566
40
-0.92727272727272747
40
-0.90909090909090928
40
-0.89090909090909109
40
-0.87272727272727291
40
-0.85454545454545472
40
-0.83636363636363653
40
-0.81818181818181834
40
-0.80000000000000016
40
-0.78181818181818197
40
-0.76363636363636378
40
-0.74545454545454559
40
-0.7272727272727274
40
-0.70909090909090922
40
-0.69090909090909103
40
-0.67272727272727284
40
-0.65454545454545465
40
-0.63636363636363646
40
-0.61818181818181828
40
-0.60000000000000009
40
-0.5818181818181819
40
-0.56363636363636371
40
-0.54545454545454553
40
-0.52727272727272734
40
-0.50909090909090915
40
-0.49090909090909102
40
-0.47272727272727283
40
-0.45454545454545464
40
-0.43636363636363645
40
-0.41818181818181827
40
-0.40000000000000008
40
-0.38181818181818189
40
-0.3636363636363637
40
-0.34545454545454551
40
-0.32727272727272733
40
-0.30909090909090914
40
-0.29090909090909095
40
-0.27272727272727276
40
-0.25454545454545457
40
-0.23636363636363641
40
-0.21818181818181823
40
-0.20000000000000004
40
-0.18181818181818185
40
-0.16363636363636366
40
-0.14545454545454548
40
-0.12727272727272729
40
-0.1090909090909091
40
-0.090909090909090912
40
-0.072727272727272724
40
-0.054545454545454543
40
-0.036363636363636362
40
-0.018181818181818181
40
0
40
0
40
0
40
0
40
0
40
0
41
1
41
1
41
1
41
1
41
1
41
1
41
1
41
1
41
1
41
1
41
1
41
1
41
1
41
1
41
1
41
1
41
1
41
1
41
1
41
1
41
1
41
1
41
1
41
1
41
1
41
1
41
1
41
1
41
1
41
1
41
1
41
1
41
1
41
1
41
1
41
1
41
1
41
1
41
1
41
1
41
1
41
1
41
1
41
1
41
1
41
1
41
1
41
1
41
1
41
1
41
1
41
1
41
1
41
1
41
1
41
1
41
1
41
1
41
1
41
1
10
78.000001162290573
20
-2.0000000298023224
30
0
10
77.926293581634241
20
-1.6150482802015176
30
0
10
77.819158123535914
20
-0.91109092800464919
30
0
10
77.791423080992217
20
-0.045199336120480924
30
0
10
78.061336751112023
20
0.78854028253589337
30
0
10
78.958628933377327
20
1.5149858064548045
30
0
10
80.391053445530559
20
2.1409808635903231
30
0
10
82.249295990706628
20
2.8183282932282232
30
0
10
84.365925981136144
20
3.6457913040710634
30
0
10
86.536248634706624
20
4.6698401596416357
30
0
10
88.542075200853702
20
5.8893256703972607
30
0
10
90.171754797489598
20
7.2575791532798277
30
0
10
91.268669421787152
20
8.6936617985259765
30
0
10
91.807176801688399
20
10.101136737106263
30
0
10
91.926610078017234
20
11.375216056744099
30
0
10
92.059191196663136
20
12.433949390137293
30
0
10
92.736859677356136
20
13.238494956294788
30
0
10
94.696719796730832
20
14.036325284765903
30
0
10
97.920783067017595
20
14.981576905551606
30
0
10
101.73038739916777
20
16.015258658358025
30
0
10
105.23539448694585
20
16.995124102206425
30
0
10
107.80392072565266
20
17.752067612766204
30
0
10
109.14002040001569
20
18.113236436358132
30
0
10
110.44666166648861
20
18.093671746039554
30
0
10
112.39041128276327
20
17.556998361867691
30
0
10
114.36424067248726
20
16.203034879915879
30
0
10
115.64607085737039
20
13.82373276490153
30
0
10
116.06878534805864
20
10.583381726001452
30
0
10
116.27865110599561
20
6.971958413872704
30
0
10
116.43233142575725
20
3.1832347985414318
30
0
10
116.64992222491961
20
-0.64538279114759167
30
0
10
116.88835775363573
20
-4.4751664337465735
30
0
10
117.0540653170784
20
-8.2938643945022594
30
0
10
117.01864199600264
20
-12.085719454715477
30
0
10
116.66244218581285
20
-15.799684597130687
30
0
10
115.93829862249243
20
-19.280085345305555
30
0
10
114.84641598767519
20
-22.308688388302649
30
0
10
113.3041555130707
20
-24.794304886821713
30
0
10
111.23796776085896
20
-26.697177568192867
30
0
10
108.60317002381697
20
-28.039638453657304
30
0
10
105.43290999287699
20
-28.881678797631686
30
0
10
101.87673972941276
20
-29.310027241140265
30
0
10
98.245174031626291
20
-29.42473189551492
30
0
10
94.734935753522052
20
-29.358093229063801
30
0
10
91.505345282389442
20
-29.234835355584153
30
0
10
88.665764780608754
20
-29.141546240157727
30
0
10
86.329258229725042
20
-29.101341025939931
30
0
10
84.566160916400733
20
-29.025466911451634
30
0
10
83.574414014944807
20
-28.725797347573703
30
0
10
83.180683303873195
20
-27.706502936159563
30
0
10
82.932471998314284
20
-25.465626249221273
30
0
10
82.574937688821691
20
-22.260297889643535
30
0
10
82.012623871450018
20
-18.485212263900621
30
0
10
81.231571937255694
20
-14.477919066757497
30
0
10
80.299476948487168
20
-10.571658525917762
30
0
10
79.333337781418408
20
-7.0403947861946703
30
0
10
78.651655978930009
20
-4.6802083405359269
30
0
10
78.261403607473852
20
-3.2208014256095039
30
0
10
78.073708742946877
20
-2.3849517794031323
30
0
10
78.000001162290573
20
-2.0000000298023224
30
0
0
CIRCLE
5
148
100
AcDbEntity
8
0
100
AcDbCircle
10
2.5128772435106117
20
-53.502452178559203
30
0
40
1.5999999999999992
210
0
220
0
230
1
0
CIRCLE
5
149
100
AcDbEntity
8
0
100
AcDbCircle
10
-120.9742455129782
20
27.999999999999979
30
0
40
1.6000000000000014
210
0
220
0
230
1
0
CIRCLE
5
150
100
AcDbEntity
8
0
100
AcDbCircle
10
130
20
-18
30
0
40
1.6000000000000014
210
0
220
0
230
1
0
CIRCLE
5
151
100
AcDbEntity
8
0
100
AcDbCircle
10
126.00000000000001
20
28.000000000000004
30
0
40
1.6000000000000014
210
0
220
0
230
1
0
CIRCLE
5
152
100
AcDbEntity
8
0
100
AcDbCircle
10
102.00000000000001
20
-39
30
0
40
1.6000000000000014
210
0
220
0
230
1
0
CIRCLE
5
153
100
AcDbEntity
8
0
100
AcDbCircle
10
-94.974245512978186
20
27.999999999999986
30
0
40
1.6000000000000014
210
0
220
0
230
1
0
CIRCLE
5
154
100
AcDbEntity
8
0
100
AcDbCircle
10
-124.97424551297819
20
-18.000000000000014
30
0
40
1.6000000000000014
210
0
220
0
230
1
0
CIRCLE
5
155
100
AcDbEntity
8
0
100
AcDbCircle
10
110
20
65
30
0
40
1.6000000000000014
210
0
220
0
230
1
0
CIRCLE
5
156
100
AcDbEntity
8
0
100
AcDbCircle
10
100
20
28.000000000000004
30
0
40
1.6000000000000014
210
0
220
0
230
1
0
CIRCLE
5
157
100
AcDbEntity
8
0
100
AcDbCircle
10
-96.9742455129782
20
-39.000000000000021
30
0
40
1.6000000000000014
210
0
220
0
230
1
0
CIRCLE
5
158
100
AcDbEntity
8
0
100
AcDbCircle
10
-104.97424551297819
20
64.999999999999986
30
0
40
1.6000000000000014
210
0
220
0
230
1
0
CIRCLE
5
159
100
AcDbEntity
8
0
100
AcDbCircle
10
76.403702822266766
20
18.798783660265002
30
0
40
6.7999999999999972
210
0
220
0
230
1
0
CIRCLE
5
160
100
AcDbEntity
8
0
100
AcDbCircle
10
-55.731020411840404
20
-22.231008700725123
30
0
40
6.7999999999999972
210
0
220
0
230
1
0
CIRCLE
5
161
100
AcDbEntity
8
0
100
AcDbCircle
10
-50.547232322194446
20
43.182024884843536
30
0
40
6.7999999999999972
210
0
220
0
230
1
0
CIRCLE
5
162
100
AcDbEntity
8
0
100
AcDbCircle
10
-33.801920302401129
20
-53.979539650447208
30
0
40
6.8000000000000016
210
0
220
0
230
1
0
CIRCLE
5
163
100
AcDbEntity
8
0
100
AcDbCircle
10
44.866967649020566
20
19.20247970702955
30
0
40
6.7999999999999972
210
0
220
0
230
1
0
CIRCLE
5
164
100
AcDbEntity
8
0
100
AcDbCircle
10
60.75677489886224
20
-22.231008700725113
30
0
40
6.7999999999999972
210
0
220
0
230
1
0
CIRCLE
5
165
100
AcDbEntity
8
0
100
AcDbCircle
10
-39.841213161998752
20
19.202479707029543
30
0
40
6.8000000000000016
210
0
220
0
230
1
0
CIRCLE
5
166
100
AcDbEntity
8
0
100
AcDbCircle
10
-71.377948335244952
20
18.798783660264991
30
0
40
6.7999999999999972
210
0
220
0
230
1
0
CIRCLE
5
167
100
AcDbEntity
8
0
100
AcDbCircle
10
38.827674789422957
20
-53.979539650447201
30
0
40
6.7999999999999972
210
0
220
0
230
1
0
CIRCLE
5
168
100
AcDbEntity
8
0
100
AcDbCircle
10
55.57298680921626
20
43.182024884843543
30
0
40
6.7999999999999972
210
0
220
0
230
1
0
CIRCLE
5
169
100
AcDbEntity
8
0
100
AcDbCircle
10
-71.487122756489086
20
-42.002452178559665
30
0
40
1.5999999999999981
210
0
220
-0
230
1
0
CIRCLE
5
170
100
AcDbEntity
8
0
100
AcDbCircle
10
76.512877243550733
20
-42.002452178520571
30
0
40
1.5999999999999981
210
0
220
-0
230
1
0
CIRCLE
5
171
100
AcDbEntity
8
0
100
AcDbCircle
10
-68.487122756488702
20
36.36948533020648
30
0
40
1.5999999999999981
210
0
220
-0
230
1
0
CIRCLE
5
172
100
AcDbEntity
8
0
100
AcDbCircle
10
73.512877243508939
20
36.36948533024399
30
0
40
1.5999999999999981
210
0
220
-0
230
1
0
SPLINE
5
173
100
AcDbEntity
8
0
100
AcDbSpline
70
0
71
3
72
10
73
6
74
0
42
0.000000001
43
0.0000000001
44
0.0000000001
40
0
40
0
40
0
40
0
40
0.18255872613901952
40
0.18255872613901952
40
0.36511745227803905
40
0.36511745227803905
40
0.36511745227803905
40
0.36511745227803905
10
0.68800281897934301
20
-57.937523214521661
30
0
10
1.2958982939696009
20
-57.965285443713839
30
0
10
1.9043481563810396
20
-57.979171980584461
30
0
10
3.1214063306411699
20
-57.979171980584439
30
0
10
3.729856193052608
20
-57.965285443713825
30
0
10
4.3377516680428654
20
-57.937523214521633
30
0
0
SPLINE
5
174
100
AcDbEntity
8
0
100
AcDbSpline
70
4
71
5
72
16
73
10
74
0
42
0.000000001
43
0.0000000001
44
0.0000000001
40
0.57452908263913727
40
0.57452908263913727
40
0.57452908263913727
40
0.57452908263913727
40
0.57452908263913727
40
0.57452908263913727
40
0.59999999999999998
40
0.69999999999999996
40
0.79999999999999993
40
0.89999999999999991
40
1
40
1
40
1
40
1
40
1
40
1
41
1
41
1
41
1
41
1
41
1
41
1
41
1
41
1
41
1
41
1
10
0.6880028189793429
20
-57.93752321452164
30
0
10
0.56500539076418044
20
-57.931905994238477
30
0
10
-0.040824705632425407
20
-57.90335652891698
30
0
10
-1.1287602749644838
20
-57.844575675044211
30
0
10
-2.6946451731812271
20
-57.744355933480655
30
0
10
-4.7228317695967075
20
-57.600294054565673
30
0
10
-6.5921310829770405
20
-57.474412919139965
30
0
10
-7.965913088175963
20
-57.396333251804947
30
0
10
-8.8682734183473784
20
-57.352981760638365
30
0
10
-9.316079750322027
20
-57.333481683547561
30
0
0
SPLINE
5
175
100
AcDbEntity
8
0
100
AcDbSpline
70
4
71
5
72
26
73
20
74
0
42
0.000000001
43
0.0000000001
44
0.0000000001
40
0
40
0
40
0
40
0
40
0
40
0
40
0.066666666666666666
40
0.13333333333333333
40
0.20000000000000001
40
0.26666666666666666
40
0.33333333333333331
40
0.39999999999999997
40
0.46666666666666662
40
0.53333333333333333
40
0.59999999999999998
40
0.66666666666666663
40
0.73333333333333328
40
0.79999999999999993
40
0.86666666666666659
40
0.93333333333333324
40
1
40
1
40
1
40
1
40
1
40
1
41
1
41
1
41
1
41
1
41
1
41
1
41
1
41
1
41
1
41
1
41
1
41
1
41
1
41
1
41
1
41
1
41
1
41
1
41
1
41
1
10
-45.58192952955941
20
-61.344905613568841
30
0
10
-45.363248910378822
20
-62.44047211818625
30
0
10
-44.782756000029558
20
-64.432932024479513
30
0
10
-43.48242182809409
20
-66.825395715749323
30
0
10
-41.010639059562578
20
-68.913754484725928
30
0
10
-37.316847630346672
20
-70.147123520145399
30
0
10
-33.74835257372839
20
-70.535781740694915
30
0
10
-30.821340427528714
20
-70.429070065567714
30
0
10
-28.741769557374024
20
-69.964836396062154
30
0
10
-26.748242025225345
20
-68.471438425912211
30
0
10
-24.636026391514385
20
-66.14087942729158
30
0
10
-22.608946083038859
20
-63.6732854469983
30
0
10
-20.915410345156214
20
-61.746897950815899
30
0
10
-19.605673654615451
20
-60.576539625999843
30
0
10
-18.184201374073204
20
-59.390793956569354
30
0
10
-16.260081608277424
20
-58.231543727436595
30
0
10
-14.037322599184208
20
-57.528584771569136
30
0
10
-11.879173132815936
20
-57.294805408364304
30
0
10
-10.208999560002532
20
-57.294598791811978
30
0
10
-9.316079750322027
20
-57.333481683547561
30
0
0
SPLINE
5
176
100
AcDbEntity
8
0
100
AcDbSpline
70
4
71
5
72
26
73
20
74
0
42
0.000000001
43
0.0000000001
44
0.0000000001
40
0
40
0
40
0
40
0
40
0
40
0
40
0.066666666666666666
40
0.13333333333333333
40
0.20000000000000001
40
0.26666666666666666
40
0.33333333333333331
40
0.39999999999999997
40
0.46666666666666662
40
0.53333333333333333
40
0.59999999999999998
40
0.66666666666666663
40
0.73333333333333328
40
0.79999999999999993
40
0.86666666666666659
40
0.93333333333333324
40
1
40
1
40
1
40
1
40
1
40
1
41
1
41
1
41
1
41
1
41
1
41
1
41
1
41
1
41
1
41
1
41
1
41
1
41
1
41
1
41
1
41
1
41
1
41
1
41
1
41
1
10
-69.974245512978172
20
-48.195525266530872
30
0
10
-69.572194396040743
20
-48.195525266530872
30
0
10
-68.724959435004209
20
-48.206501303794823
30
0
10
-67.324715192597807
20
-48.255892997521308
30
0
10
-65.232158841587008
20
-48.381613072834227
30
0
10
-62.428403815563122
20
-48.607944705493892
30
0
10
-59.670648373814885
20
-48.870920529490654
30
0
10
-57.182876394228266
20
-49.149696671783836
30
0
10
-55.120388919187342
20
-49.448508736205085
30
0
10
-53.513693301802292
20
-49.81150394475538
30
0
10
-52.197922063311722
20
-50.336181621143929
30
0
10
-50.960162613496863
20
-51.140697650567652
30
0
10
-49.628859207777687
20
-52.31890912927318
30
0
10
-48.29590607549062
20
-53.922953404647096
30
0
10
-47.209174883390716
20
-55.870689189254712
30
0
10
-46.397630606187533
20
-57.939436630115893
30
0
10
-45.96452083124656
20
-59.487661593371335
30
0
10
-45.738028133756792
20
-60.489780507708623
30
0
10
-45.62727584057675
20
-61.073867527157873
30
0
10
-45.58192952955941
20
-61.344905613568841
30
0
0
SPLINE
5
177
100
AcDbEntity
8
0
100
AcDbSpline
70
4
71
5
72
21
73
15
74
0
42
0.000000001
43
0.0000000001
44
0.0000000001
40
0
40
0
40
0
40
0
40
0
40
0
40
0.10000000000000001
40
0.20000000000000001
40
0.30000000000000004
40
0.40000000000000002
40
0.5
40
0.59999999999999998
40
0.69999999999999996
40
0.79999999999999993
40
0.89999999999999991
40
1
40
1
40
1
40
1
40
1
40
1
41
1
41
1
41
1
41
1
41
1
41
1
41
1
41
1
41
1
41
1
41
1
41
1
41
1
41
1
41
1
10
-90.450056422621756
20
-48.195525266530879
30
0
10
-90.031042614128808
20
-48.186094281987508
30
0
10
-89.193840527662175
20
-48.16805205404583
30
0
10
-87.940513895041278
20
-48.143447841751879
30
0
10
-86.274447015476909
20
-48.115642210518942
30
0
10
-84.200828513459584
20
-48.089787397470936
30
0
10
-82.136989345745221
20
-48.073643337120025
30
0
10
-80.083748180605056
20
-48.0680229565003
30
0
10
-78.041588971671544
20
-48.073406815329882
30
0
10
-76.010120643807994
20
-48.089406581054419
30
0
10
-73.98855598477806
20
-48.115240562092218
30
0
10
-72.378587118509444
20
-48.14313953384751
30
0
10
-71.174948169003102
20
-48.167874549424745
30
0
10
-70.374200079240609
20
-48.186030669592597
30
0
10
-69.974245512978172
20
-48.195525266530872
30
0
0
SPLINE
5
178
100
AcDbEntity
8
0
100
AcDbSpline
70
4
71
5
72
26
73
20
74
0
42
0.000000001
43
0.0000000001
44
0.0000000001
40
0
40
0
40
0
40
0
40
0
40
0
40
0.066666666666666666
40
0.13333333333333333
40
0.20000000000000001
40
0.26666666666666666
40
0.33333333333333331
40
0.39999999999999997
40
0.46666666666666662
40
0.53333333333333333
40
0.59999999999999998
40
0.66666666666666663
40
0.73333333333333328
40
0.79999999999999993
40
0.86666666666666659
40
0.93333333333333324
40
1
40
1
40
1
40
1
40
1
40
1
41
1
41
1
41
1
41
1
41
1
41
1
41
1
41
1
41
1
41
1
41
1
41
1
41
1
41
1
41
1
41
1
41
1
41
1
41
1
41
1
10
-109.75332852920866
20
77.316285125443542
30
0
10
-111.7705979868022
20
74.972830513821009
30
0
10
-115.60507216933603
20
70.285046896242321
30
0
10
-120.75658270437857
20
63.250649246665809
30
0
10
-126.47152147555241
20
53.943806906963005
30
0
10
-131.94492037618727
20
42.7749431080737
30
0
10
-136.0507991042098
20
32.354592783347542
30
0
10
-139.05399943419621
20
22.643799753268645
30
0
10
-141.11285026316736
20
13.12379578073315
30
0
10
-142.16346985028841
20
2.2906503007371675
30
0
10
-142.22870486101237
20
-9.3874170963318804
30
0
10
-141.24506489967649
20
-20.71700596391949
30
0
10
-139.01225209200084
20
-30.299410210505144
30
0
10
-134.98654951307648
20
-37.48888826748167
30
0
10
-128.39165843090927
20
-42.782131088434653
30
0
10
-118.95158119828706
20
-46.303607370360567
30
0
10
-109.02348737560942
20
-47.835828705605934
30
0
10
-100.2499973602186
20
-48.28474040564376
30
0
10
-93.814431892399568
20
-48.276564496258899
30
0
10
-90.450056422621756
20
-48.195525266530879
30
0
0
SPLINE
5
179
100
AcDbEntity
8
0
100
AcDbSpline
70
4
71
5
72
31
73
25
74
0
42
0.000000001
43
0.0000000001
44
0.0000000001
40
0
40
0
40
0
40
0
40
0
40
0
40
0.050000000000000003
40
0.10000000000000001
40
0.15000000000000002
40
0.20000000000000001
40
0.25
40
0.29999999999999999
40
0.34999999999999998
40
0.39999999999999997
40
0.44999999999999996
40
0.49999999999999994
40
0.54999999999999993
40
0.59999999999999998
40
0.65000000000000002
40
0.70000000000000007
40
0.75000000000000011
40
0.80000000000000016
40
0.8500000000000002
40
0.90000000000000024
40
0.95000000000000029
40
1
40
1
40
1
40
1
40
1
40
1
41
1
41
1
41
1
41
1
41
1
41
1
41
1
41
1
41
1
41
1
41
1
41
1
41
1
41
1
41
1
41
1
41
1
41
1
41
1
41
1
41
1
41
1
41
1
41
1
41
1
10
-109.75332852920866
20
77.316285125443542
30
0
10
-109.10646947090869
20
78.067738947111565
30
0
10
-107.84986725722166
20
79.350496406985783
30
0
10
-106.07667188005283
20
80.614725469371052
30
0
10
-103.99058665741471
20
81.171823523124104
30
0
10
-102.06757523448621
20
80.941636076598385
30
0
10
-100.8562142271048
20
80.610217136294523
30
0
10
-100.07805086131788
20
80.519137737932908
30
0
10
-98.608387732355368
20
79.540075900962265
30
0
10
-96.469819174871787
20
77.669796661665401
30
0
10
-94.226285407044429
20
75.402154550746843
30
0
10
-92.590192589653668
20
73.31713234775458
30
0
10
-91.951931200884388
20
71.592648649328765
30
0
10
-91.944264821580418
20
69.553493235696081
30
0
10
-92.493729127678947
20
66.937426746013045
30
0
10
-93.518010156302068
20
63.641628686655132
30
0
10
-94.956484706273613
20
59.776321938808479
30
0
10
-96.598597085154054
20
55.670866298752756
30
0
10
-98.156509664884112
20
51.744173110640268
30
0
10
-98.849654769174634
20
48.817668661707032
30
0
10
-98.305235413730998
20
47.128848975857494
30
0
10
-97.162959643764282
20
46.30952083930584
30
0
10
-96.110101145391624
20
45.699576742515511
30
0
10
-95.360846361446718
20
45.241650756445623
30
0
10
-94.974245512978186
20
44.999999999999986
30
0
0
LINE
5
180
100
AcDbEntity
8
0
100
AcDbLine
10
-94.974245512978172
20
44.999999999999986
30
0
11
-79.286736963721367
21
35.194283528625043
31
0
0
SPLINE
5
181
100
AcDbEntity
8
0
100
AcDbSpline
70
4
71
5
72
41
73
35
74
0
42
0.000000001
43
0.0000000001
44
0.0000000001
40
0
40
0
40
0
40
0
40
0
40
0
40
0.033333333333333333
40
0.066666666666666666
40
0.10000000000000001
40
0.13333333333333333
40
0.16666666666666666
40
0.19999999999999998
40
0.23333333333333331
40
0.26666666666666666
40
0.29999999999999999
40
0.33333333333333331
40
0.36666666666666664
40
0.39999999999999997
40
0.43333333333333329
40
0.46666666666666662
40
0.49999999999999994
40
0.53333333333333333
40
0.56666666666666665
40
0.59999999999999998
40
0.6333333333333333
40
0.66666666666666663
40
0.69999999999999996
40
0.73333333333333328
40
0.76666666666666661
40
0.79999999999999993
40
0.83333333333333326
40
0.86666666666666659
40
0.89999999999999991
40
0.93333333333333324
40
0.96666666666666656
40
1
40
1
40
1
40
1
40
1
40
1
41
1
41
1
41
1
41
1
41
1
41
1
41
1
41
1
41
1
41
1
41
1
41
1
41
1
41
1
41
1
41
1
41
1
41
1
41
1
41
1
41
1
41
1
41
1
41
1
41
1
41
1
41
1
41
1
41
1
41
1
41
1
41
1
41
1
41
1
41
1
10
-79.286736963721367
20
35.194283528625043
30
0
10
-79.157829778423661
20
35.125918396224606
30
0
10
-78.839762713855336
20
34.97751705008055
30
0
10
-78.182527428347498
20
34.723937520670852
30
0
10
-76.99154788196887
20
34.739499510735918
30
0
10
-75.120841095734733
20
36.81407633496849
30
0
10
-72.665175273310282
20
40.071325180073309
30
0
10
-69.597040945498662
20
43.860140061002511
30
0
10
-65.995067798741729
20
47.645946828961556
30
0
10
-62.02101342175834
20
51.015856200360247
30
0
10
-57.883270183500755
20
53.66419276650177
30
0
10
-53.806315006723565
20
55.386254949386277
30
0
10
-49.998230036852121
20
56.069489524185016
30
0
10
-46.618111742004416
20
55.686759901543148
30
0
10
-43.745782179928895
20
54.28943931879212
30
0
10
-41.380038957244352
20
51.999470449284729
30
0
10
-39.433432288754339
20
49.002030554772844
30
0
10
-37.728467370098222
20
45.538623324518539
30
0
10
-35.990855416927047
20
41.900567403032916
30
0
10
-33.839097453942102
20
38.425520218986392
30
0
10
-31.156620124726324
20
35.364157117991098
30
0
10
-27.968283599694267
20
32.901244538428585
30
0
10
-24.416345509201825
20
31.146502576067835
30
0
10
-20.697659532592834
20
30.135898756708897
30
0
10
-17.02033873694436
20
29.829295135445729
30
0
10
-13.546786737677364
20
30.105280059898909
30
0
10
-10.359643068371065
20
30.767808428543042
30
0
10
-7.4886298287856636
20
31.592943020914547
30
0
10
-4.9271297438753576
20
32.369508509846369
30
0
10
-2.6518650612766121
20
32.9396100764925
30
0
10
-0.64230314270404065
20
33.245398675248197
30
0
10
0.75453514769593844
20
33.334194976299614
30
0
10
1.681277971786024
20
33.360271895712032
30
0
10
2.2447381612056976
20
33.368051350340259
30
0
10
2.5128772435109061
20
33.369535124423535
30
0
0
SPLINE
5
182
100
AcDbEntity
8
0
100
AcDbSpline
70
4
71
5
72
41
73
35
74
0
42
0.000000001
43
0.0000000001
44
0.0000000001
40
0
40
0
40
0
40
0
40
0
40
0
40
0.033333333333333333
40
0.066666666666666666
40
0.10000000000000001
40
0.13333333333333333
40
0.16666666666666666
40
0.19999999999999998
40
0.23333333333333331
40
0.26666666666666666
40
0.29999999999999999
40
0.33333333333333331
40
0.36666666666666664
40
0.39999999999999997
40
0.43333333333333329
40
0.46666666666666662
40
0.49999999999999994
40
0.53333333333333333
40
0.56666666666666665
40
0.59999999999999998
40
0.6333333333333333
40
0.66666666666666663
40
0.69999999999999996
40
0.73333333333333328
40
0.76666666666666661
40
0.79999999999999993
40
0.83333333333333326
40
0.86666666666666659
40
0.89999999999999991
40
0.93333333333333324
40
0.96666666666666656
40
1
40
1
40
1
40
1
40
1
40
1
41
1
41
1
41
1
41
1
41
1
41
1
41
1
41
1
41
1
41
1
41
1
41
1
41
1
41
1
41
1
41
1
41
1
41
1
41
1
41
1
41
1
41
1
41
1
41
1
41
1
41
1
41
1
41
1
41
1
41
1
41
1
41
1
41
1
41
1
41
1
10
84.312491450743181
20
35.194283528625057
30
0
10
84.183584265445461
20
35.12591839622462
30
0
10
83.865517200877107
20
34.977517050080557
30
0
10
83.208281915369156
20
34.723937520670852
30
0
10
82.01730236899067
20
34.739499510735953
30
0
10
80.146595582756561
20
36.814076334968476
30
0
10
77.690929760331898
20
40.071325180073359
30
0
10
74.622795432519894
20
43.860140061002618
30
0
10
71.02082228576262
20
47.645946828961677
30
0
10
67.046767908779103
20
51.015856200360318
30
0
10
62.909024670521731
20
53.664192766501785
30
0
10
58.832069493745031
20
55.386254949386249
30
0
10
55.023984523874027
20
56.069489524185016
30
0
10
51.643866229026578
20
55.686759901543212
30
0
10
48.77153666695105
20
54.289439318792233
30
0
10
46.405793444266394
20
51.99947044928485
30
0
10
44.459186775776217
20
49.002030554772901
30
0
10
42.754221857120022
20
45.538623324518539
30
0
10
41.016609903948876
20
41.900567403032916
30
0
10
38.864851940963923
20
38.425520218986435
30
0
10
36.182374611748038
20
35.364157117991176
30
0
10
32.994038086715911
20
32.901244538428692
30
0
10
29.442099996223451
20
31.146502576067938
30
0
10
25.723414019614541
20
30.135898756708954
30
0
10
22.046093223966196
20
29.829295135445712
30
0
10
18.572541224699382
20
30.105280059898831
30
0
10
15.385397555393208
20
30.767808428542939
30
0
10
12.514384315807781
20
31.592943020914479
30
0
10
9.9528842308973378
20
32.369508509846348
30
0
10
7.6776195482983844
20
32.939610076492507
30
0
10
5.6680576297256593
20
33.24539867524819
30
0
10
4.271219339325695
20
33.334194976299599
30
0
10
3.3444765152357485
20
33.360271895712025
30
0
10
2.7810163258161142
20
33.368051350340259
30
0
10
2.5128772435109061
20
33.369535124423535
30
0
0
LINE
5
183
100
AcDbEntity
8
0
100
AcDbLine
10
100
20
45
30
0
11
84.312491450743181
21
35.194283528625057
31
0
0
SPLINE
5
184
100
AcDbEntity
8
0
100
AcDbSpline
70
4
71
5
72
31
73
25
74
0
42
0.000000001
43
0.0000000001
44
0.0000000001
40
0
40
0
40
0
40
0
40
0
40
0
40
0.050000000000000003
40
0.10000000000000001
40
0.15000000000000002
40
0.20000000000000001
40
0.25
40
0.29999999999999999
40
0.34999999999999998
40
0.39999999999999997
40
0.44999999999999996
40
0.49999999999999994
40
0.54999999999999993
40
0.59999999999999998
40
0.65000000000000002
40
0.70000000000000007
40
0.75000000000000011
40
0.80000000000000016
40
0.8500000000000002
40
0.90000000000000024
40
0.95000000000000029
40
1
40
1
40
1
40
1
40
1
40
1
41
1
41
1
41
1
41
1
41
1
41
1
41
1
41
1
41
1
41
1
41
1
41
1
41
1
41
1
41
1
41
1
41
1
41
1
41
1
41
1
41
1
41
1
41
1
41
1
41
1
10
114.77908301623046
20
77.316285125443557
30
0
10
114.13222395793049
20
78.067738947111579
30
0
10
112.87562174424346
20
79.350496406985812
30
0
10
111.10242636707463
20
80.614725469371081
30
0
10
109.01634114443651
20
81.171823523124118
30
0
10
107.09332972150801
20
80.9416360765984
30
0
10
105.8819687141266
20
80.610217136294551
30
0
10
105.10380534833968
20
80.519137737932937
30
0
10
103.63414221937717
20
79.540075900962279
30
0
10
101.49557366189357
20
77.66979666166543
30
0
10
99.252039894066229
20
75.402154550746857
30
0
10
97.615947076675468
20
73.317132347754594
30
0
10
96.977685687906188
20
71.59264864932878
30
0
10
96.970019308602218
20
69.553493235696095
30
0
10
97.519483614700732
20
66.93742674601306
30
0
10
98.543764643323868
20
63.641628686655153
30
0
10
99.982239193295413
20
59.776321938808501
30
0
10
101.62435157217585
20
55.67086629875277
30
0
10
103.18226415190593
20
51.74417311064029
30
0
10
103.87540925619645
20
48.817668661707046
30
0
10
103.33098990075283
20
47.128848975857515
30
0
10
102.1887141307861
20
46.309520839305861
30
0
10
101.13585563241344
20
45.699576742515532
30
0
10
100.38660084846853
20
45.241650756445644
30
0
10
100
20
45
30
0
0
SPLINE
5
185
100
AcDbEntity
8
0
100
AcDbSpline
70
4
71
5
72
26
73
20
74
0
42
0.000000001
43
0.0000000001
44
0.0000000001
40
0
40
0
40
0
40
0
40
0
40
0
40
0.066666666666666666
40
0.13333333333333333
40
0.20000000000000001
40
0.26666666666666666
40
0.33333333333333331
40
0.39999999999999997
40
0.46666666666666662
40
0.53333333333333333
40
0.59999999999999998
40
0.66666666666666663
40
0.73333333333333328
40
0.79999999999999993
40
0.86666666666666659
40
0.93333333333333324
40
1
40
1
40
1
40
1
40
1
40
1
41
1
41
1
41
1
41
1
41
1
41
1
41
1
41
1
41
1
41
1
41
1
41
1
41
1
41
1
41
1
41
1
41
1
41
1
41
1
41
1
10
114.77908301623046
20
77.316285125443557
30
0
10
116.796352473824
20
74.972830513821037
30
0
10
120.63082665635783
20
70.285046896242335
30
0
10
125.78233719140037
20
63.25064924666583
30
0
10
131.49727596257421
20
53.943806906963026
30
0
10
136.9706748632091
20
42.774943108073728
30
0
10
141.0765535912316
20
32.35459278334757
30
0
10
144.07975392121804
20
22.643799753268674
30
0
10
146.13860475018919
20
13.123795780733174
30
0
10
147.18922433731021
20
2.2906503007371928
30
0
10
147.25445934803417
20
-9.3874170963318555
30
0
10
146.27081938669832
20
-20.717005963919462
30
0
10
144.03800657902266
20
-30.299410210505116
30
0
10
140.01230400009828
20
-37.488888267481649
30
0
10
133.41741291793107
20
-42.782131088434625
30
0
10
123.97733568530887
20
-46.303607370360552
30
0
10
114.04924186263123
20
-47.83582870560592
30
0
10
105.27575184724041
20
-48.284740405643738
30
0
10
98.840186379421368
20
-48.276564496258878
30
0
10
95.47581090964357
20
-48.195525266530865
30
0
0
SPLINE
5
186
100
AcDbEntity
8
0
100
AcDbSpline
70
4
71
5
72
21
73
15
74
0
42
0.000000001
43
0.0000000001
44
0.0000000001
40
0
40
0
40
0
40
0
40
0
40
0
40
0.10000000000000001
40
0.20000000000000001
40
0.30000000000000004
40
0.40000000000000002
40
0.5
40
0.59999999999999998
40
0.69999999999999996
40
0.79999999999999993
40
0.89999999999999991
40
1
40
1
40
1
40
1
40
1
40
1
41
1
41
1
41
1
41
1
41
1
41
1
41
1
41
1
41
1
41
1
41
1
41
1
41
1
41
1
41
1
10
95.47581090964357
20
-48.195525266530865
30
0
10
95.056797101150622
20
-48.186094281987486
30
0
10
94.219595014683989
20
-48.168052054045809
30
0
10
92.966268382063092
20
-48.143447841751865
30
0
10
91.300201502498737
20
-48.115642210518921
30
0
10
89.226583000481398
20
-48.089787397470914
30
0
10
87.162743832767035
20
-48.073643337120011
30
0
10
85.109502667626884
20
-48.068022956500286
30
0
10
83.067343458693358
20
-48.073406815329861
30
0
10
81.035875130829822
20
-48.089406581054405
30
0
10
79.014310471799888
20
-48.115240562092197
30
0
10
77.404341605531258
20
-48.143139533847503
30
0
10
76.200702656024916
20
-48.167874549424738
30
0
10
75.399954566262423
20
-48.18603066959259
30
0
10
75
20
-48.195525266530865
30
0
0
SPLINE
5
187
100
AcDbEntity
8
0
100
AcDbSpline
70
4
71
5
72
26
73
20
74
0
42
0.000000001
43
0.0000000001
44
0.0000000001
40
0
40
0
40
0
40
0
40
0
40
0
40
0.066666666666666666
40
0.13333333333333333
40
0.20000000000000001
40
0.26666666666666666
40
0.33333333333333331
40
0.39999999999999997
40
0.46666666666666662
40
0.53333333333333333
40
0.59999999999999998
40
0.66666666666666663
40
0.73333333333333328
40
0.79999999999999993
40
0.86666666666666659
40
0.93333333333333324
40
1
40
1
40
1
40
1
40
1
40
1
41
1
41
1
41
1
41
1
41
1
41
1
41
1
41
1
41
1
41
1
41
1
41
1
41
1
41
1
41
1
41
1
41
1
41
1
41
1
41
1
10
75
20
-48.195525266530865
30
0
10
74.597948883062571
20
-48.195525266530865
30
0
10
73.750713922026023
20
-48.206501303794809
30
0
10
72.350469679619621
20
-48.2558929975213
30
0
10
70.257913328608836
20
-48.38161307283422
30
0
10
67.454158302584943
20
-48.607944705493878
30
0
10
64.696402860836713
20
-48.870920529490647
30
0
10
62.208630881250087
20
-49.149696671783829
30
0
10
60.146143406209163
20
-49.448508736205071
30
0
10
58.539447788824113
20
-49.811503944755373
30
0
10
57.22367655033355
20
-50.336181621143922
30
0
10
55.985917100518691
20
-51.140697650567645
30
0
10
54.654613694799508
20
-52.318909129273166
30
0
10
53.321660562512449
20
-53.922953404647089
30
0
10
52.234929370412537
20
-55.870689189254705
30
0
10
51.423385093209355
20
-57.939436630115885
30
0
10
50.990275318268381
20
-59.487661593371328
30
0
10
50.763782620778613
20
-60.489780507708616
30
0
10
50.653030327598572
20
-61.073867527157866
30
0
10
50.607684016581231
20
-61.344905613568834
30
0
0
SPLINE
5
188
100
AcDbEntity
8
0
100
AcDbSpline
70
4
71
5
72
26
73
20
74
0
42
0.000000001
43
0.0000000001
44
0.0000000001
40
0
40
0
40
0
40
0
40
0
40
0
40
0.066666666666666666
40
0.13333333333333333
40
0.20000000000000001
40
0.26666666666666666
40
0.33333333333333331
40
0.39999999999999997
40
0.46666666666666662
40
0.53333333333333333
40
0.59999999999999998
40
0.66666666666666663
40
0.73333333333333328
40
0.79999999999999993
40
0.86666666666666659
40
0.93333333333333324
40
1
40
1
40
1
40
1
40
1
40
1
41
1
41
1
41
1
41
1
41
1
41
1
41
1
41
1
41
1
41
1
41
1
41
1
41
1
41
1
41
1
41
1
41
1
41
1
41
1
41
1
10
50.607684016581231
20
-61.344905613568834
30
0
10
50.389003397400643
20
-62.440472118186243
30
0
10
49.808510487051379
20
-64.432932024479499
30
0
10
48.508176315115918
20
-66.825395715749323
30
0
10
46.036393546584399
20
-68.913754484725928
30
0
10
42.3426021173685
20
-70.147123520145385
30
0
10
38.774107060750225
20
-70.535781740694901
30
0
10
35.847094914550546
20
-70.429070065567714
30
0
10
33.767524044395856
20
-69.96483639606214
30
0
10
31.773996512247177
20
-68.471438425912211
30
0
10
29.661780878536213
20
-66.14087942729158
30
0
10
27.634700570060687
20
-63.673285446998293
30
0
10
25.941164832178039
20
-61.746897950815892
30
0
10
24.631428141637279
20
-60.576539625999843
30
0
10
23.209955861095033
20
-59.390793956569354
30
0
10
21.285836095299253
20
-58.231543727436595
30
0
10
19.063077086206032
20
-57.528584771569136
30
0
10
16.90492761983776
20
-57.294805408364304
30
0
10
15.23475404702436
20
-57.294598791811978
30
0
10
14.341834237343853
20
-57.333481683547561
30
0
0
SPLINE
5
189
100
AcDbEntity
8
0
100
AcDbSpline
70
4
71
5
72
16
73
10
74
0
42
0.000000001
43
0.0000000001
44
0.0000000001
40
0.57452908263915303
40
0.57452908263915303
40
0.57452908263915303
40
0.57452908263915303
40
0.57452908263915303
40
0.57452908263915303
40
0.59999999999999998
40
0.69999999999999996
40
0.79999999999999993
40
0.89999999999999991
40
1
40
1
40
1
40
1
40
1
40
1
41
1
41
1
41
1
41
1
41
1
41
1
41
1
41
1
41
1
41
1
10
4.3377516680428654
20
-57.937523214521633
30
0
10
4.4607490962579517
20
-57.931905994238477
30
0
10
5.0665791926544816
20
-57.903356528916952
30
0
10
6.1545147619864622
20
-57.84457567504419
30
0
10
7.72039966020313
20
-57.744355933480648
30
0
10
9.748586256618534
20
-57.600294054565673
30
0
10
11.617885569998867
20
-57.474412919139965
30
0
10
12.991667575197789
20
-57.396333251804947
30
0
10
13.894027905369203
20
-57.352981760638365
30
0
10
14.341834237343853
20
-57.333481683547561
30
0
0
SPLINE
5
190
100
AcDbEntity
8
0
100
AcDbSpline
70
4
71
5
72
66
73
60
74
0
42
0.000000001
43
0.0000000001
44
0.0000000001
40
-1
40
-1
40
-1
40
-1
40
-1
40
-1
40
-0.98181818181818203
40
-0.96363636363636385
40
-0.94545454545454566
40
-0.92727272727272747
40
-0.90909090909090928
40
-0.89090909090909109
40
-0.87272727272727291
40
-0.85454545454545472
40
-0.83636363636363653
40
-0.81818181818181834
40
-0.80000000000000016
40
-0.78181818181818197
40
-0.76363636363636378
40
-0.74545454545454559
40
-0.7272727272727274
40
-0.70909090909090922
40
-0.69090909090909103
40
-0.67272727272727284
40
-0.65454545454545465
40
-0.63636363636363646
40
-0.61818181818181828
40
-0.60000000000000009
40
-0.5818181818181819
40
-0.56363636363636371
40
-0.54545454545454553
40
-0.52727272727272734
40
-0.50909090909090915
40
-0.49090909090909102
40
-0.47272727272727283
40
-0.45454545454545464
40
-0.43636363636363645
40
-0.41818181818181827
40
-0.40000000000000008
40
-0.38181818181818189
40
-0.3636363636363637
40
-0.34545454545454551
40
-0.32727272727272733
40
-0.30909090909090914
40
-0.29090909090909095
40
-0.27272727272727276
40
-0.25454545454545457
40
-0.23636363636363641
40
-0.21818181818181823
40
-0.20000000000000004
40
-0.18181818181818185
40
-0.16363636363636366
40
-0.14545454545454548
40
-0.12727272727272729
40
-0.1090909090909091
40
-0.090909090909090912
40
-0.072727272727272724
40
-0.054545454545454543
40
-0.036363636363636362
40
-0.018181818181818181
40
0
40
0
40
0
40
0
40
0
40
0
41
1
41
1
41
1
41
1
41
1
41
1
41
1
41
1
41
1
41
1
41
1
41
1
41
1
41
1
41
1
41
1
41
1
41
1
41
1
41
1
41
1
41
1
41
1
41
1
41
1
41
1
41
1
41
1
41
1
41
1
41
1
41
1
41
1
41
1
41
1
41
1
41
1
41
1
41
1
41
1
41
1
41
1
41
1
41
1
41
1
41
1
41
1
41
1
41
1
41
1
41
1
41
1
41
1
41
1
41
1
41
1
41
1
41
1
41
1
41
1
10
78.000001162290573
20
-2.0000000298023224
30
0
10
77.926293581634241
20
-1.6150482802015176
30
0
10
77.819158123535914
20
-0.91109092800464919
30
0
10
77.791423080992217
20
-0.045199336120480924
30
0
10
78.061336751112023
20
0.78854028253589337
30
0
10
78.958628933377327
20
1.5149858064548045
30
0
10
80.391053445530559
20
2.1409808635903231
30
0
10
82.249295990706628
20
2.8183282932282232
30
0
10
84.365925981136144
20
3.6457913040710634
30
0
10
86.536248634706624
20
4.6698401596416357
30
0
10
88.542075200853702
20
5.8893256703972607
30
0
10
90.171754797489598
20
7.2575791532798277
30
0
10
91.268669421787152
20
8.6936617985259765
30
0
10
91.807176801688399
20
10.101136737106263
30
0
10
91.926610078017234
20
11.375216056744099
30
0
10
92.059191196663136
20
12.433949390137293
30
0
10
92.736859677356136
20
13.238494956294788
30
0
10
94.696719796730832
20
14.036325284765903
30
0
10
97.920783067017595
20
14.981576905551606
30
0
10
101.73038739916777
20
16.015258658358025
30
0
10
105.23539448694585
20
16.995124102206425
30
0
10
107.80392072565266
20
17.752067612766204
30
0
10
109.14002040001569
20
18.113236436358132
30
0
10
110.44666166648861
20
18.093671746039554
30
0
10
112.39041128276327
20
17.556998361867691
30
0
10
114.36424067248726
20
16.203034879915879
30
0
10
115.64607085737039
20
13.82373276490153
30
0
10
116.06878534805864
20
10.583381726001452
30
0
10
116.27865110599561
20
6.971958413872704
30
0
10
116.43233142575725
20
3.1832347985414318
30
0
10
116.64992222491961
20
-0.64538279114759167
30
0
10
116.88835775363573
20
-4.4751664337465735
30
0
10
117.0540653170784
20
-8.2938643945022594
30
0
10
117.01864199600264
20
-12.085719454715477
30
0
10
116.66244218581285
20
-15.799684597130687
30
0
10
115.93829862249243
20
-19.280085345305555
30
0
10
114.84641598767519
20
-22.308688388302649
30
0
10
113.3041555130707
20
-24.794304886821713
30
0
10
111.23796776085896
20
-26.697177568192867
30
0
10
108.60317002381697
20
-28.039638453657304
30
0
10
105.43290999287699
20
-28.881678797631686
30
0
10
101.87673972941276
20
-29.310027241140265
30
0
10
98.245174031626291
20
-29.42473189551492
30
0
10
94.734935753522052
20
-29.358093229063801
30
0
10
91.505345282389442
20
-29.234835355584153
30
0
10
88.665764780608754
20
-29.141546240157727
30
0
10
86.329258229725042
20
-29.101341025939931
30
0
10
84.566160916400733
20
-29.025466911451634
30
0
10
83.574414014944807
20
-28.725797347573703
30
0
10
83.180683303873195
20
-27.706502936159563
30
0
10
82.932471998314284
20
-25.465626249221273
30
0
10
82.574937688821691
20
-22.260297889643535
30
0
10
82.012623871450018
20
-18.485212263900621
30
0
10
81.231571937255694
20
-14.477919066757497
30
0
10
80.299476948487168
20
-10.571658525917762
30
0
10
79.333337781418408
20
-7.0403947861946703
30
0
10
78.651655978930009
20
-4.6802083405359269
30
0
10
78.261403607473852
20
-3.2208014256095039
30
0
10
78.073708742946877
20
-2.3849517794031323
30
0
10
78.000001162290573
20
-2.0000000298023224
30
0
0
LWPOLYLINE
5
191
100
AcDbEntity
8
0
100
AcDbPolyline
90
4
70
1
43
0.0
10
83.773161708319208
20
31.9089521659558
10
83.916357143869433
20
31.998468173954965
10
83.914018293633717
20
32.002162493274959
10
83.770765529668552
20
31.912610647465513
0
SPLINE
5
192
100
AcDbEntity
8
0
100
AcDbSpline
70
4
71
5
72
66
73
60
74
0
42
0.000000001
43
0.0000000001
44
0.0000000001
40
0
40
0
40
0
40
0
40
0
40
0
40
0.018181818181818181
40
0.036363636363636362
40
0.054545454545454543
40
0.072727272727272724
40
0.090909090909090912
40
0.1090909090909091
40
0.12727272727272729
40
0.14545454545454548
40
0.16363636363636366
40
0.18181818181818185
40
0.20000000000000004
40
0.21818181818181823
40
0.23636363636363641
40
0.25454545454545457
40
0.27272727272727276
40
0.29090909090909095
40
0.30909090909090914
40
0.32727272727272733
40
0.34545454545454551
40
0.3636363636363637
40
0.38181818181818189
40
0.40000000000000008
40
0.41818181818181827
40
0.43636363636363645
40
0.45454545454545464
40
0.47272727272727283
40
0.49090909090909102
40
0.50909090909090915
40
0.52727272727272734
40
0.54545454545454553
40
0.56363636363636371
40
0.5818181818181819
40
0.60000000000000009
40
0.61818181818181828
40
0.63636363636363646
40
0.65454545454545465
40
0.67272727272727284
40
0.69090909090909103
40
0.70909090909090922
40
0.7272727272727274
40
0.74545454545454559
40
0.76363636363636378
40
0.78181818181818197
40
0.80000000000000016
40
0.81818181818181834
40
0.83636363636363653
40
0.85454545454545472
40
0.87272727272727291
40
0.89090909090909109
40
0.90909090909090928
40
0.92727272727272747
40
0.94545454545454566
40
0.96363636363636385
40
0.98181818181818203
40
1
40
1
40
1
40
1
40
1
40
1
41
1
41
1
41
1
41
1
41
1
41
1
41
1
41
1
41
1
41
1
41
1
41
1
41
1
41
1
41
1
41
1
41
1
41
1
41
1
41
1
41
1
41
1
41
1
41
1
41
1
41
1
41
1
41
1
41
1
41
1
41
1
41
1
41
1
41
1
41
1
41
1
41
1
41
1
41
1
41
1
41
1
41
1
41
1
41
1
41
1
41
1
41
1
41
1
41
1
41
1
41
1
41
1
41
1
41
1
41
1
41
1
41
1
41
1
41
1
41
1
10
-72.974246675268759
20
-2.0000000298023357
30
0
10
-73.047954255925063
20
-2.3849517794031456
30
0
10
-73.235649120452024
20
-3.2208014256095172
30
0
10
-73.625901491908195
20
-4.6802083405359411
30
0
10
-74.307583294396579
20
-7.0403947861946836
30
0
10
-75.273722461465354
20
-10.571658525917776
30
0
10
-76.20581745023388
20
-14.47791906675751
30
0
10
-76.986869384428203
20
-18.485212263900635
30
0
10
-77.549183201799877
20
-22.260297889643546
30
0
10
-77.90671751129247
20
-25.465626249221284
30
0
10
-78.154928816851381
20
-27.706502936159577
30
0
10
-78.548659527922979
20
-28.725797347573717
30
0
10
-79.540406429378919
20
-29.025466911451648
30
0
10
-81.303503742703228
20
-29.101341025939945
30
0
10
-83.640010293586926
20
-29.141546240157741
30
0
10
-86.479590795367628
20
-29.234835355584174
30
0
10
-89.709181266500224
20
-29.358093229063819
30
0
10
-93.219419544604477
20
-29.424731895514938
30
0
10
-96.850985242390948
20
-29.310027241140283
30
0
10
-100.40715550585517
20
-28.881678797631704
30
0
10
-103.57741553679516
20
-28.039638453657322
30
0
10
-106.21221327383715
20
-26.697177568192885
30
0
10
-108.27840102604888
20
-24.794304886821731
30
0
10
-109.82066150065337
20
-22.308688388302667
30
0
10
-110.91254413547061
20
-19.280085345305572
30
0
10
-111.63668769879104
20
-15.799684597130707
30
0
10
-111.99288750898083
20
-12.085719454715498
30
0
10
-112.0283108300566
20
-8.293864394502279
30
0
10
-111.86260326661392
20
-4.475166433746594
30
0
10
-111.62416773789779
20
-0.64538279114761166
30
0
10
-111.40657693873544
20
3.1832347985414118
30
0
10
-111.25289661897381
20
6.9719584138726844
30
0
10
-111.04303086103683
20
10.583381726001432
30
0
10
-110.62031637034858
20
13.823732764901511
30
0
10
-109.33848618546546
20
16.203034879915862
30
0
10
-107.36465679574145
20
17.55699836186767
30
0
10
-105.42090717946679
20
18.093671746039533
30
0
10
-104.11426591299387
20
18.113236436358115
30
0
10
-102.77816623863086
20
17.752067612766183
30
0
10
-100.20963999992404
20
16.995124102206411
30
0
10
-96.704632912145954
20
16.015258658358007
30
0
10
-92.895028579995781
20
14.981576905551588
30
0
10
-89.670965309709032
20
14.036325284765887
30
0
10
-87.711105190334308
20
13.238494956294772
30
0
10
-87.033436709641322
20
12.433949390137277
30
0
10
-86.90085559099542
20
11.375216056744083
30
0
10
-86.781422314666585
20
10.101136737106247
30
0
10
-86.242914934765338
20
8.6936617985259605
30
0
10
-85.146000310467798
20
7.2575791532798117
30
0
10
-83.516320713831902
20
5.8893256703972447
30
0
10
-81.51049414768481
20
4.6698401596416215
30
0
10
-79.34017149411433
20
3.6457913040710488
30
0
10
-77.223541503684814
20
2.8183282932282094
30
0
10
-75.365298958508745
20
2.1409808635903094
30
0
10
-73.932874446355513
20
1.5149858064547908
30
0
10
-73.035582264090209
20
0.78854028253588004
30
0
10
-72.765668593970403
20
-0.045199336120494253
30
0
10
-72.793403636514114
20
-0.91109092800466251
30
0
10
-72.900539094612427
20
-1.6150482802015309
30
0
10
-72.974246675268759
20
-2.0000000298023357
30
0
0
CIRCLE
5
193
100
AcDbEntity
8
0
100
AcDbCircle
10
32.82376637594956
20
-29.81697692315544
30
0
40
2.7499999999999991
210
0
220
0
230
1
0
CIRCLE
5
194
100
AcDbEntity
8
0
100
AcDbCircle
10
-27.798011888961128
20
-29.816976923139418
30
0
40
2.7499999999999991
210
0
220
0
230
1
0
CIRCLE
5
195
100
AcDbEntity
8
0
100
AcDbCircle
10
2.5128772435080844
20
22.683023076852564
30
0
40
2.7499999999999996
210
0
220
0
230
1
0
ENDSEC
0
SECTION
2
OBJECTS
0
DICTIONARY
5
C
100
AcDbDictionary
3
ACAD_GROUP
350
D
3
ACAD_MLINESTYLE
350
17
0
DICTIONARY
5
D
100
AcDbDictionary
0
DICTIONARY
5
1A
330
C
100
AcDbDictionary
0
DICTIONARY
5
17
100
AcDbDictionary
0
ENDSEC
0
EOF
