  0
SECTION
  2
HEADER
  9
$ACADVER
  1
AC1014
  9
$HANDSEED
  5
FFFF
  9
$MEASUREMENT
 70
     1
  0
ENDSEC
  0
SECTION
  2
TABLES
  0
TABLE
  2
VPORT
  5
8
330
0
100
AcDbSymbolTable
 70
     4
  0
VPORT
  5
2E
330
8
100
AcDbSymbolTableRecord
100
AcDbViewportTableRecord
  2
*ACTIVE
 70
     0
 10
0.0
 20
0.0
 11
1.0
 21
1.0
 12
210.0
 22
148.5
 13
0.0
 23
0.0
 14
10.0
 24
10.0
 15
10.0
 25
10.0
 16
0.0
 26
0.0
 36
1.0
 17
0.0
 27
0.0
 37
0.0
 40
341.0
 41
1.24
 42
50.0
 43
0.0
 44
0.0
 50
0.0
 51
0.0
 71
     0
 72
   100
 73
     1
 74
     3
 75
     0
 76
     0
 77
     0
 78
     0
  0
ENDTAB
  0
TABLE
  2
LTYPE
  5
5
330
0
100
AcDbSymbolTable
 70
     1
  0
LTYPE
  5
14
330
5
100
AcDbSymbolTableRecord
100
AcDbLinetypeTableRecord
  2
BYBLOCK
 70
     0
  3

 72
    65
 73
     0
 40
0.0
  0
LTYPE
  5
15
330
5
100
AcDbSymbolTableRecord
100
AcDbLinetypeTableRecord
  2
BYLAYER
 70
     0
  3

 72
    65
 73
     0
 40
0.0
  0
LTYPE
  5
16
330
5
100
AcDbSymbolTableRecord
100
AcDbLinetypeTableRecord
  2
CONTINUOUS
 70
     0
  3
Solid line
 72
    65
 73
     0
 40
0.0
  0
ENDTAB
  0
TABLE
  2
LAYER
  5
2
100
AcDbSymbolTable
 70
3
  0
LAYER
  5
50
100
AcDbSymbolTableRecord
100
AcDbLayerTableRecord
  2
0
 70
0
  6
CONTINUOUS
  0
LAYER
  5
51
100
AcDbSymbolTableRecord
100
AcDbLayerTableRecord
  2
Layer_1
 70
0
  6
CONTINUOUS
  0
LAYER
  5
52
100
AcDbSymbolTableRecord
100
AcDbLayerTableRecord
  2
DIMENSIONS
 70
0
  6
CONTINUOUS
  0
ENDTAB
  0
TABLE
  2
STYLE
  5
3
330
0
100
AcDbSymbolTable
 70
     1
  0
STYLE
  5
11
330
3
100
AcDbSymbolTableRecord
100
AcDbTextStyleTableRecord
  2
STANDARD
 70
     0
 40
0.0
 41
1.0
 50
0.0
 71
     0
 42
2.5
  3
txt
  4

  0
ENDTAB
  0
TABLE
  2
VIEW
  5
6
330
0
100
AcDbSymbolTable
 70
     0
  0
ENDTAB
  0
TABLE
  2
UCS
  5
7
330
0
100
AcDbSymbolTable
 70
     0
  0
ENDTAB
  0
TABLE
  2
APPID
  5
9
330
0
100
AcDbSymbolTable
 70
     2
  0
APPID
  5
12
330
9
100
AcDbSymbolTableRecord
100
AcDbRegAppTableRecord
  2
ACAD
 70
     0
  0
ENDTAB
  0
TABLE
  2
DIMSTYLE
  5
A
330
0
100
AcDbSymbolTable
 70
     1
  0
DIMSTYLE
105
27
330
A
100
AcDbSymbolTableRecord
100
AcDbDimStyleTableRecord
  2
ISO-25
 70
     0
  3

  4

  5

  6

  7

 40
1.0
 41
2.5
 42
0.625
 43
3.75
 44
1.25
 45
0.0
 46
0.0
 47
0.0
 48
0.0
140
2.5
141
2.5
142
0.0
143
0.03937007874016
144
1.0
145
0.0
146
1.0
147
0.625
 71
     0
 72
     0
 73
     0
 74
     0
 75
     0
 76
     0
 77
     1
 78
     8
170
     0
171
     3
172
     1
173
     0
174
     0
175
     0
176
     0
177
     0
178
     0
270
     2
271
     2
272
     2
273
     2
274
     3
340
11
275
     0
280
     0
281
     0
282
     0
283
     0
284
     8
285
     0
286
     0
287
     3
288
     0
  0
ENDTAB
  0
TABLE
  2
BLOCK_RECORD
  5
1
330
0
100
AcDbSymbolTable
 70
     1
  0
BLOCK_RECORD
  5
1F
330
1
100
AcDbSymbolTableRecord
100
AcDbBlockTableRecord
  2
*MODEL_SPACE
  0
BLOCK_RECORD
  5
1B
330
1
100
AcDbSymbolTableRecord
100
AcDbBlockTableRecord
  2
*PAPER_SPACE
  0
ENDTAB
  0
ENDSEC
  0
SECTION
  2
BLOCKS
  0
BLOCK
  5
20
330
1F
100
AcDbEntity
  8
0
100
AcDbBlockBegin
  2
*MODEL_SPACE
 70
     0
 10
0.0
 20
0.0
 30
0.0
  3
*MODEL_SPACE
  1

  0
ENDBLK
  5
21
330
1F
100
AcDbEntity
  8
0
100
AcDbBlockEnd
  0
BLOCK
  5
1C
330
1B
100
AcDbEntity
 67
     1
  8
0
100
AcDbBlockBegin
  2
*PAPER_SPACE
  1

  0
ENDBLK
  5
1D
330
1B
100
AcDbEntity
 67
     1
  8
0
100
AcDbBlockEnd
  0
ENDSEC
  0
SECTION
  2
ENTITIES
  0
LWPOLYLINE
  5
100
100
AcDbEntity
  8
DIMENSIONS
 62
7
100
AcDbPolyline
 90
18
 70
1
 10
166.877996
 20
31.199666
 30
0.0
 10
166.835663
 20
31.157332
 30
0.0
 10
166.793330
 20
31.157332
 30
0.0
 10
166.750996
 20
31.114999
 30
0.0
 10
166.750996
 20
31.072666
 30
0.0
 10
166.750996
 20
31.030332
 30
0.0
 10
166.750996
 20
30.987999
 30
0.0
 10
166.793330
 20
30.945666
 30
0.0
 10
166.835663
 20
30.945666
 30
0.0
 10
195.368329
 20
30.945666
 30
0.0
 10
195.410662
 20
30.945666
 30
0.0
 10
195.452996
 20
30.945666
 30
0.0
 10
195.495329
 20
30.987999
 30
0.0
 10
195.495329
 20
31.030332
 30
0.0
 10
195.495329
 20
31.072666
 30
0.0
 10
195.495329
 20
31.114999
 30
0.0
 10
195.452996
 20
31.157332
 30
0.0
 10
195.410662
 20
31.199666
 30
0.0
  0
LWPOLYLINE
  5
101
100
AcDbEntity
  8
DIMENSIONS
 62
7
100
AcDbPolyline
 90
18
 70
1
 10
166.877996
 20
77.088998
 30
0.0
 10
166.835663
 20
77.046665
 30
0.0
 10
166.793330
 20
77.046665
 30
0.0
 10
166.750996
 20
77.004331
 30
0.0
 10
166.750996
 20
76.961998
 30
0.0
 10
166.750996
 20
76.919665
 30
0.0
 10
166.750996
 20
76.877331
 30
0.0
 10
166.793330
 20
76.834998
 30
0.0
 10
166.835663
 20
76.834998
 30
0.0
 10
195.368329
 20
76.834998
 30
0.0
 10
195.410662
 20
76.834998
 30
0.0
 10
195.452996
 20
76.834998
 30
0.0
 10
195.495329
 20
76.877331
 30
0.0
 10
195.495329
 20
76.919665
 30
0.0
 10
195.495329
 20
76.961998
 30
0.0
 10
195.495329
 20
77.004331
 30
0.0
 10
195.452996
 20
77.046665
 30
0.0
 10
195.410662
 20
77.088998
 30
0.0
  0
LWPOLYLINE
  5
102
100
AcDbEntity
  8
DIMENSIONS
 62
7
100
AcDbPolyline
 90
18
 70
1
 10
194.606329
 20
32.469666
 30
0.0
 10
194.606329
 20
32.427332
 30
0.0
 10
194.606329
 20
32.384999
 30
0.0
 10
194.648662
 20
32.342666
 30
0.0
 10
194.690996
 20
32.342666
 30
0.0
 10
194.733329
 20
32.342666
 30
0.0
 10
194.775662
 20
32.342666
 30
0.0
 10
194.817996
 20
32.384999
 30
0.0
 10
194.860329
 20
32.427332
 30
0.0
 10
194.860329
 20
75.522665
 30
0.0
 10
194.817996
 20
75.564998
 30
0.0
 10
194.817996
 20
75.607331
 30
0.0
 10
194.775662
 20
75.649665
 30
0.0
 10
194.733329
 20
75.649665
 30
0.0
 10
194.690996
 20
75.649665
 30
0.0
 10
194.648662
 20
75.649665
 30
0.0
 10
194.606329
 20
75.607331
 30
0.0
 10
194.606329
 20
75.564998
 30
0.0
  0
LWPOLYLINE
  5
103
100
AcDbEntity
  8
DIMENSIONS
 62
7
100
AcDbPolyline
 90
4
 70
1
 10
70.737412
 20
29.869439
 30
0.0
 10
70.991412
 20
29.869439
 30
0.0
 10
70.991412
 20
98.661104
 30
0.0
 10
70.737412
 20
98.661104
 30
0.0
  0
LWPOLYLINE
  5
104
100
AcDbEntity
  8
DIMENSIONS
 62
7
100
AcDbPolyline
 90
4
 70
1
 10
98.719744
 20
29.869439
 30
0.0
 10
98.973744
 20
29.869439
 30
0.0
 10
98.973744
 20
98.661104
 30
0.0
 10
98.719744
 20
98.661104
 30
0.0
  0
LWPOLYLINE
  5
105
100
AcDbEntity
  8
DIMENSIONS
 62
7
100
AcDbPolyline
 90
4
 70
1
 10
126.744410
 20
29.869439
 30
0.0
 10
126.998410
 20
29.869439
 30
0.0
 10
126.998410
 20
98.661104
 30
0.0
 10
126.744410
 20
98.661104
 30
0.0
  0
LWPOLYLINE
  5
106
100
AcDbEntity
  8
DIMENSIONS
 62
7
100
AcDbPolyline
 90
4
 70
1
 10
154.726743
 20
29.869439
 30
0.0
 10
154.980743
 20
29.869439
 30
0.0
 10
154.980743
 20
98.661104
 30
0.0
 10
154.726743
 20
98.661104
 30
0.0
  0
LWPOLYLINE
  5
107
100
AcDbEntity
  8
DIMENSIONS
 62
7
100
AcDbPolyline
 90
44
 70
1
 10
193.250076
 20
55.565772
 30
0.0
 10
193.419409
 20
55.735105
 30
0.0
 10
192.826742
 20
56.285438
 30
0.0
 10
192.742076
 20
56.200772
 30
0.0
 10
192.869076
 20
56.200772
 30
0.0
 10
192.869076
 20
57.301438
 30
0.0
 10
192.742076
 20
57.301438
 30
0.0
 10
192.826742
 20
57.216772
 30
0.0
 10
193.419409
 20
57.767105
 30
0.0
 10
193.334742
 20
57.851772
 30
0.0
 10
193.334742
 20
57.724772
 30
0.0
 10
193.885076
 20
57.724772
 30
0.0
 10
193.885076
 20
57.851772
 30
0.0
 10
193.800409
 20
57.767105
 30
0.0
 10
194.350742
 20
57.216772
 30
0.0
 10
194.435409
 20
57.301438
 30
0.0
 10
194.308409
 20
57.301438
 30
0.0
 10
194.308409
 20
56.200772
 30
0.0
 10
194.350742
 20
56.116105
 30
0.0
 10
194.901076
 20
55.565772
 30
0.0
 10
194.985742
 20
55.523438
 30
0.0
 10
196.128742
 20
55.523438
 30
0.0
 10
196.255742
 20
55.650438
 30
0.0
 10
196.255742
 20
57.851772
 30
0.0
 10
196.001742
 20
57.851772
 30
0.0
 10
196.001742
 20
55.650438
 30
0.0
 10
196.128742
 20
55.650438
 30
0.0
 10
196.128742
 20
55.777438
 30
0.0
 10
194.985742
 20
55.777438
 30
0.0
 10
194.985742
 20
55.650438
 30
0.0
 10
195.070409
 20
55.735105
 30
0.0
 10
194.520076
 20
56.285438
 30
0.0
 10
194.435409
 20
56.200772
 30
0.0
 10
194.562409
 20
56.200772
 30
0.0
 10
194.562409
 20
57.301438
 30
0.0
 10
194.520076
 20
57.386105
 30
0.0
 10
193.969742
 20
57.936438
 30
0.0
 10
193.885076
 20
57.978772
 30
0.0
 10
193.334742
 20
57.978772
 30
0.0
 10
193.250076
 20
57.936438
 30
0.0
 10
192.657409
 20
57.386105
 30
0.0
 10
192.615076
 20
57.301438
 30
0.0
 10
192.615076
 20
56.200772
 30
0.0
 10
192.657409
 20
56.116105
 30
0.0
  0
LWPOLYLINE
  5
108
100
AcDbEntity
  8
DIMENSIONS
 62
7
100
AcDbPolyline
 90
3
 70
1
 10
154.497193
 20
13.825106
 30
0.0
 10
154.497193
 20
13.359439
 30
0.0
 10
155.894193
 20
13.613439
 30
0.0
  0
LWPOLYLINE
  5
109
100
AcDbEntity
  8
DIMENSIONS
 62
7
100
AcDbPolyline
 90
3
 70
1
 10
157.291193
 20
13.655773
 30
0.0
 10
157.291193
 20
13.190106
 30
0.0
 10
155.894193
 20
13.444106
 30
0.0
  0
LWPOLYLINE
  5
10a
100
AcDbEntity
  8
DIMENSIONS
 62
7
100
AcDbPolyline
 90
3
 70
1
 10
176.891526
 20
13.655773
 30
0.0
 10
176.891526
 20
13.190106
 30
0.0
 10
178.288526
 20
13.444106
 30
0.0
  0
LWPOLYLINE
  5
10b
100
AcDbEntity
  8
DIMENSIONS
 62
7
100
AcDbPolyline
 90
14
 70
1
 10
166.816193
 20
14.756439
 30
0.0
 10
166.816193
 20
15.010439
 30
0.0
 10
164.572526
 20
15.010439
 30
0.0
 10
164.572526
 20
14.883439
 30
0.0
 10
164.657193
 20
14.798773
 30
0.0
 10
166.308193
 20
17.042439
 30
0.0
 10
166.223526
 20
17.127106
 30
0.0
 10
166.096526
 20
17.127106
 30
0.0
 10
166.096526
 20
13.782773
 30
0.0
 10
166.350526
 20
13.782773
 30
0.0
 10
166.350526
 20
17.127106
 30
0.0
 10
166.096526
 20
17.169439
 30
0.0
 10
164.445526
 20
14.925773
 30
0.0
 10
164.572526
 20
14.756439
 30
0.0
  0
LWPOLYLINE
  5
10c
100
AcDbEntity
  8
DIMENSIONS
 62
7
100
AcDbPolyline
 90
39
 70
1
 10
168.382526
 20
13.698106
 30
0.0
 10
168.551860
 20
13.867439
 30
0.0
 10
168.001526
 20
14.417773
 30
0.0
 10
167.916860
 20
14.333106
 30
0.0
 10
168.043860
 20
14.333106
 30
0.0
 10
168.043860
 20
16.576773
 30
0.0
 10
167.916860
 20
16.576773
 30
0.0
 10
168.001526
 20
16.492106
 30
0.0
 10
168.551860
 20
17.042439
 30
0.0
 10
168.467193
 20
17.127106
 30
0.0
 10
168.467193
 20
17.000106
 30
0.0
 10
169.017526
 20
17.000106
 30
0.0
 10
169.017526
 20
17.127106
 30
0.0
 10
168.932860
 20
17.042439
 30
0.0
 10
169.525526
 20
16.492106
 30
0.0
 10
169.610193
 20
16.576773
 30
0.0
 10
169.483193
 20
16.576773
 30
0.0
 10
169.483193
 20
14.333106
 30
0.0
 10
169.610193
 20
14.333106
 30
0.0
 10
169.525526
 20
14.417773
 30
0.0
 10
168.932860
 20
13.867439
 30
0.0
 10
169.017526
 20
13.782773
 30
0.0
 10
169.017526
 20
13.909773
 30
0.0
 10
168.467193
 20
13.909773
 30
0.0
 10
168.467193
 20
13.655773
 30
0.0
 10
169.017526
 20
13.655773
 30
0.0
 10
169.102193
 20
13.698106
 30
0.0
 10
169.694860
 20
14.248439
 30
0.0
 10
169.737193
 20
14.333106
 30
0.0
 10
169.737193
 20
16.576773
 30
0.0
 10
169.694860
 20
16.661439
 30
0.0
 10
169.102193
 20
17.211773
 30
0.0
 10
169.017526
 20
17.254106
 30
0.0
 10
168.467193
 20
17.254106
 30
0.0
 10
168.382526
 20
17.211773
 30
0.0
 10
167.832193
 20
16.661439
 30
0.0
 10
167.789860
 20
16.576773
 30
0.0
 10
167.789860
 20
14.333106
 30
0.0
 10
167.832193
 20
14.248439
 30
0.0
  0
LWPOLYLINE
  5
10d
100
AcDbEntity
  8
DIMENSIONS
 62
7
100
AcDbPolyline
 90
4
 70
1
 10
28.724863
 20
21.529773
 30
0.0
 10
28.513196
 20
21.402773
 30
0.0
 10
29.190529
 20
20.513773
 30
0.0
 10
29.402196
 20
20.640773
 30
0.0
  0
LWPOLYLINE
  5
10e
100
AcDbEntity
  8
DIMENSIONS
 62
7
100
AcDbPolyline
 90
18
 70
1
 10
71.777862
 20
14.079106
 30
0.0
 10
71.777862
 20
14.036773
 30
0.0
 10
71.777862
 20
13.994439
 30
0.0
 10
71.820195
 20
13.952106
 30
0.0
 10
71.862528
 20
13.952106
 30
0.0
 10
71.904862
 20
13.952106
 30
0.0
 10
71.947195
 20
13.952106
 30
0.0
 10
71.989528
 20
13.994439
 30
0.0
 10
72.031862
 20
14.036773
 30
0.0
 10
72.031862
 20
14.460106
 30
0.0
 10
71.989528
 20
14.502439
 30
0.0
 10
71.989528
 20
14.544773
 30
0.0
 10
71.947195
 20
14.587106
 30
0.0
 10
71.904862
 20
14.587106
 30
0.0
 10
71.862528
 20
14.587106
 30
0.0
 10
71.820195
 20
14.587106
 30
0.0
 10
71.777862
 20
14.544773
 30
0.0
 10
71.777862
 20
14.502439
 30
0.0
  0
LWPOLYLINE
  5
10f
100
AcDbEntity
  8
DIMENSIONS
 62
7
100
AcDbPolyline
 90
18
 70
1
 10
100.014194
 20
29.530772
 30
0.0
 10
99.971861
 20
29.573106
 30
0.0
 10
99.929528
 20
29.615439
 30
0.0
 10
99.887194
 20
29.615439
 30
0.0
 10
99.844861
 20
29.615439
 30
0.0
 10
99.802528
 20
29.615439
 30
0.0
 10
99.760194
 20
29.573106
 30
0.0
 10
99.760194
 20
29.530772
 30
0.0
 10
99.760194
 20
29.488439
 30
0.0
 10
99.760194
 20
13.063106
 30
0.0
 10
99.760194
 20
13.020773
 30
0.0
 10
99.802528
 20
12.978439
 30
0.0
 10
99.844861
 20
12.978439
 30
0.0
 10
99.887194
 20
12.978439
 30
0.0
 10
99.929528
 20
12.978439
 30
0.0
 10
99.971861
 20
13.020773
 30
0.0
 10
99.971861
 20
13.063106
 30
0.0
 10
100.014194
 20
13.105439
 30
0.0
  0
LWPOLYLINE
  5
110
100
AcDbEntity
  8
DIMENSIONS
 62
7
100
AcDbPolyline
 90
18
 70
1
 10
73.301862
 20
13.909773
 30
0.0
 10
73.259528
 20
13.867439
 30
0.0
 10
73.217195
 20
13.867439
 30
0.0
 10
73.174862
 20
13.825106
 30
0.0
 10
73.174862
 20
13.782773
 30
0.0
 10
73.174862
 20
13.740439
 30
0.0
 10
73.174862
 20
13.698106
 30
0.0
 10
73.217195
 20
13.655773
 30
0.0
 10
73.259528
 20
13.655773
 30
0.0
 10
98.447861
 20
13.655773
 30
0.0
 10
98.490194
 20
13.655773
 30
0.0
 10
98.532528
 20
13.655773
 30
0.0
 10
98.574861
 20
13.698106
 30
0.0
 10
98.574861
 20
13.740439
 30
0.0
 10
98.574861
 20
13.782773
 30
0.0
 10
98.574861
 20
13.825106
 30
0.0
 10
98.532528
 20
13.867439
 30
0.0
 10
98.490194
 20
13.909773
 30
0.0
  0
LWPOLYLINE
  5
111
100
AcDbEntity
  8
DIMENSIONS
 62
7
100
AcDbPolyline
 90
18
 70
1
 10
100.014194
 20
13.444106
 30
0.0
 10
99.971861
 20
13.486439
 30
0.0
 10
99.929528
 20
13.528773
 30
0.0
 10
99.887194
 20
13.528773
 30
0.0
 10
99.844861
 20
13.528773
 30
0.0
 10
99.802528
 20
13.528773
 30
0.0
 10
99.760194
 20
13.486439
 30
0.0
 10
99.760194
 20
13.444106
 30
0.0
 10
99.760194
 20
13.401773
 30
0.0
 10
99.760194
 20
12.851439
 30
0.0
 10
99.760194
 20
12.809106
 30
0.0
 10
99.802528
 20
12.766773
 30
0.0
 10
99.844861
 20
12.766773
 30
0.0
 10
99.887194
 20
12.766773
 30
0.0
 10
99.929528
 20
12.766773
 30
0.0
 10
99.971861
 20
12.809106
 30
0.0
 10
99.971861
 20
12.851439
 30
0.0
 10
100.014194
 20
12.893773
 30
0.0
  0
LWPOLYLINE
  5
112
100
AcDbEntity
  8
DIMENSIONS
 62
7
100
AcDbPolyline
 90
18
 70
1
 10
128.038860
 20
29.530772
 30
0.0
 10
127.996527
 20
29.573106
 30
0.0
 10
127.954194
 20
29.615439
 30
0.0
 10
127.911860
 20
29.615439
 30
0.0
 10
127.869527
 20
29.615439
 30
0.0
 10
127.827194
 20
29.615439
 30
0.0
 10
127.784860
 20
29.573106
 30
0.0
 10
127.784860
 20
29.530772
 30
0.0
 10
127.784860
 20
29.488439
 30
0.0
 10
127.784860
 20
12.851439
 30
0.0
 10
127.784860
 20
12.809106
 30
0.0
 10
127.827194
 20
12.766773
 30
0.0
 10
127.869527
 20
12.766773
 30
0.0
 10
127.911860
 20
12.766773
 30
0.0
 10
127.954194
 20
12.766773
 30
0.0
 10
127.996527
 20
12.809106
 30
0.0
 10
127.996527
 20
12.851439
 30
0.0
 10
128.038860
 20
12.893773
 30
0.0
  0
LWPOLYLINE
  5
113
100
AcDbEntity
  8
DIMENSIONS
 62
7
100
AcDbPolyline
 90
18
 70
1
 10
101.284194
 20
13.740439
 30
0.0
 10
101.241861
 20
13.698106
 30
0.0
 10
101.199528
 20
13.698106
 30
0.0
 10
101.157194
 20
13.655773
 30
0.0
 10
101.157194
 20
13.613439
 30
0.0
 10
101.157194
 20
13.571106
 30
0.0
 10
101.157194
 20
13.528773
 30
0.0
 10
101.199528
 20
13.486439
 30
0.0
 10
101.241861
 20
13.486439
 30
0.0
 10
126.430194
 20
13.486439
 30
0.0
 10
126.472527
 20
13.486439
 30
0.0
 10
126.514861
 20
13.486439
 30
0.0
 10
126.557194
 20
13.528773
 30
0.0
 10
126.557194
 20
13.571106
 30
0.0
 10
126.557194
 20
13.613439
 30
0.0
 10
126.557194
 20
13.655773
 30
0.0
 10
126.514861
 20
13.698106
 30
0.0
 10
126.472527
 20
13.740439
 30
0.0
  0
LWPOLYLINE
  5
114
100
AcDbEntity
  8
DIMENSIONS
 62
7
100
AcDbPolyline
 90
18
 70
1
 10
127.784860
 20
13.952106
 30
0.0
 10
127.784860
 20
13.909773
 30
0.0
 10
127.784860
 20
13.867439
 30
0.0
 10
127.827194
 20
13.825106
 30
0.0
 10
127.869527
 20
13.825106
 30
0.0
 10
127.911860
 20
13.825106
 30
0.0
 10
127.954194
 20
13.825106
 30
0.0
 10
127.996527
 20
13.867439
 30
0.0
 10
128.038860
 20
13.909773
 30
0.0
 10
128.038860
 20
14.248439
 30
0.0
 10
127.996527
 20
14.290773
 30
0.0
 10
127.996527
 20
14.333106
 30
0.0
 10
127.954194
 20
14.375439
 30
0.0
 10
127.911860
 20
14.375439
 30
0.0
 10
127.869527
 20
14.375439
 30
0.0
 10
127.827194
 20
14.375439
 30
0.0
 10
127.784860
 20
14.333106
 30
0.0
 10
127.784860
 20
14.290773
 30
0.0
  0
LWPOLYLINE
  5
115
100
AcDbEntity
  8
DIMENSIONS
 62
7
100
AcDbPolyline
 90
18
 70
1
 10
156.021193
 20
29.530772
 30
0.0
 10
155.978860
 20
29.573106
 30
0.0
 10
155.936527
 20
29.615439
 30
0.0
 10
155.894193
 20
29.615439
 30
0.0
 10
155.851860
 20
29.615439
 30
0.0
 10
155.809527
 20
29.615439
 30
0.0
 10
155.767193
 20
29.573106
 30
0.0
 10
155.767193
 20
29.530772
 30
0.0
 10
155.767193
 20
29.488439
 30
0.0
 10
155.767193
 20
12.851439
 30
0.0
 10
155.767193
 20
12.809106
 30
0.0
 10
155.809527
 20
12.766773
 30
0.0
 10
155.851860
 20
12.766773
 30
0.0
 10
155.894193
 20
12.766773
 30
0.0
 10
155.936527
 20
12.766773
 30
0.0
 10
155.978860
 20
12.809106
 30
0.0
 10
155.978860
 20
12.851439
 30
0.0
 10
156.021193
 20
12.893773
 30
0.0
  0
LWPOLYLINE
  5
116
100
AcDbEntity
  8
DIMENSIONS
 62
7
100
AcDbPolyline
 90
18
 70
1
 10
129.308860
 20
13.740439
 30
0.0
 10
129.266527
 20
13.698106
 30
0.0
 10
129.224194
 20
13.698106
 30
0.0
 10
129.181860
 20
13.655773
 30
0.0
 10
129.181860
 20
13.613439
 30
0.0
 10
129.181860
 20
13.571106
 30
0.0
 10
129.181860
 20
13.528773
 30
0.0
 10
129.224194
 20
13.486439
 30
0.0
 10
129.266527
 20
13.486439
 30
0.0
 10
154.454860
 20
13.486439
 30
0.0
 10
154.497193
 20
13.486439
 30
0.0
 10
154.539527
 20
13.486439
 30
0.0
 10
154.581860
 20
13.528773
 30
0.0
 10
154.581860
 20
13.571106
 30
0.0
 10
154.581860
 20
13.613439
 30
0.0
 10
154.581860
 20
13.655773
 30
0.0
 10
154.539527
 20
13.698106
 30
0.0
 10
154.497193
 20
13.740439
 30
0.0
  0
LWPOLYLINE
  5
117
100
AcDbEntity
  8
DIMENSIONS
 62
7
100
AcDbPolyline
 90
39
 70
1
 10
139.468860
 20
14.587106
 30
0.0
 10
139.299527
 20
14.417773
 30
0.0
 10
139.849860
 20
13.867439
 30
0.0
 10
139.934527
 20
13.825106
 30
0.0
 10
141.035194
 20
13.825106
 30
0.0
 10
141.119860
 20
13.867439
 30
0.0
 10
141.712527
 20
14.417773
 30
0.0
 10
141.754860
 20
14.502439
 30
0.0
 10
141.754860
 20
15.645439
 30
0.0
 10
141.712527
 20
15.730106
 30
0.0
 10
141.119860
 20
16.280439
 30
0.0
 10
141.035194
 20
16.322773
 30
0.0
 10
139.384194
 20
16.322773
 30
0.0
 10
139.384194
 20
16.195773
 30
0.0
 10
139.511194
 20
16.195773
 30
0.0
 10
139.511194
 20
17.338773
 30
0.0
 10
139.384194
 20
17.338773
 30
0.0
 10
139.384194
 20
17.211773
 30
0.0
 10
141.627860
 20
17.211773
 30
0.0
 10
141.627860
 20
17.465773
 30
0.0
 10
139.384194
 20
17.465773
 30
0.0
 10
139.257194
 20
17.338773
 30
0.0
 10
139.257194
 20
16.195773
 30
0.0
 10
139.384194
 20
16.068773
 30
0.0
 10
141.035194
 20
16.068773
 30
0.0
 10
141.035194
 20
16.195773
 30
0.0
 10
140.950527
 20
16.111106
 30
0.0
 10
141.543194
 20
15.560773
 30
0.0
 10
141.627860
 20
15.645439
 30
0.0
 10
141.500860
 20
15.645439
 30
0.0
 10
141.500860
 20
14.502439
 30
0.0
 10
141.627860
 20
14.502439
 30
0.0
 10
141.543194
 20
14.587106
 30
0.0
 10
140.950527
 20
14.036773
 30
0.0
 10
141.035194
 20
13.952106
 30
0.0
 10
141.035194
 20
14.079106
 30
0.0
 10
139.934527
 20
14.079106
 30
0.0
 10
139.934527
 20
13.952106
 30
0.0
 10
140.019194
 20
14.036773
 30
0.0
  0
LWPOLYLINE
  5
118
100
AcDbEntity
  8
DIMENSIONS
 62
7
100
AcDbPolyline
 90
18
 70
1
 10
156.021193
 20
13.274773
 30
0.0
 10
155.978860
 20
13.317106
 30
0.0
 10
155.936527
 20
13.359439
 30
0.0
 10
155.894193
 20
13.359439
 30
0.0
 10
155.851860
 20
13.359439
 30
0.0
 10
155.809527
 20
13.359439
 30
0.0
 10
155.767193
 20
13.317106
 30
0.0
 10
155.767193
 20
13.274773
 30
0.0
 10
155.767193
 20
13.232439
 30
0.0
 10
155.767193
 20
12.682106
 30
0.0
 10
155.767193
 20
12.639773
 30
0.0
 10
155.809527
 20
12.597439
 30
0.0
 10
155.851860
 20
12.597439
 30
0.0
 10
155.894193
 20
12.597439
 30
0.0
 10
155.936527
 20
12.597439
 30
0.0
 10
155.978860
 20
12.639773
 30
0.0
 10
155.978860
 20
12.682106
 30
0.0
 10
156.021193
 20
12.724439
 30
0.0
  0
LWPOLYLINE
  5
119
100
AcDbEntity
  8
DIMENSIONS
 62
7
100
AcDbPolyline
 90
18
 70
1
 10
178.415526
 20
23.942772
 30
0.0
 10
178.373193
 20
23.985106
 30
0.0
 10
178.330859
 20
24.027439
 30
0.0
 10
178.288526
 20
24.027439
 30
0.0
 10
178.246193
 20
24.027439
 30
0.0
 10
178.203859
 20
24.027439
 30
0.0
 10
178.161526
 20
23.985106
 30
0.0
 10
178.161526
 20
23.942772
 30
0.0
 10
178.161526
 20
23.900439
 30
0.0
 10
178.161526
 20
12.682106
 30
0.0
 10
178.161526
 20
12.639773
 30
0.0
 10
178.203859
 20
12.597439
 30
0.0
 10
178.246193
 20
12.597439
 30
0.0
 10
178.288526
 20
12.597439
 30
0.0
 10
178.330859
 20
12.597439
 30
0.0
 10
178.373193
 20
12.639773
 30
0.0
 10
178.373193
 20
12.682106
 30
0.0
 10
178.415526
 20
12.724439
 30
0.0
  0
LWPOLYLINE
  5
11a
100
AcDbEntity
  8
DIMENSIONS
 62
7
100
AcDbPolyline
 90
18
 70
1
 10
157.291193
 20
13.571106
 30
0.0
 10
157.248860
 20
13.528773
 30
0.0
 10
157.206527
 20
13.528773
 30
0.0
 10
157.164193
 20
13.486439
 30
0.0
 10
157.164193
 20
13.444106
 30
0.0
 10
157.164193
 20
13.401773
 30
0.0
 10
157.164193
 20
13.359439
 30
0.0
 10
157.206527
 20
13.317106
 30
0.0
 10
157.248860
 20
13.317106
 30
0.0
 10
176.849193
 20
13.317106
 30
0.0
 10
176.891526
 20
13.317106
 30
0.0
 10
176.933859
 20
13.317106
 30
0.0
 10
176.976193
 20
13.359439
 30
0.0
 10
176.976193
 20
13.401773
 30
0.0
 10
176.976193
 20
13.444106
 30
0.0
 10
176.976193
 20
13.486439
 30
0.0
 10
176.933859
 20
13.528773
 30
0.0
 10
176.891526
 20
13.571106
 30
0.0
  0
LWPOLYLINE
  5
11b
100
AcDbEntity
  8
DIMENSIONS
 62
7
100
AcDbPolyline
 90
39
 70
1
 10
143.194193
 20
13.867439
 30
0.0
 10
143.363527
 20
14.036773
 30
0.0
 10
142.813193
 20
14.587106
 30
0.0
 10
142.728527
 20
14.502439
 30
0.0
 10
142.855527
 20
14.502439
 30
0.0
 10
142.855527
 20
16.746106
 30
0.0
 10
142.728527
 20
16.746106
 30
0.0
 10
142.813193
 20
16.661439
 30
0.0
 10
143.363527
 20
17.254106
 30
0.0
 10
143.278860
 20
17.338773
 30
0.0
 10
143.278860
 20
17.211773
 30
0.0
 10
143.829193
 20
17.211773
 30
0.0
 10
143.829193
 20
17.338773
 30
0.0
 10
143.744527
 20
17.254106
 30
0.0
 10
144.337193
 20
16.661439
 30
0.0
 10
144.421860
 20
16.746106
 30
0.0
 10
144.294860
 20
16.746106
 30
0.0
 10
144.294860
 20
14.502439
 30
0.0
 10
144.421860
 20
14.502439
 30
0.0
 10
144.337193
 20
14.587106
 30
0.0
 10
143.744527
 20
14.036773
 30
0.0
 10
143.829193
 20
13.952106
 30
0.0
 10
143.829193
 20
14.079106
 30
0.0
 10
143.278860
 20
14.079106
 30
0.0
 10
143.278860
 20
13.825106
 30
0.0
 10
143.829193
 20
13.825106
 30
0.0
 10
143.913860
 20
13.867439
 30
0.0
 10
144.506527
 20
14.417773
 30
0.0
 10
144.548860
 20
14.502439
 30
0.0
 10
144.548860
 20
16.746106
 30
0.0
 10
144.506527
 20
16.830773
 30
0.0
 10
143.913860
 20
17.423439
 30
0.0
 10
143.829193
 20
17.465773
 30
0.0
 10
143.278860
 20
17.465773
 30
0.0
 10
143.194193
 20
17.423439
 30
0.0
 10
142.643860
 20
16.830773
 30
0.0
 10
142.601527
 20
16.746106
 30
0.0
 10
142.601527
 20
14.502439
 30
0.0
 10
142.643860
 20
14.417773
 30
0.0
  0
LWPOLYLINE
  5
11c
100
AcDbEntity
  8
DIMENSIONS
 62
7
100
AcDbPolyline
 90
19
 70
1
 10
41.678862
 20
32.240106
 30
0.0
 10
41.678862
 20
31.986106
 30
0.0
 10
169.313860
 20
31.986106
 30
0.0
 10
169.440860
 20
32.113106
 30
0.0
 10
169.440860
 20
78.002438
 30
0.0
 10
169.313860
 20
78.129438
 30
0.0
 10
41.678862
 20
78.129438
 30
0.0
 10
41.551862
 20
78.002438
 30
0.0
 10
41.551862
 20
32.113106
 30
0.0
 10
41.805862
 20
32.113106
 30
0.0
 10
41.805862
 20
78.002438
 30
0.0
 10
41.678862
 20
78.002438
 30
0.0
 10
41.678862
 20
77.875438
 30
0.0
 10
169.313860
 20
77.875438
 30
0.0
 10
169.313860
 20
78.002438
 30
0.0
 10
169.186860
 20
78.002438
 30
0.0
 10
169.186860
 20
32.113106
 30
0.0
 10
169.313860
 20
32.113106
 30
0.0
 10
169.313860
 20
32.240106
 30
0.0
  0
LWPOLYLINE
  5
11d
100
AcDbEntity
  8
DIMENSIONS
 62
7
100
AcDbPolyline
 90
19
 70
1
 10
38.334529
 20
29.996439
 30
0.0
 10
38.334529
 20
29.742439
 30
0.0
 10
172.658193
 20
29.742439
 30
0.0
 10
172.785193
 20
29.869439
 30
0.0
 10
172.785193
 20
80.246105
 30
0.0
 10
172.658193
 20
80.373105
 30
0.0
 10
38.334529
 20
80.373105
 30
0.0
 10
38.207529
 20
80.246105
 30
0.0
 10
38.207529
 20
29.869439
 30
0.0
 10
38.461529
 20
29.869439
 30
0.0
 10
38.461529
 20
80.246105
 30
0.0
 10
38.334529
 20
80.246105
 30
0.0
 10
38.334529
 20
80.119105
 30
0.0
 10
172.658193
 20
80.119105
 30
0.0
 10
172.658193
 20
80.246105
 30
0.0
 10
172.531193
 20
80.246105
 30
0.0
 10
172.531193
 20
29.869439
 30
0.0
 10
172.658193
 20
29.869439
 30
0.0
 10
172.658193
 20
29.996439
 30
0.0
  0
LWPOLYLINE
  5
11e
100
AcDbEntity
  8
DIMENSIONS
 62
7
100
AcDbPolyline
 90
4
 70
1
 10
169.186860
 20
29.869439
 30
0.0
 10
169.440860
 20
29.869439
 30
0.0
 10
169.440860
 20
98.661104
 30
0.0
 10
169.186860
 20
98.661104
 30
0.0
  0
LWPOLYLINE
  5
11f
100
AcDbEntity
  8
DIMENSIONS
 62
7
100
AcDbPolyline
 90
18
 70
1
 10
58.358195
 20
78.383438
 30
0.0
 10
58.358195
 20
78.341105
 30
0.0
 10
58.358195
 20
78.298771
 30
0.0
 10
58.400529
 20
78.256438
 30
0.0
 10
58.442862
 20
78.256438
 30
0.0
 10
58.485195
 20
78.256438
 30
0.0
 10
58.527529
 20
78.256438
 30
0.0
 10
58.569862
 20
78.298771
 30
0.0
 10
58.612195
 20
78.341105
 30
0.0
 10
58.612195
 20
107.381771
 30
0.0
 10
58.569862
 20
107.424104
 30
0.0
 10
58.569862
 20
107.466437
 30
0.0
 10
58.527529
 20
107.508771
 30
0.0
 10
58.485195
 20
107.508771
 30
0.0
 10
58.442862
 20
107.508771
 30
0.0
 10
58.400529
 20
107.508771
 30
0.0
 10
58.358195
 20
107.466437
 30
0.0
 10
58.358195
 20
107.424104
 30
0.0
  0
LWPOLYLINE
  5
120
100
AcDbEntity
  8
DIMENSIONS
 62
7
100
AcDbPolyline
 90
18
 70
1
 10
169.186860
 20
78.383438
 30
0.0
 10
169.186860
 20
78.341105
 30
0.0
 10
169.186860
 20
78.298771
 30
0.0
 10
169.229193
 20
78.256438
 30
0.0
 10
169.271526
 20
78.256438
 30
0.0
 10
169.313860
 20
78.256438
 30
0.0
 10
169.356193
 20
78.256438
 30
0.0
 10
169.398526
 20
78.298771
 30
0.0
 10
169.440860
 20
78.341105
 30
0.0
 10
169.440860
 20
107.381771
 30
0.0
 10
169.398526
 20
107.424104
 30
0.0
 10
169.398526
 20
107.466437
 30
0.0
 10
169.356193
 20
107.508771
 30
0.0
 10
169.313860
 20
107.508771
 30
0.0
 10
169.271526
 20
107.508771
 30
0.0
 10
169.229193
 20
107.508771
 30
0.0
 10
169.186860
 20
107.466437
 30
0.0
 10
169.186860
 20
107.424104
 30
0.0
  0
LWPOLYLINE
  5
121
100
AcDbEntity
  8
DIMENSIONS
 62
7
100
AcDbPolyline
 90
18
 70
1
 10
59.882195
 20
106.873771
 30
0.0
 10
59.839862
 20
106.831437
 30
0.0
 10
59.797529
 20
106.831437
 30
0.0
 10
59.755195
 20
106.789104
 30
0.0
 10
59.755195
 20
106.746771
 30
0.0
 10
59.755195
 20
106.704437
 30
0.0
 10
59.755195
 20
106.662104
 30
0.0
 10
59.797529
 20
106.619771
 30
0.0
 10
59.839862
 20
106.619771
 30
0.0
 10
167.874526
 20
106.619771
 30
0.0
 10
167.916860
 20
106.619771
 30
0.0
 10
167.959193
 20
106.619771
 30
0.0
 10
168.001526
 20
106.662104
 30
0.0
 10
168.001526
 20
106.704437
 30
0.0
 10
168.001526
 20
106.746771
 30
0.0
 10
168.001526
 20
106.789104
 30
0.0
 10
167.959193
 20
106.831437
 30
0.0
 10
167.916860
 20
106.873771
 30
0.0
  0
LWPOLYLINE
  5
122
100
AcDbEntity
  8
DIMENSIONS
 62
7
100
AcDbPolyline
 90
44
 70
1
 10
112.798861
 20
107.212437
 30
0.0
 10
112.798861
 20
106.958437
 30
0.0
 10
113.349194
 20
106.958437
 30
0.0
 10
113.433861
 20
107.000771
 30
0.0
 10
114.534527
 20
108.101437
 30
0.0
 10
114.576861
 20
108.186104
 30
0.0
 10
114.576861
 20
109.879437
 30
0.0
 10
114.534527
 20
109.964104
 30
0.0
 10
113.984194
 20
110.514437
 30
0.0
 10
113.899527
 20
110.556771
 30
0.0
 10
112.798861
 20
110.556771
 30
0.0
 10
112.714194
 20
110.514437
 30
0.0
 10
112.121528
 20
109.964104
 30
0.0
 10
112.079194
 20
109.879437
 30
0.0
 10
112.079194
 20
109.329104
 30
0.0
 10
112.121528
 20
109.244437
 30
0.0
 10
112.714194
 20
108.651771
 30
0.0
 10
112.798861
 20
108.609437
 30
0.0
 10
114.449861
 20
108.609437
 30
0.0
 10
114.449861
 20
108.863437
 30
0.0
 10
112.798861
 20
108.863437
 30
0.0
 10
112.798861
 20
108.736437
 30
0.0
 10
112.883527
 20
108.821104
 30
0.0
 10
112.290861
 20
109.413771
 30
0.0
 10
112.206194
 20
109.329104
 30
0.0
 10
112.333194
 20
109.329104
 30
0.0
 10
112.333194
 20
109.879437
 30
0.0
 10
112.206194
 20
109.879437
 30
0.0
 10
112.290861
 20
109.794771
 30
0.0
 10
112.883527
 20
110.345104
 30
0.0
 10
112.798861
 20
110.429771
 30
0.0
 10
112.798861
 20
110.302771
 30
0.0
 10
113.899527
 20
110.302771
 30
0.0
 10
113.899527
 20
110.429771
 30
0.0
 10
113.814861
 20
110.345104
 30
0.0
 10
114.365194
 20
109.794771
 30
0.0
 10
114.449861
 20
109.879437
 30
0.0
 10
114.322861
 20
109.879437
 30
0.0
 10
114.322861
 20
108.186104
 30
0.0
 10
114.449861
 20
108.186104
 30
0.0
 10
114.365194
 20
108.270771
 30
0.0
 10
113.264527
 20
107.170104
 30
0.0
 10
113.349194
 20
107.085437
 30
0.0
 10
113.349194
 20
107.212437
 30
0.0
  0
LWPOLYLINE
  5
123
100
AcDbEntity
  8
DIMENSIONS
 62
7
100
AcDbPolyline
 90
18
 70
1
 10
58.358195
 20
99.338437
 30
0.0
 10
58.358195
 20
99.296104
 30
0.0
 10
58.358195
 20
99.253771
 30
0.0
 10
58.400529
 20
99.211437
 30
0.0
 10
58.442862
 20
99.211437
 30
0.0
 10
58.485195
 20
99.211437
 30
0.0
 10
58.527529
 20
99.211437
 30
0.0
 10
58.569862
 20
99.253771
 30
0.0
 10
58.612195
 20
99.296104
 30
0.0
 10
58.612195
 20
101.370437
 30
0.0
 10
58.569862
 20
101.412771
 30
0.0
 10
58.569862
 20
101.455104
 30
0.0
 10
58.527529
 20
101.497437
 30
0.0
 10
58.485195
 20
101.497437
 30
0.0
 10
58.442862
 20
101.497437
 30
0.0
 10
58.400529
 20
101.497437
 30
0.0
 10
58.358195
 20
101.455104
 30
0.0
 10
58.358195
 20
101.412771
 30
0.0
  0
LWPOLYLINE
  5
124
100
AcDbEntity
  8
DIMENSIONS
 62
7
100
AcDbPolyline
 90
18
 70
1
 10
71.777862
 20
98.999771
 30
0.0
 10
71.777862
 20
98.957437
 30
0.0
 10
71.777862
 20
98.915104
 30
0.0
 10
71.820195
 20
98.872771
 30
0.0
 10
71.862528
 20
98.872771
 30
0.0
 10
71.904862
 20
98.872771
 30
0.0
 10
71.947195
 20
98.872771
 30
0.0
 10
71.989528
 20
98.915104
 30
0.0
 10
72.031862
 20
98.957437
 30
0.0
 10
72.031862
 20
101.370437
 30
0.0
 10
71.989528
 20
101.412771
 30
0.0
 10
71.989528
 20
101.455104
 30
0.0
 10
71.947195
 20
101.497437
 30
0.0
 10
71.904862
 20
101.497437
 30
0.0
 10
71.862528
 20
101.497437
 30
0.0
 10
71.820195
 20
101.497437
 30
0.0
 10
71.777862
 20
101.455104
 30
0.0
 10
71.777862
 20
101.412771
 30
0.0
  0
LWPOLYLINE
  5
125
100
AcDbEntity
  8
DIMENSIONS
 62
7
100
AcDbPolyline
 90
18
 70
1
 10
57.088195
 20
100.566104
 30
0.0
 10
57.130529
 20
100.566104
 30
0.0
 10
57.172862
 20
100.608437
 30
0.0
 10
57.172862
 20
100.650771
 30
0.0
 10
57.172862
 20
100.693104
 30
0.0
 10
57.172862
 20
100.735437
 30
0.0
 10
57.130529
 20
100.777771
 30
0.0
 10
57.088195
 20
100.777771
 30
0.0
 10
57.045862
 20
100.820104
 30
0.0
 10
55.648862
 20
100.820104
 30
0.0
 10
55.606529
 20
100.777771
 30
0.0
 10
55.564195
 20
100.735437
 30
0.0
 10
55.564195
 20
100.693104
 30
0.0
 10
55.564195
 20
100.650771
 30
0.0
 10
55.564195
 20
100.608437
 30
0.0
 10
55.606529
 20
100.566104
 30
0.0
 10
55.648862
 20
100.566104
 30
0.0
 10
55.691195
 20
100.566104
 30
0.0
  0
LWPOLYLINE
  5
126
100
AcDbEntity
  8
DIMENSIONS
 62
7
100
AcDbPolyline
 90
18
 70
1
 10
73.301862
 20
100.820104
 30
0.0
 10
73.259528
 20
100.777771
 30
0.0
 10
73.217195
 20
100.777771
 30
0.0
 10
73.174862
 20
100.735437
 30
0.0
 10
73.174862
 20
100.693104
 30
0.0
 10
73.174862
 20
100.650771
 30
0.0
 10
73.174862
 20
100.608437
 30
0.0
 10
73.217195
 20
100.566104
 30
0.0
 10
73.259528
 20
100.566104
 30
0.0
 10
74.656528
 20
100.566104
 30
0.0
 10
74.698862
 20
100.566104
 30
0.0
 10
74.741195
 20
100.566104
 30
0.0
 10
74.783528
 20
100.608437
 30
0.0
 10
74.783528
 20
100.650771
 30
0.0
 10
74.783528
 20
100.693104
 30
0.0
 10
74.783528
 20
100.735437
 30
0.0
 10
74.741195
 20
100.777771
 30
0.0
 10
74.698862
 20
100.820104
 30
0.0
  0
LWPOLYLINE
  5
127
100
AcDbEntity
  8
DIMENSIONS
 62
7
100
AcDbPolyline
 90
18
 70
1
 10
58.485195
 20
100.820104
 30
0.0
 10
58.442862
 20
100.777771
 30
0.0
 10
58.400529
 20
100.777771
 30
0.0
 10
58.358195
 20
100.735437
 30
0.0
 10
58.358195
 20
100.693104
 30
0.0
 10
58.358195
 20
100.650771
 30
0.0
 10
58.358195
 20
100.608437
 30
0.0
 10
58.400529
 20
100.566104
 30
0.0
 10
58.442862
 20
100.566104
 30
0.0
 10
71.862528
 20
100.566104
 30
0.0
 10
71.904862
 20
100.566104
 30
0.0
 10
71.947195
 20
100.566104
 30
0.0
 10
71.989528
 20
100.608437
 30
0.0
 10
71.989528
 20
100.650771
 30
0.0
 10
71.989528
 20
100.693104
 30
0.0
 10
71.989528
 20
100.735437
 30
0.0
 10
71.947195
 20
100.777771
 30
0.0
 10
71.904862
 20
100.820104
 30
0.0
  0
LWPOLYLINE
  5
128
100
AcDbEntity
  8
DIMENSIONS
 62
7
100
AcDbPolyline
 90
3
 70
1
 10
57.088195
 20
100.947104
 30
0.0
 10
57.088195
 20
100.481437
 30
0.0
 10
58.485195
 20
100.693104
 30
0.0
  0
LWPOLYLINE
  5
129
100
AcDbEntity
  8
DIMENSIONS
 62
7
100
AcDbPolyline
 90
44
 70
1
 10
64.835195
 20
103.910437
 30
0.0
 10
65.004529
 20
103.741104
 30
0.0
 10
65.554862
 20
104.333771
 30
0.0
 10
65.470195
 20
104.418437
 30
0.0
 10
65.470195
 20
104.291437
 30
0.0
 10
66.613195
 20
104.291437
 30
0.0
 10
66.613195
 20
104.418437
 30
0.0
 10
66.528529
 20
104.333771
 30
0.0
 10
67.078862
 20
103.741104
 30
0.0
 10
67.163528
 20
103.825771
 30
0.0
 10
67.036528
 20
103.825771
 30
0.0
 10
67.036528
 20
103.275437
 30
0.0
 10
67.163528
 20
103.275437
 30
0.0
 10
67.078862
 20
103.360104
 30
0.0
 10
66.528529
 20
102.809771
 30
0.0
 10
66.613195
 20
102.725104
 30
0.0
 10
66.613195
 20
102.852104
 30
0.0
 10
65.470195
 20
102.852104
 30
0.0
 10
65.385529
 20
102.809771
 30
0.0
 10
64.835195
 20
102.259437
 30
0.0
 10
64.792862
 20
102.174771
 30
0.0
 10
64.792862
 20
101.031771
 30
0.0
 10
64.919862
 20
100.904771
 30
0.0
 10
67.163528
 20
100.904771
 30
0.0
 10
67.163528
 20
101.158771
 30
0.0
 10
64.919862
 20
101.158771
 30
0.0
 10
64.919862
 20
101.031771
 30
0.0
 10
65.046862
 20
101.031771
 30
0.0
 10
65.046862
 20
102.174771
 30
0.0
 10
64.919862
 20
102.174771
 30
0.0
 10
65.004529
 20
102.090104
 30
0.0
 10
65.554862
 20
102.640437
 30
0.0
 10
65.470195
 20
102.725104
 30
0.0
 10
65.470195
 20
102.598104
 30
0.0
 10
66.613195
 20
102.598104
 30
0.0
 10
66.697862
 20
102.640437
 30
0.0
 10
67.248195
 20
103.190771
 30
0.0
 10
67.290528
 20
103.275437
 30
0.0
 10
67.290528
 20
103.825771
 30
0.0
 10
67.248195
 20
103.910437
 30
0.0
 10
66.697862
 20
104.503104
 30
0.0
 10
66.613195
 20
104.545437
 30
0.0
 10
65.470195
 20
104.545437
 30
0.0
 10
65.385529
 20
104.503104
 30
0.0
  0
LWPOLYLINE
  5
12a
100
AcDbEntity
  8
DIMENSIONS
 62
7
100
AcDbPolyline
 90
18
 70
1
 10
32.619529
 20
86.215104
 30
0.0
 10
32.619529
 20
86.172771
 30
0.0
 10
32.619529
 20
86.130438
 30
0.0
 10
32.661863
 20
86.088104
 30
0.0
 10
32.704196
 20
86.088104
 30
0.0
 10
32.746529
 20
86.088104
 30
0.0
 10
32.788863
 20
86.088104
 30
0.0
 10
32.831196
 20
86.130438
 30
0.0
 10
32.873529
 20
86.172771
 30
0.0
 10
32.873529
 20
114.832437
 30
0.0
 10
32.831196
 20
114.874770
 30
0.0
 10
32.831196
 20
114.917104
 30
0.0
 10
32.788863
 20
114.959437
 30
0.0
 10
32.746529
 20
114.959437
 30
0.0
 10
32.704196
 20
114.959437
 30
0.0
 10
32.661863
 20
114.959437
 30
0.0
 10
32.619529
 20
114.917104
 30
0.0
 10
32.619529
 20
114.874770
 30
0.0
  0
LWPOLYLINE
  5
12b
100
AcDbEntity
  8
DIMENSIONS
 62
7
100
AcDbPolyline
 90
18
 70
1
 10
178.161526
 20
86.215104
 30
0.0
 10
178.161526
 20
86.172771
 30
0.0
 10
178.161526
 20
86.130438
 30
0.0
 10
178.203859
 20
86.088104
 30
0.0
 10
178.246193
 20
86.088104
 30
0.0
 10
178.288526
 20
86.088104
 30
0.0
 10
178.330859
 20
86.088104
 30
0.0
 10
178.373193
 20
86.130438
 30
0.0
 10
178.415526
 20
86.172771
 30
0.0
 10
178.415526
 20
114.832437
 30
0.0
 10
178.373193
 20
114.874770
 30
0.0
 10
178.373193
 20
114.917104
 30
0.0
 10
178.330859
 20
114.959437
 30
0.0
 10
178.288526
 20
114.959437
 30
0.0
 10
178.246193
 20
114.959437
 30
0.0
 10
178.203859
 20
114.959437
 30
0.0
 10
178.161526
 20
114.917104
 30
0.0
 10
178.161526
 20
114.874770
 30
0.0
  0
LWPOLYLINE
  5
12c
100
AcDbEntity
  8
DIMENSIONS
 62
7
100
AcDbPolyline
 90
18
 70
1
 10
34.143529
 20
114.324437
 30
0.0
 10
34.101196
 20
114.282104
 30
0.0
 10
34.058863
 20
114.282104
 30
0.0
 10
34.016529
 20
114.239770
 30
0.0
 10
34.016529
 20
114.197437
 30
0.0
 10
34.016529
 20
114.155104
 30
0.0
 10
34.016529
 20
114.112770
 30
0.0
 10
34.058863
 20
114.070437
 30
0.0
 10
34.101196
 20
114.070437
 30
0.0
 10
176.849193
 20
114.070437
 30
0.0
 10
176.891526
 20
114.070437
 30
0.0
 10
176.933859
 20
114.070437
 30
0.0
 10
176.976193
 20
114.112770
 30
0.0
 10
176.976193
 20
114.155104
 30
0.0
 10
176.976193
 20
114.197437
 30
0.0
 10
176.976193
 20
114.239770
 30
0.0
 10
176.933859
 20
114.282104
 30
0.0
 10
176.891526
 20
114.324437
 30
0.0
  0
LWPOLYLINE
  5
12d
100
AcDbEntity
  8
DIMENSIONS
 62
7
100
AcDbPolyline
 90
14
 70
1
 10
16.321196
 20
72.626105
 30
0.0
 10
16.067196
 20
72.626105
 30
0.0
 10
16.067196
 20
70.382438
 30
0.0
 10
16.194196
 20
70.382438
 30
0.0
 10
16.236530
 20
70.467105
 30
0.0
 10
13.992863
 20
72.160438
 30
0.0
 10
13.950530
 20
72.075771
 30
0.0
 10
13.950530
 20
71.948771
 30
0.0
 10
17.294863
 20
71.948771
 30
0.0
 10
17.294863
 20
72.202771
 30
0.0
 10
13.950530
 20
72.202771
 30
0.0
 10
13.865863
 20
71.948771
 30
0.0
 10
16.109530
 20
70.255438
 30
0.0
 10
16.321196
 20
70.382438
 30
0.0
  0
LWPOLYLINE
  5
12e
100
AcDbEntity
  8
DIMENSIONS
 62
7
100
AcDbPolyline
 90
192
 70
1
 10
57.807862
 20
67.376772
 30
0.0
 10
58.061862
 20
67.376772
 30
0.0
 10
57.977195
 20
68.562105
 30
0.0
 10
57.977195
 20
68.562105
 30
0.0
 10
57.723195
 20
69.747438
 30
0.0
 10
57.299862
 20
70.890438
 30
0.0
 10
57.257529
 20
70.932771
 30
0.0
 10
56.664862
 20
71.948771
 30
0.0
 10
56.664862
 20
71.948771
 30
0.0
 10
55.945195
 20
72.922438
 30
0.0
 10
55.945195
 20
72.964771
 30
0.0
 10
55.098529
 20
73.811438
 30
0.0
 10
55.056195
 20
73.811438
 30
0.0
 10
54.124862
 20
74.531105
 30
0.0
 10
54.124862
 20
74.531105
 30
0.0
 10
53.066529
 20
75.123771
 30
0.0
 10
53.024195
 20
75.166105
 30
0.0
 10
51.881195
 20
75.547105
 30
0.0
 10
50.738196
 20
75.801105
 30
0.0
 10
50.738196
 20
75.801105
 30
0.0
 10
49.510529
 20
75.885771
 30
0.0
 10
48.325196
 20
75.801105
 30
0.0
 10
48.282862
 20
75.801105
 30
0.0
 10
47.097529
 20
75.547105
 30
0.0
 10
45.996862
 20
75.166105
 30
0.0
 10
45.996862
 20
75.123771
 30
0.0
 10
44.938529
 20
74.531105
 30
0.0
 10
44.896196
 20
74.531105
 30
0.0
 10
43.922529
 20
73.811438
 30
0.0
 10
43.922529
 20
73.811438
 30
0.0
 10
43.075862
 20
72.964771
 30
0.0
 10
43.033529
 20
72.922438
 30
0.0
 10
42.313862
 20
71.948771
 30
0.0
 10
42.313862
 20
71.948771
 30
0.0
 10
41.763529
 20
70.932771
 30
0.0
 10
41.763529
 20
70.890438
 30
0.0
 10
41.340196
 20
69.747438
 30
0.0
 10
41.086196
 20
68.562105
 30
0.0
 10
41.086196
 20
68.562105
 30
0.0
 10
41.001529
 20
67.376772
 30
0.0
 10
41.086196
 20
66.191438
 30
0.0
 10
41.086196
 20
66.149105
 30
0.0
 10
41.340196
 20
64.963772
 30
0.0
 10
41.763529
 20
63.863105
 30
0.0
 10
41.763529
 20
63.863105
 30
0.0
 10
42.313862
 20
62.804772
 30
0.0
 10
42.313862
 20
62.762438
 30
0.0
 10
43.033529
 20
61.788772
 30
0.0
 10
43.075862
 20
61.788772
 30
0.0
 10
43.922529
 20
60.942105
 30
0.0
 10
43.922529
 20
60.899772
 30
0.0
 10
44.896196
 20
60.180105
 30
0.0
 10
44.938529
 20
60.180105
 30
0.0
 10
45.996862
 20
59.629772
 30
0.0
 10
45.996862
 20
59.629772
 30
0.0
 10
47.097529
 20
59.206438
 30
0.0
 10
47.097529
 20
59.206438
 30
0.0
 10
48.282862
 20
58.952438
 30
0.0
 10
48.325196
 20
58.952438
 30
0.0
 10
49.510529
 20
58.867772
 30
0.0
 10
50.738196
 20
58.952438
 30
0.0
 10
50.738196
 20
58.952438
 30
0.0
 10
51.881195
 20
59.206438
 30
0.0
 10
51.923529
 20
59.206438
 30
0.0
 10
53.066529
 20
59.629772
 30
0.0
 10
53.066529
 20
59.629772
 30
0.0
 10
54.124862
 20
60.180105
 30
0.0
 10
54.124862
 20
60.180105
 30
0.0
 10
55.056195
 20
60.899772
 30
0.0
 10
55.098529
 20
60.942105
 30
0.0
 10
55.945195
 20
61.788772
 30
0.0
 10
55.945195
 20
61.788772
 30
0.0
 10
56.664862
 20
62.762438
 30
0.0
 10
56.664862
 20
62.804772
 30
0.0
 10
57.257529
 20
63.863105
 30
0.0
 10
57.299862
 20
63.863105
 30
0.0
 10
57.723195
 20
64.963772
 30
0.0
 10
57.977195
 20
66.149105
 30
0.0
 10
57.977195
 20
66.191438
 30
0.0
 10
58.061862
 20
67.376772
 30
0.0
 10
57.807862
 20
67.376772
 30
0.0
 10
57.723195
 20
66.191438
 30
0.0
 10
57.850195
 20
66.191438
 30
0.0
 10
57.723195
 20
66.191438
 30
0.0
 10
57.469195
 20
65.006105
 30
0.0
 10
57.045862
 20
63.905438
 30
0.0
 10
57.172862
 20
63.905438
 30
0.0
 10
57.045862
 20
63.947772
 30
0.0
 10
56.453195
 20
62.889438
 30
0.0
 10
56.580195
 20
62.847105
 30
0.0
 10
56.453195
 20
62.889438
 30
0.0
 10
55.733529
 20
61.915772
 30
0.0
 10
55.860529
 20
61.873438
 30
0.0
 10
55.775862
 20
61.958105
 30
0.0
 10
54.929195
 20
61.111438
 30
0.0
 10
55.013862
 20
61.026772
 30
0.0
 10
54.929195
 20
61.111438
 30
0.0
 10
53.997862
 20
60.391772
 30
0.0
 10
54.082529
 20
60.307105
 30
0.0
 10
54.040195
 20
60.391772
 30
0.0
 10
52.981862
 20
59.841438
 30
0.0
 10
53.024195
 20
59.756772
 30
0.0
 10
52.981862
 20
59.883772
 30
0.0
 10
51.838862
 20
59.460438
 30
0.0
 10
51.881195
 20
59.333438
 30
0.0
 10
51.838862
 20
59.460438
 30
0.0
 10
50.695862
 20
59.206438
 30
0.0
 10
50.738196
 20
59.079438
 30
0.0
 10
50.738196
 20
59.206438
 30
0.0
 10
49.510529
 20
59.121772
 30
0.0
 10
48.325196
 20
59.206438
 30
0.0
 10
48.325196
 20
59.079438
 30
0.0
 10
48.325196
 20
59.206438
 30
0.0
 10
47.139862
 20
59.460438
 30
0.0
 10
47.139862
 20
59.333438
 30
0.0
 10
47.182196
 20
59.460438
 30
0.0
 10
46.081529
 20
59.883772
 30
0.0
 10
46.039196
 20
59.756772
 30
0.0
 10
46.081529
 20
59.841438
 30
0.0
 10
45.023196
 20
60.391772
 30
0.0
 10
44.980862
 20
60.307105
 30
0.0
 10
45.023196
 20
60.391772
 30
0.0
 10
44.049529
 20
61.111438
 30
0.0
 10
44.007196
 20
61.026772
 30
0.0
 10
44.091862
 20
61.111438
 30
0.0
 10
43.245196
 20
61.958105
 30
0.0
 10
43.160529
 20
61.873438
 30
0.0
 10
43.245196
 20
61.915772
 30
0.0
 10
42.525529
 20
62.889438
 30
0.0
 10
42.440862
 20
62.847105
 30
0.0
 10
42.567862
 20
62.889438
 30
0.0
 10
42.017529
 20
63.947772
 30
0.0
 10
41.890529
 20
63.905438
 30
0.0
 10
42.017529
 20
63.905438
 30
0.0
 10
41.594196
 20
65.006105
 30
0.0
 10
41.340196
 20
66.191438
 30
0.0
 10
41.213196
 20
66.191438
 30
0.0
 10
41.340196
 20
66.191438
 30
0.0
 10
41.255529
 20
67.376772
 30
0.0
 10
41.340196
 20
68.562105
 30
0.0
 10
41.213196
 20
68.562105
 30
0.0
 10
41.340196
 20
68.519771
 30
0.0
 10
41.594196
 20
69.705105
 30
0.0
 10
42.017529
 20
70.848105
 30
0.0
 10
41.890529
 20
70.890438
 30
0.0
 10
41.975196
 20
70.848105
 30
0.0
 10
42.525529
 20
71.864105
 30
0.0
 10
42.440862
 20
71.906438
 30
0.0
 10
42.525529
 20
71.821771
 30
0.0
 10
43.245196
 20
72.795438
 30
0.0
 10
43.160529
 20
72.880105
 30
0.0
 10
43.245196
 20
72.795438
 30
0.0
 10
44.091862
 20
73.642105
 30
0.0
 10
44.007196
 20
73.726771
 30
0.0
 10
44.049529
 20
73.599771
 30
0.0
 10
45.023196
 20
74.319438
 30
0.0
 10
44.980862
 20
74.446438
 30
0.0
 10
45.023196
 20
74.319438
 30
0.0
 10
46.081529
 20
74.912105
 30
0.0
 10
46.039196
 20
75.039105
 30
0.0
 10
46.039196
 20
74.912105
 30
0.0
 10
47.139862
 20
75.293105
 30
0.0
 10
48.325196
 20
75.547105
 30
0.0
 10
48.325196
 20
75.674105
 30
0.0
 10
48.325196
 20
75.547105
 30
0.0
 10
49.510529
 20
75.631771
 30
0.0
 10
50.738196
 20
75.547105
 30
0.0
 10
50.738196
 20
75.674105
 30
0.0
 10
50.695862
 20
75.547105
 30
0.0
 10
51.838862
 20
75.293105
 30
0.0
 10
52.981862
 20
74.912105
 30
0.0
 10
53.024195
 20
75.039105
 30
0.0
 10
52.981862
 20
74.912105
 30
0.0
 10
54.040195
 20
74.319438
 30
0.0
 10
54.082529
 20
74.446438
 30
0.0
 10
53.997862
 20
74.319438
 30
0.0
 10
54.929195
 20
73.599771
 30
0.0
 10
55.013862
 20
73.726771
 30
0.0
 10
54.929195
 20
73.642105
 30
0.0
 10
55.775862
 20
72.795438
 30
0.0
 10
55.860529
 20
72.880105
 30
0.0
 10
55.733529
 20
72.795438
 30
0.0
 10
56.453195
 20
71.821771
 30
0.0
 10
56.580195
 20
71.906438
 30
0.0
 10
56.453195
 20
71.864105
 30
0.0
 10
57.045862
 20
70.848105
 30
0.0
 10
57.172862
 20
70.890438
 30
0.0
 10
57.045862
 20
70.848105
 30
0.0
 10
57.469195
 20
69.705105
 30
0.0
 10
57.723195
 20
68.519771
 30
0.0
 10
57.850195
 20
68.562105
 30
0.0
 10
57.723195
 20
68.562105
 30
0.0
  0
LWPOLYLINE
  5
12f
100
AcDbEntity
  8
DIMENSIONS
 62
7
100
AcDbPolyline
 90
9
 70
1
 10
50.103196
 20
67.503772
 30
0.0
 10
50.103196
 20
67.249772
 30
0.0
 10
58.485195
 20
67.249772
 30
0.0
 10
58.485195
 20
67.503772
 30
0.0
 10
27.073863
 20
67.503772
 30
0.0
 10
27.073863
 20
67.249772
 30
0.0
 10
58.485195
 20
67.249772
 30
0.0
 10
58.485195
 20
67.376772
 30
0.0
 10
58.485195
 20
67.503772
 30
0.0
  0
LWPOLYLINE
  5
130
100
AcDbEntity
  8
DIMENSIONS
 62
7
100
AcDbPolyline
 90
18
 70
1
 10
32.365529
 20
85.707104
 30
0.0
 10
32.407863
 20
85.707104
 30
0.0
 10
32.450196
 20
85.749438
 30
0.0
 10
32.450196
 20
85.791771
 30
0.0
 10
32.450196
 20
85.834104
 30
0.0
 10
32.450196
 20
85.876438
 30
0.0
 10
32.407863
 20
85.918771
 30
0.0
 10
32.365529
 20
85.918771
 30
0.0
 10
32.323196
 20
85.961104
 30
0.0
 10
12.468863
 20
85.961104
 30
0.0
 10
12.426530
 20
85.918771
 30
0.0
 10
12.384196
 20
85.876438
 30
0.0
 10
12.384196
 20
85.834104
 30
0.0
 10
12.384196
 20
85.791771
 30
0.0
 10
12.384196
 20
85.749438
 30
0.0
 10
12.426530
 20
85.707104
 30
0.0
 10
12.468863
 20
85.707104
 30
0.0
 10
12.511196
 20
85.707104
 30
0.0
  0
LWPOLYLINE
  5
131
100
AcDbEntity
  8
DIMENSIONS
 62
7
100
AcDbPolyline
 90
18
 70
1
 10
25.846196
 20
75.631771
 30
0.0
 10
25.888529
 20
75.631771
 30
0.0
 10
25.930863
 20
75.674105
 30
0.0
 10
25.930863
 20
75.716438
 30
0.0
 10
25.930863
 20
75.758771
 30
0.0
 10
25.930863
 20
75.801105
 30
0.0
 10
25.888529
 20
75.843438
 30
0.0
 10
25.846196
 20
75.843438
 30
0.0
 10
25.803863
 20
75.885771
 30
0.0
 10
12.468863
 20
75.885771
 30
0.0
 10
12.426530
 20
75.843438
 30
0.0
 10
12.384196
 20
75.801105
 30
0.0
 10
12.384196
 20
75.758771
 30
0.0
 10
12.384196
 20
75.716438
 30
0.0
 10
12.384196
 20
75.674105
 30
0.0
 10
12.426530
 20
75.631771
 30
0.0
 10
12.468863
 20
75.631771
 30
0.0
 10
12.511196
 20
75.631771
 30
0.0
  0
LWPOLYLINE
  5
132
100
AcDbEntity
  8
DIMENSIONS
 62
7
100
AcDbPolyline
 90
18
 70
1
 10
13.357863
 20
84.437104
 30
0.0
 10
13.315530
 20
84.479438
 30
0.0
 10
13.273196
 20
84.521771
 30
0.0
 10
13.230863
 20
84.521771
 30
0.0
 10
13.188530
 20
84.521771
 30
0.0
 10
13.146196
 20
84.521771
 30
0.0
 10
13.103863
 20
84.479438
 30
0.0
 10
13.103863
 20
84.437104
 30
0.0
 10
13.103863
 20
84.394771
 30
0.0
 10
13.103863
 20
77.155771
 30
0.0
 10
13.103863
 20
77.113438
 30
0.0
 10
13.146196
 20
77.071105
 30
0.0
 10
13.188530
 20
77.071105
 30
0.0
 10
13.230863
 20
77.071105
 30
0.0
 10
13.273196
 20
77.071105
 30
0.0
 10
13.315530
 20
77.113438
 30
0.0
 10
13.315530
 20
77.155771
 30
0.0
 10
13.357863
 20
77.198105
 30
0.0
  0
LWPOLYLINE
  5
133
100
AcDbEntity
  8
DIMENSIONS
 62
7
100
AcDbPolyline
 90
18
 70
1
 10
26.354196
 20
44.305105
 30
0.0
 10
26.396529
 20
44.305105
 30
0.0
 10
26.438863
 20
44.347439
 30
0.0
 10
26.438863
 20
44.389772
 30
0.0
 10
26.438863
 20
44.432105
 30
0.0
 10
26.438863
 20
44.474439
 30
0.0
 10
26.396529
 20
44.516772
 30
0.0
 10
26.354196
 20
44.516772
 30
0.0
 10
26.311863
 20
44.559105
 30
0.0
 10
12.130196
 20
44.559105
 30
0.0
 10
12.087863
 20
44.516772
 30
0.0
 10
12.045530
 20
44.474439
 30
0.0
 10
12.045530
 20
44.432105
 30
0.0
 10
12.045530
 20
44.389772
 30
0.0
 10
12.045530
 20
44.347439
 30
0.0
 10
12.087863
 20
44.305105
 30
0.0
 10
12.130196
 20
44.305105
 30
0.0
 10
12.172530
 20
44.305105
 30
0.0
  0
LWPOLYLINE
  5
134
100
AcDbEntity
  8
DIMENSIONS
 62
7
100
AcDbPolyline
 90
18
 70
1
 10
26.735196
 20
67.249772
 30
0.0
 10
26.777529
 20
67.249772
 30
0.0
 10
26.819863
 20
67.292105
 30
0.0
 10
26.819863
 20
67.334438
 30
0.0
 10
26.819863
 20
67.376772
 30
0.0
 10
26.819863
 20
67.419105
 30
0.0
 10
26.777529
 20
67.461438
 30
0.0
 10
26.735196
 20
67.461438
 30
0.0
 10
26.692863
 20
67.503772
 30
0.0
 10
12.130196
 20
67.503772
 30
0.0
 10
12.087863
 20
67.461438
 30
0.0
 10
12.045530
 20
67.419105
 30
0.0
 10
12.045530
 20
67.376772
 30
0.0
 10
12.045530
 20
67.334438
 30
0.0
 10
12.045530
 20
67.292105
 30
0.0
 10
12.087863
 20
67.249772
 30
0.0
 10
12.130196
 20
67.249772
 30
0.0
 10
12.172530
 20
67.249772
 30
0.0
  0
LWPOLYLINE
  5
135
100
AcDbEntity
  8
DIMENSIONS
 62
7
100
AcDbPolyline
 90
18
 70
1
 10
12.722863
 20
45.829105
 30
0.0
 10
12.722863
 20
45.786772
 30
0.0
 10
12.722863
 20
45.744439
 30
0.0
 10
12.765196
 20
45.702105
 30
0.0
 10
12.807530
 20
45.702105
 30
0.0
 10
12.849863
 20
45.702105
 30
0.0
 10
12.892196
 20
45.702105
 30
0.0
 10
12.934530
 20
45.744439
 30
0.0
 10
12.976863
 20
45.786772
 30
0.0
 10
12.976863
 20
65.937438
 30
0.0
 10
12.934530
 20
65.979772
 30
0.0
 10
12.934530
 20
66.022105
 30
0.0
 10
12.892196
 20
66.064438
 30
0.0
 10
12.849863
 20
66.064438
 30
0.0
 10
12.807530
 20
66.064438
 30
0.0
 10
12.765196
 20
66.064438
 30
0.0
 10
12.722863
 20
66.022105
 30
0.0
 10
12.722863
 20
65.979772
 30
0.0
  0
SPLINE
  5
136
100
AcDbEntity
  8
DIMENSIONS
 62
7
100
AcDbSpline
 70
8
 71
3
 72
8
 73
4
 74
0
 40
0
 40
0
 40
0
 40
0
 40
1
 40
1
 40
1
 40
1
 10
6.838530
 20
84.437104
 30
0.0
 10
6.838530
 20
84.437104
 30
0.0
 10
7.097793
 20
85.827162
 30
0.0
 10
6.626863
 20
85.834104
 30
0.0
  0
SPLINE
  5
137
100
AcDbEntity
  8
DIMENSIONS
 62
7
100
AcDbSpline
 70
8
 71
3
 72
8
 73
4
 74
0
 40
0
 40
0
 40
0
 40
0
 40
1
 40
1
 40
1
 40
1
 10
6.626863
 20
85.834104
 30
0.0
 10
6.153612
 20
85.841089
 30
0.0
 10
6.372863
 20
84.437104
 30
0.0
 10
6.372863
 20
84.437104
 30
0.0
  0
LWPOLYLINE
  5
138
100
AcDbEntity
  8
DIMENSIONS
 62
7
100
AcDbPolyline
 90
2
 70
0
 10
6.372863
 20
84.437104
 30
0.0
 10
6.838530
 20
84.437104
 30
0.0
  0
LWPOLYLINE
  5
139
100
AcDbEntity
  8
DIMENSIONS
 62
7
100
AcDbPolyline
 90
1
 70
1
 10
6.372863
 20
84.437104
 30
0.0
  0
LWPOLYLINE
  5
13a
100
AcDbEntity
  8
DIMENSIONS
 62
7
100
AcDbPolyline
 90
24
 70
1
 10
4.510197
 20
78.933771
 30
0.0
 10
4.679530
 20
78.764438
 30
0.0
 10
5.229863
 20
79.314771
 30
0.0
 10
5.145197
 20
79.399438
 30
0.0
 10
5.145197
 20
79.272438
 30
0.0
 10
5.695530
 20
79.272438
 30
0.0
 10
5.695530
 20
79.399438
 30
0.0
 10
5.610863
 20
79.314771
 30
0.0
 10
6.161197
 20
78.764438
 30
0.0
 10
6.245863
 20
78.849105
 30
0.0
 10
6.118863
 20
78.849105
 30
0.0
 10
6.118863
 20
77.748438
 30
0.0
 10
6.245863
 20
77.748438
 30
0.0
 10
6.161197
 20
77.833105
 30
0.0
 10
5.610863
 20
77.282771
 30
0.0
 10
5.780197
 20
77.113438
 30
0.0
 10
6.330530
 20
77.663771
 30
0.0
 10
6.372863
 20
77.748438
 30
0.0
 10
6.372863
 20
78.849105
 30
0.0
 10
6.330530
 20
78.933771
 30
0.0
 10
5.780197
 20
79.484105
 30
0.0
 10
5.695530
 20
79.526438
 30
0.0
 10
5.145197
 20
79.526438
 30
0.0
 10
5.060530
 20
79.484105
 30
0.0
  0
LWPOLYLINE
  5
13b
100
AcDbEntity
  8
DIMENSIONS
 62
7
100
AcDbPolyline
 90
4
 70
1
 10
42.059862
 20
54.549772
 30
0.0
 10
41.848196
 20
54.422772
 30
0.0
 10
56.961195
 20
34.272106
 30
0.0
 10
57.172862
 20
34.399106
 30
0.0
  0
LWPOLYLINE
  5
13c
100
AcDbEntity
  8
DIMENSIONS
 62
7
100
AcDbPolyline
 90
18
 70
1
 10
178.627193
 20
85.961104
 30
0.0
 10
178.584859
 20
85.918771
 30
0.0
 10
178.542526
 20
85.918771
 30
0.0
 10
178.500193
 20
85.876438
 30
0.0
 10
178.500193
 20
85.834104
 30
0.0
 10
178.500193
 20
85.791771
 30
0.0
 10
178.500193
 20
85.749438
 30
0.0
 10
178.542526
 20
85.707104
 30
0.0
 10
178.584859
 20
85.707104
 30
0.0
 10
202.968859
 20
85.707104
 30
0.0
 10
203.011192
 20
85.707104
 30
0.0
 10
203.053526
 20
85.707104
 30
0.0
 10
203.095859
 20
85.749438
 30
0.0
 10
203.095859
 20
85.791771
 30
0.0
 10
203.095859
 20
85.834104
 30
0.0
 10
203.095859
 20
85.876438
 30
0.0
 10
203.053526
 20
85.918771
 30
0.0
 10
203.011192
 20
85.961104
 30
0.0
  0
LWPOLYLINE
  5
13d
100
AcDbEntity
  8
DIMENSIONS
 62
7
100
AcDbPolyline
 90
18
 70
1
 10
178.627193
 20
24.408439
 30
0.0
 10
178.584859
 20
24.366106
 30
0.0
 10
178.542526
 20
24.366106
 30
0.0
 10
178.500193
 20
24.323772
 30
0.0
 10
178.500193
 20
24.281439
 30
0.0
 10
178.500193
 20
24.239106
 30
0.0
 10
178.500193
 20
24.196772
 30
0.0
 10
178.542526
 20
24.154439
 30
0.0
 10
178.584859
 20
24.154439
 30
0.0
 10
202.968859
 20
24.154439
 30
0.0
 10
203.011192
 20
24.154439
 30
0.0
 10
203.053526
 20
24.154439
 30
0.0
 10
203.095859
 20
24.196772
 30
0.0
 10
203.095859
 20
24.239106
 30
0.0
 10
203.095859
 20
24.281439
 30
0.0
 10
203.095859
 20
24.323772
 30
0.0
 10
203.053526
 20
24.366106
 30
0.0
 10
203.011192
 20
24.408439
 30
0.0
  0
LWPOLYLINE
  5
13e
100
AcDbEntity
  8
DIMENSIONS
 62
7
100
AcDbPolyline
 90
18
 70
1
 10
202.418526
 20
84.437104
 30
0.0
 10
202.376192
 20
84.479438
 30
0.0
 10
202.333859
 20
84.521771
 30
0.0
 10
202.291526
 20
84.521771
 30
0.0
 10
202.249192
 20
84.521771
 30
0.0
 10
202.206859
 20
84.521771
 30
0.0
 10
202.164526
 20
84.479438
 30
0.0
 10
202.164526
 20
84.437104
 30
0.0
 10
202.164526
 20
84.394771
 30
0.0
 10
202.164526
 20
25.636106
 30
0.0
 10
202.164526
 20
25.593772
 30
0.0
 10
202.206859
 20
25.551439
 30
0.0
 10
202.249192
 20
25.551439
 30
0.0
 10
202.291526
 20
25.551439
 30
0.0
 10
202.333859
 20
25.551439
 30
0.0
 10
202.376192
 20
25.593772
 30
0.0
 10
202.376192
 20
25.636106
 30
0.0
 10
202.418526
 20
25.678439
 30
0.0
  0
LWPOLYLINE
  5
13f
100
AcDbEntity
  8
DIMENSIONS
 62
7
100
AcDbPolyline
 90
24
 70
1
 10
40.366529
 20
15.772439
 30
0.0
 10
40.197196
 20
15.603106
 30
0.0
 10
40.747529
 20
15.052773
 30
0.0
 10
40.832196
 20
15.137439
 30
0.0
 10
40.705196
 20
15.137439
 30
0.0
 10
40.705196
 20
14.587106
 30
0.0
 10
40.832196
 20
14.587106
 30
0.0
 10
40.747529
 20
14.671773
 30
0.0
 10
40.197196
 20
14.121439
 30
0.0
 10
40.281862
 20
14.036773
 30
0.0
 10
40.281862
 20
14.163773
 30
0.0
 10
39.181196
 20
14.163773
 30
0.0
 10
39.181196
 20
14.036773
 30
0.0
 10
39.265862
 20
14.121439
 30
0.0
 10
38.673196
 20
14.671773
 30
0.0
 10
38.503862
 20
14.502439
 30
0.0
 10
39.096529
 20
13.952106
 30
0.0
 10
39.181196
 20
13.909773
 30
0.0
 10
40.281862
 20
13.909773
 30
0.0
 10
40.366529
 20
13.952106
 30
0.0
 10
40.916862
 20
14.502439
 30
0.0
 10
40.959196
 20
14.587106
 30
0.0
 10
40.959196
 20
15.137439
 30
0.0
 10
40.916862
 20
15.222106
 30
0.0
  0
LWPOLYLINE
  5
140
100
AcDbEntity
  8
DIMENSIONS
 62
7
100
AcDbPolyline
 90
18
 70
1
 10
49.383529
 20
13.317106
 30
0.0
 10
49.383529
 20
13.274773
 30
0.0
 10
49.383529
 20
13.232439
 30
0.0
 10
49.425862
 20
13.190106
 30
0.0
 10
49.468196
 20
13.190106
 30
0.0
 10
49.510529
 20
13.190106
 30
0.0
 10
49.552862
 20
13.190106
 30
0.0
 10
49.595196
 20
13.232439
 30
0.0
 10
49.637529
 20
13.274773
 30
0.0
 10
49.637529
 20
14.417773
 30
0.0
 10
49.595196
 20
14.460106
 30
0.0
 10
49.595196
 20
14.502439
 30
0.0
 10
49.552862
 20
14.544773
 30
0.0
 10
49.510529
 20
14.544773
 30
0.0
 10
49.468196
 20
14.544773
 30
0.0
 10
49.425862
 20
14.544773
 30
0.0
 10
49.383529
 20
14.502439
 30
0.0
 10
49.383529
 20
14.460106
 30
0.0
  0
LWPOLYLINE
  5
141
100
AcDbEntity
  8
DIMENSIONS
 62
7
100
AcDbPolyline
 90
18
 70
1
 10
72.031862
 20
29.530772
 30
0.0
 10
71.989528
 20
29.573106
 30
0.0
 10
71.947195
 20
29.615439
 30
0.0
 10
71.904862
 20
29.615439
 30
0.0
 10
71.862528
 20
29.615439
 30
0.0
 10
71.820195
 20
29.615439
 30
0.0
 10
71.777862
 20
29.573106
 30
0.0
 10
71.777862
 20
29.530772
 30
0.0
 10
71.777862
 20
29.488439
 30
0.0
 10
71.777862
 20
13.020773
 30
0.0
 10
71.777862
 20
12.978439
 30
0.0
 10
71.820195
 20
12.936106
 30
0.0
 10
71.862528
 20
12.936106
 30
0.0
 10
71.904862
 20
12.936106
 30
0.0
 10
71.947195
 20
12.936106
 30
0.0
 10
71.989528
 20
12.978439
 30
0.0
 10
71.989528
 20
13.020773
 30
0.0
 10
72.031862
 20
13.063106
 30
0.0
  0
LWPOLYLINE
  5
142
100
AcDbEntity
  8
DIMENSIONS
 62
7
100
AcDbPolyline
 90
18
 70
1
 10
50.907529
 20
13.867439
 30
0.0
 10
50.865196
 20
13.825106
 30
0.0
 10
50.822862
 20
13.825106
 30
0.0
 10
50.780529
 20
13.782773
 30
0.0
 10
50.780529
 20
13.740439
 30
0.0
 10
50.780529
 20
13.698106
 30
0.0
 10
50.780529
 20
13.655773
 30
0.0
 10
50.822862
 20
13.613439
 30
0.0
 10
50.865196
 20
13.613439
 30
0.0
 10
70.465528
 20
13.613439
 30
0.0
 10
70.507862
 20
13.613439
 30
0.0
 10
70.550195
 20
13.613439
 30
0.0
 10
70.592528
 20
13.655773
 30
0.0
 10
70.592528
 20
13.698106
 30
0.0
 10
70.592528
 20
13.740439
 30
0.0
 10
70.592528
 20
13.782773
 30
0.0
 10
70.550195
 20
13.825106
 30
0.0
 10
70.507862
 20
13.867439
 30
0.0
  0
LWPOLYLINE
  5
143
100
AcDbEntity
  8
DIMENSIONS
 62
7
100
AcDbPolyline
 90
4
 70
1
 10
49.637529
 20
85.834104
 30
0.0
 10
49.383529
 20
85.834104
 30
0.0
 10
49.383529
 20
1.040440
 30
0.0
 10
49.637529
 20
1.040440
 30
0.0
  0
LWPOLYLINE
  5
144
100
AcDbEntity
  8
DIMENSIONS
 62
7
100
AcDbPolyline
 90
9
 70
1
 10
186.797526
 20
57.089772
 30
0.0
 10
186.543526
 20
57.089772
 30
0.0
 10
186.543526
 20
53.703105
 30
0.0
 10
186.670526
 20
53.576105
 30
0.0
 10
188.914192
 20
53.576105
 30
0.0
 10
188.914192
 20
53.830105
 30
0.0
 10
186.670526
 20
53.830105
 30
0.0
 10
186.670526
 20
53.703105
 30
0.0
 10
186.797526
 20
53.703105
 30
0.0
  0
LWPOLYLINE
  5
145
100
AcDbEntity
  8
DIMENSIONS
 62
7
100
AcDbPolyline
 90
18
 70
1
 10
26.184863
 20
58.867772
 30
0.0
 10
26.227196
 20
58.867772
 30
0.0
 10
26.269529
 20
58.910105
 30
0.0
 10
26.269529
 20
58.952438
 30
0.0
 10
26.269529
 20
58.994772
 30
0.0
 10
26.269529
 20
59.037105
 30
0.0
 10
26.227196
 20
59.079438
 30
0.0
 10
26.184863
 20
59.079438
 30
0.0
 10
26.142529
 20
59.121772
 30
0.0
 10
16.913863
 20
59.121772
 30
0.0
 10
16.871530
 20
59.079438
 30
0.0
 10
16.829196
 20
59.037105
 30
0.0
 10
16.829196
 20
58.994772
 30
0.0
 10
16.829196
 20
58.952438
 30
0.0
 10
16.829196
 20
58.910105
 30
0.0
 10
16.871530
 20
58.867772
 30
0.0
 10
16.913863
 20
58.867772
 30
0.0
 10
16.956196
 20
58.867772
 30
0.0
  0
LWPOLYLINE
  5
146
100
AcDbEntity
  8
DIMENSIONS
 62
7
100
AcDbPolyline
 90
18
 70
1
 10
26.184863
 20
54.380438
 30
0.0
 10
26.227196
 20
54.380438
 30
0.0
 10
26.269529
 20
54.422772
 30
0.0
 10
26.269529
 20
54.465105
 30
0.0
 10
26.269529
 20
54.507438
 30
0.0
 10
26.269529
 20
54.549772
 30
0.0
 10
26.227196
 20
54.592105
 30
0.0
 10
26.184863
 20
54.592105
 30
0.0
 10
26.142529
 20
54.634438
 30
0.0
 10
16.913863
 20
54.634438
 30
0.0
 10
16.871530
 20
54.592105
 30
0.0
 10
16.829196
 20
54.549772
 30
0.0
 10
16.829196
 20
54.507438
 30
0.0
 10
16.829196
 20
54.465105
 30
0.0
 10
16.829196
 20
54.422772
 30
0.0
 10
16.871530
 20
54.380438
 30
0.0
 10
16.913863
 20
54.380438
 30
0.0
 10
16.956196
 20
54.380438
 30
0.0
  0
LWPOLYLINE
  5
147
100
AcDbEntity
  8
DIMENSIONS
 62
7
100
AcDbPolyline
 90
18
 70
1
 10
17.802863
 20
57.597772
 30
0.0
 10
17.760530
 20
57.640105
 30
0.0
 10
17.718196
 20
57.682438
 30
0.0
 10
17.675863
 20
57.682438
 30
0.0
 10
17.633530
 20
57.682438
 30
0.0
 10
17.591196
 20
57.682438
 30
0.0
 10
17.548863
 20
57.640105
 30
0.0
 10
17.548863
 20
57.597772
 30
0.0
 10
17.548863
 20
57.555438
 30
0.0
 10
17.548863
 20
55.862105
 30
0.0
 10
17.548863
 20
55.819772
 30
0.0
 10
17.591196
 20
55.777438
 30
0.0
 10
17.633530
 20
55.777438
 30
0.0
 10
17.675863
 20
55.777438
 30
0.0
 10
17.718196
 20
55.777438
 30
0.0
 10
17.760530
 20
55.819772
 30
0.0
 10
17.760530
 20
55.862105
 30
0.0
 10
17.802863
 20
55.904438
 30
0.0
  0
LWPOLYLINE
  5
148
100
AcDbEntity
  8
DIMENSIONS
 62
7
100
AcDbPolyline
 90
3
 70
1
 10
17.421863
 20
55.904438
 30
0.0
 10
17.887530
 20
55.904438
 30
0.0
 10
17.675863
 20
54.507438
 30
0.0
  0
LWPOLYLINE
  5
149
100
AcDbEntity
  8
DIMENSIONS
 62
7
100
AcDbPolyline
 90
54
 70
1
 10
17.379530
 20
56.116105
 30
0.0
 10
17.210196
 20
56.285438
 30
0.0
 10
16.659863
 20
55.735105
 30
0.0
 10
16.744530
 20
55.650438
 30
0.0
 10
16.744530
 20
55.777438
 30
0.0
 10
16.194196
 20
55.777438
 30
0.0
 10
16.194196
 20
55.650438
 30
0.0
 10
16.278863
 20
55.735105
 30
0.0
 10
15.728530
 20
56.285438
 30
0.0
 10
15.643863
 20
56.200772
 30
0.0
 10
15.770863
 20
56.200772
 30
0.0
 10
15.770863
 20
57.301438
 30
0.0
 10
15.728530
 20
57.386105
 30
0.0
 10
15.135863
 20
57.936438
 30
0.0
 10
15.051196
 20
57.978772
 30
0.0
 10
14.500863
 20
57.978772
 30
0.0
 10
14.416196
 20
57.936438
 30
0.0
 10
13.865863
 20
57.386105
 30
0.0
 10
13.823530
 20
57.301438
 30
0.0
 10
13.823530
 20
56.200772
 30
0.0
 10
13.865863
 20
56.116105
 30
0.0
 10
14.416196
 20
55.565772
 30
0.0
 10
14.500863
 20
55.523438
 30
0.0
 10
15.051196
 20
55.523438
 30
0.0
 10
15.135863
 20
55.565772
 30
0.0
 10
15.728530
 20
56.116105
 30
0.0
 10
15.559196
 20
56.285438
 30
0.0
 10
14.966530
 20
55.735105
 30
0.0
 10
15.051196
 20
55.650438
 30
0.0
 10
15.051196
 20
55.777438
 30
0.0
 10
14.500863
 20
55.777438
 30
0.0
 10
14.500863
 20
55.650438
 30
0.0
 10
14.585530
 20
55.735105
 30
0.0
 10
14.035196
 20
56.285438
 30
0.0
 10
13.950530
 20
56.200772
 30
0.0
 10
14.077530
 20
56.200772
 30
0.0
 10
14.077530
 20
57.301438
 30
0.0
 10
13.950530
 20
57.301438
 30
0.0
 10
14.035196
 20
57.216772
 30
0.0
 10
14.585530
 20
57.767105
 30
0.0
 10
14.500863
 20
57.851772
 30
0.0
 10
14.500863
 20
57.724772
 30
0.0
 10
15.051196
 20
57.724772
 30
0.0
 10
15.051196
 20
57.851772
 30
0.0
 10
14.966530
 20
57.767105
 30
0.0
 10
15.559196
 20
57.216772
 30
0.0
 10
15.643863
 20
57.301438
 30
0.0
 10
15.516863
 20
57.301438
 30
0.0
 10
15.516863
 20
56.200772
 30
0.0
 10
15.559196
 20
56.116105
 30
0.0
 10
16.109530
 20
55.565772
 30
0.0
 10
16.194196
 20
55.523438
 30
0.0
 10
16.744530
 20
55.523438
 30
0.0
 10
16.829196
 20
55.565772
 30
0.0
  0
LWPOLYLINE
  5
14a
100
AcDbEntity
  8
DIMENSIONS
 62
7
100
AcDbPolyline
 90
14
 70
1
 10
11.537530
 20
55.904438
 30
0.0
 10
11.283530
 20
55.904438
 30
0.0
 10
11.283530
 20
53.660772
 30
0.0
 10
11.410530
 20
53.660772
 30
0.0
 10
11.452863
 20
53.745438
 30
0.0
 10
9.209196
 20
55.438772
 30
0.0
 10
9.166863
 20
55.354105
 30
0.0
 10
9.166863
 20
55.227105
 30
0.0
 10
12.511196
 20
55.227105
 30
0.0
 10
12.511196
 20
55.481105
 30
0.0
 10
9.166863
 20
55.481105
 30
0.0
 10
9.082196
 20
55.227105
 30
0.0
 10
11.325863
 20
53.533772
 30
0.0
 10
11.537530
 20
53.660772
 30
0.0
  0
LWPOLYLINE
  5
14b
100
AcDbEntity
  8
DIMENSIONS
 62
7
100
AcDbPolyline
 90
9
 70
1
 10
9.632530
 20
56.962772
 30
0.0
 10
9.801863
 20
57.132105
 30
0.0
 10
9.251530
 20
57.682438
 30
0.0
 10
9.166863
 20
57.597772
 30
0.0
 10
9.166863
 20
57.470772
 30
0.0
 10
12.511196
 20
57.470772
 30
0.0
 10
12.511196
 20
57.724772
 30
0.0
 10
9.166863
 20
57.724772
 30
0.0
 10
9.082196
 20
57.513105
 30
0.0
  0
LWPOLYLINE
  5
14c
100
AcDbEntity
  8
DIMENSIONS
 62
7
100
AcDbPolyline
 90
9
 70
1
 10
56.961195
 20
34.356772
 30
0.0
 10
57.215195
 20
34.356772
 30
0.0
 10
57.215195
 20
54.507438
 30
0.0
 10
57.088195
 20
54.634438
 30
0.0
 10
41.975196
 20
54.634438
 30
0.0
 10
41.975196
 20
54.380438
 30
0.0
 10
57.088195
 20
54.380438
 30
0.0
 10
57.088195
 20
54.507438
 30
0.0
 10
56.961195
 20
54.507438
 30
0.0
  0
LWPOLYLINE
  5
14d
100
AcDbEntity
  8
DIMENSIONS
 62
7
100
AcDbPolyline
 90
18
 70
1
 10
31.053196
 20
34.229772
 30
0.0
 10
31.095529
 20
34.229772
 30
0.0
 10
31.137863
 20
34.272106
 30
0.0
 10
31.137863
 20
34.314439
 30
0.0
 10
31.137863
 20
34.356772
 30
0.0
 10
31.137863
 20
34.399106
 30
0.0
 10
31.095529
 20
34.441439
 30
0.0
 10
31.053196
 20
34.441439
 30
0.0
 10
31.010863
 20
34.483772
 30
0.0
 10
28.301529
 20
34.483772
 30
0.0
 10
28.259196
 20
34.441439
 30
0.0
 10
28.216863
 20
34.399106
 30
0.0
 10
28.216863
 20
34.356772
 30
0.0
 10
28.216863
 20
34.314439
 30
0.0
 10
28.216863
 20
34.272106
 30
0.0
 10
28.259196
 20
34.229772
 30
0.0
 10
28.301529
 20
34.229772
 30
0.0
 10
28.343863
 20
34.229772
 30
0.0
  0
LWPOLYLINE
  5
14e
100
AcDbEntity
  8
DIMENSIONS
 62
7
100
AcDbPolyline
 90
18
 70
1
 10
31.349529
 20
54.380438
 30
0.0
 10
31.391863
 20
54.380438
 30
0.0
 10
31.434196
 20
54.422772
 30
0.0
 10
31.434196
 20
54.465105
 30
0.0
 10
31.434196
 20
54.507438
 30
0.0
 10
31.434196
 20
54.549772
 30
0.0
 10
31.391863
 20
54.592105
 30
0.0
 10
31.349529
 20
54.592105
 30
0.0
 10
31.307196
 20
54.634438
 30
0.0
 10
28.301529
 20
54.634438
 30
0.0
 10
28.259196
 20
54.592105
 30
0.0
 10
28.216863
 20
54.549772
 30
0.0
 10
28.216863
 20
54.507438
 30
0.0
 10
28.216863
 20
54.465105
 30
0.0
 10
28.216863
 20
54.422772
 30
0.0
 10
28.259196
 20
54.380438
 30
0.0
 10
28.301529
 20
54.380438
 30
0.0
 10
28.343863
 20
54.380438
 30
0.0
  0
LWPOLYLINE
  5
14f
100
AcDbEntity
  8
DIMENSIONS
 62
7
100
AcDbPolyline
 90
18
 70
1
 10
28.936529
 20
35.753772
 30
0.0
 10
28.936529
 20
35.711439
 30
0.0
 10
28.936529
 20
35.669106
 30
0.0
 10
28.978863
 20
35.626772
 30
0.0
 10
29.021196
 20
35.626772
 30
0.0
 10
29.063529
 20
35.626772
 30
0.0
 10
29.105863
 20
35.626772
 30
0.0
 10
29.148196
 20
35.669106
 30
0.0
 10
29.190529
 20
35.711439
 30
0.0
 10
29.190529
 20
53.068105
 30
0.0
 10
29.148196
 20
53.110438
 30
0.0
 10
29.148196
 20
53.152772
 30
0.0
 10
29.105863
 20
53.195105
 30
0.0
 10
29.063529
 20
53.195105
 30
0.0
 10
29.021196
 20
53.195105
 30
0.0
 10
28.978863
 20
53.195105
 30
0.0
 10
28.936529
 20
53.152772
 30
0.0
 10
28.936529
 20
53.110438
 30
0.0
  0
LWPOLYLINE
  5
150
100
AcDbEntity
  8
DIMENSIONS
 62
7
100
AcDbPolyline
 90
44
 70
1
 10
26.904529
 20
44.982439
 30
0.0
 10
27.158529
 20
44.982439
 30
0.0
 10
27.158529
 20
46.675772
 30
0.0
 10
27.031529
 20
46.675772
 30
0.0
 10
27.116196
 20
46.591105
 30
0.0
 10
27.666529
 20
47.141439
 30
0.0
 10
27.581863
 20
47.226105
 30
0.0
 10
27.581863
 20
47.099105
 30
0.0
 10
28.132196
 20
47.099105
 30
0.0
 10
28.132196
 20
47.226105
 30
0.0
 10
28.047529
 20
47.141439
 30
0.0
 10
28.597863
 20
46.591105
 30
0.0
 10
28.682529
 20
46.675772
 30
0.0
 10
28.555529
 20
46.675772
 30
0.0
 10
28.555529
 20
45.575105
 30
0.0
 10
28.682529
 20
45.575105
 30
0.0
 10
28.597863
 20
45.659772
 30
0.0
 10
28.047529
 20
45.067105
 30
0.0
 10
28.132196
 20
44.982439
 30
0.0
 10
28.132196
 20
45.109439
 30
0.0
 10
26.481196
 20
45.109439
 30
0.0
 10
26.481196
 20
44.982439
 30
0.0
 10
26.565863
 20
45.067105
 30
0.0
 10
25.422863
 20
46.210105
 30
0.0
 10
25.338196
 20
46.125439
 30
0.0
 10
25.465196
 20
46.125439
 30
0.0
 10
25.465196
 20
46.675772
 30
0.0
 10
25.211196
 20
46.675772
 30
0.0
 10
25.211196
 20
46.125439
 30
0.0
 10
25.253529
 20
46.040772
 30
0.0
 10
26.396529
 20
44.897772
 30
0.0
 10
26.481196
 20
44.855439
 30
0.0
 10
28.132196
 20
44.855439
 30
0.0
 10
28.216863
 20
44.897772
 30
0.0
 10
28.767196
 20
45.490439
 30
0.0
 10
28.809529
 20
45.575105
 30
0.0
 10
28.809529
 20
46.675772
 30
0.0
 10
28.767196
 20
46.760439
 30
0.0
 10
28.216863
 20
47.310772
 30
0.0
 10
28.132196
 20
47.353105
 30
0.0
 10
27.581863
 20
47.353105
 30
0.0
 10
27.497196
 20
47.310772
 30
0.0
 10
26.946863
 20
46.760439
 30
0.0
 10
26.904529
 20
46.675772
 30
0.0
  0
LWPOLYLINE
  5
151
100
AcDbEntity
  8
DIMENSIONS
 62
7
100
AcDbPolyline
 90
18
 70
1
 10
44.049529
 20
51.078439
 30
0.0
 10
44.091862
 20
51.120772
 30
0.0
 10
44.091862
 20
51.163105
 30
0.0
 10
44.091862
 20
51.205439
 30
0.0
 10
44.091862
 20
51.247772
 30
0.0
 10
44.049529
 20
51.290105
 30
0.0
 10
44.007196
 20
51.290105
 30
0.0
 10
43.964862
 20
51.290105
 30
0.0
 10
43.922529
 20
51.290105
 30
0.0
 10
18.988196
 20
32.578772
 30
0.0
 10
18.945863
 20
32.536439
 30
0.0
 10
18.945863
 20
32.494106
 30
0.0
 10
18.945863
 20
32.451772
 30
0.0
 10
18.945863
 20
32.409439
 30
0.0
 10
18.988196
 20
32.367106
 30
0.0
 10
19.030530
 20
32.367106
 30
0.0
 10
19.072863
 20
32.367106
 30
0.0
 10
19.115196
 20
32.367106
 30
0.0
  0
LWPOLYLINE
  5
152
100
AcDbEntity
  8
DIMENSIONS
 62
7
100
AcDbPolyline
 90
18
 70
1
 10
54.505862
 20
37.108439
 30
0.0
 10
54.548195
 20
37.150772
 30
0.0
 10
54.548195
 20
37.193106
 30
0.0
 10
54.548195
 20
37.235439
 30
0.0
 10
54.548195
 20
37.277772
 30
0.0
 10
54.505862
 20
37.320105
 30
0.0
 10
54.463529
 20
37.320105
 30
0.0
 10
54.421195
 20
37.320105
 30
0.0
 10
54.378862
 20
37.320105
 30
0.0
 10
29.444529
 20
18.651106
 30
0.0
 10
29.402196
 20
18.608773
 30
0.0
 10
29.402196
 20
18.566439
 30
0.0
 10
29.402196
 20
18.524106
 30
0.0
 10
29.402196
 20
18.481773
 30
0.0
 10
29.444529
 20
18.439439
 30
0.0
 10
29.486863
 20
18.439439
 30
0.0
 10
29.529196
 20
18.439439
 30
0.0
 10
29.571529
 20
18.439439
 30
0.0
  0
LWPOLYLINE
  5
153
100
AcDbEntity
  8
DIMENSIONS
 62
7
100
AcDbPolyline
 90
18
 70
1
 10
20.554530
 20
31.859106
 30
0.0
 10
20.512196
 20
31.901439
 30
0.0
 10
20.469863
 20
31.901439
 30
0.0
 10
20.427530
 20
31.901439
 30
0.0
 10
20.385196
 20
31.901439
 30
0.0
 10
20.342863
 20
31.859106
 30
0.0
 10
20.342863
 20
31.816772
 30
0.0
 10
20.342863
 20
31.774439
 30
0.0
 10
20.342863
 20
31.732106
 30
0.0
 10
29.148196
 20
20.005773
 30
0.0
 10
29.190529
 20
19.963439
 30
0.0
 10
29.232863
 20
19.963439
 30
0.0
 10
29.275196
 20
19.963439
 30
0.0
 10
29.317529
 20
19.963439
 30
0.0
 10
29.359863
 20
20.005773
 30
0.0
 10
29.359863
 20
20.048106
 30
0.0
 10
29.359863
 20
20.090439
 30
0.0
 10
29.359863
 20
20.132773
 30
0.0
  0
LWPOLYLINE
  5
154
100
AcDbEntity
  8
DIMENSIONS
 62
7
100
AcDbPolyline
 90
19
 70
1
 10
15.559196
 20
57.386105
 30
0.0
 10
15.728530
 20
57.216772
 30
0.0
 10
16.278863
 20
57.767105
 30
0.0
 10
16.194196
 20
57.851772
 30
0.0
 10
16.194196
 20
57.724772
 30
0.0
 10
16.744530
 20
57.724772
 30
0.0
 10
16.744530
 20
57.851772
 30
0.0
 10
16.659863
 20
57.767105
 30
0.0
 10
17.210196
 20
57.216772
 30
0.0
 10
17.294863
 20
57.301438
 30
0.0
 10
17.167863
 20
57.301438
 30
0.0
 10
17.167863
 20
56.200772
 30
0.0
 10
17.421863
 20
56.200772
 30
0.0
 10
17.421863
 20
57.301438
 30
0.0
 10
17.379530
 20
57.386105
 30
0.0
 10
16.829196
 20
57.936438
 30
0.0
 10
16.744530
 20
57.978772
 30
0.0
 10
16.194196
 20
57.978772
 30
0.0
 10
16.109530
 20
57.936438
 30
0.0
  0
LWPOLYLINE
  5
155
100
AcDbEntity
  8
DIMENSIONS
 62
7
100
AcDbPolyline
 90
18
 70
1
 10
26.184863
 20
34.229772
 30
0.0
 10
26.227196
 20
34.229772
 30
0.0
 10
26.269529
 20
34.272106
 30
0.0
 10
26.269529
 20
34.314439
 30
0.0
 10
26.269529
 20
34.356772
 30
0.0
 10
26.269529
 20
34.399106
 30
0.0
 10
26.227196
 20
34.441439
 30
0.0
 10
26.184863
 20
34.441439
 30
0.0
 10
26.142529
 20
34.483772
 30
0.0
 10
16.913863
 20
34.483772
 30
0.0
 10
16.871530
 20
34.441439
 30
0.0
 10
16.829196
 20
34.399106
 30
0.0
 10
16.829196
 20
34.356772
 30
0.0
 10
16.829196
 20
34.314439
 30
0.0
 10
16.829196
 20
34.272106
 30
0.0
 10
16.871530
 20
34.229772
 30
0.0
 10
16.913863
 20
34.229772
 30
0.0
 10
16.956196
 20
34.229772
 30
0.0
  0
LWPOLYLINE
  5
156
100
AcDbEntity
  8
DIMENSIONS
 62
7
100
AcDbPolyline
 90
18
 70
1
 10
26.184863
 20
31.986106
 30
0.0
 10
26.227196
 20
31.986106
 30
0.0
 10
26.269529
 20
32.028439
 30
0.0
 10
26.269529
 20
32.070772
 30
0.0
 10
26.269529
 20
32.113106
 30
0.0
 10
26.269529
 20
32.155439
 30
0.0
 10
26.227196
 20
32.197772
 30
0.0
 10
26.184863
 20
32.197772
 30
0.0
 10
26.142529
 20
32.240106
 30
0.0
 10
16.913863
 20
32.240106
 30
0.0
 10
16.871530
 20
32.197772
 30
0.0
 10
16.829196
 20
32.155439
 30
0.0
 10
16.829196
 20
32.113106
 30
0.0
 10
16.829196
 20
32.070772
 30
0.0
 10
16.829196
 20
32.028439
 30
0.0
 10
16.871530
 20
31.986106
 30
0.0
 10
16.913863
 20
31.986106
 30
0.0
 10
16.956196
 20
31.986106
 30
0.0
  0
LWPOLYLINE
  5
157
100
AcDbEntity
  8
DIMENSIONS
 62
7
100
AcDbPolyline
 90
18
 70
1
 10
17.548863
 20
35.753772
 30
0.0
 10
17.548863
 20
35.711439
 30
0.0
 10
17.548863
 20
35.669106
 30
0.0
 10
17.591196
 20
35.626772
 30
0.0
 10
17.633530
 20
35.626772
 30
0.0
 10
17.675863
 20
35.626772
 30
0.0
 10
17.718196
 20
35.626772
 30
0.0
 10
17.760530
 20
35.669106
 30
0.0
 10
17.802863
 20
35.711439
 30
0.0
 10
17.802863
 20
37.108439
 30
0.0
 10
17.760530
 20
37.150772
 30
0.0
 10
17.760530
 20
37.193106
 30
0.0
 10
17.718196
 20
37.235439
 30
0.0
 10
17.675863
 20
37.235439
 30
0.0
 10
17.633530
 20
37.235439
 30
0.0
 10
17.591196
 20
37.235439
 30
0.0
 10
17.548863
 20
37.193106
 30
0.0
 10
17.548863
 20
37.150772
 30
0.0
  0
LWPOLYLINE
  5
158
100
AcDbEntity
  8
DIMENSIONS
 62
7
100
AcDbPolyline
 90
18
 70
1
 10
17.802863
 20
30.716106
 30
0.0
 10
17.760530
 20
30.758439
 30
0.0
 10
17.718196
 20
30.800772
 30
0.0
 10
17.675863
 20
30.800772
 30
0.0
 10
17.633530
 20
30.800772
 30
0.0
 10
17.591196
 20
30.800772
 30
0.0
 10
17.548863
 20
30.758439
 30
0.0
 10
17.548863
 20
30.716106
 30
0.0
 10
17.548863
 20
30.673772
 30
0.0
 10
17.548863
 20
26.355772
 30
0.0
 10
17.548863
 20
26.313439
 30
0.0
 10
17.591196
 20
26.271106
 30
0.0
 10
17.633530
 20
26.271106
 30
0.0
 10
17.675863
 20
26.271106
 30
0.0
 10
17.718196
 20
26.271106
 30
0.0
 10
17.760530
 20
26.313439
 30
0.0
 10
17.760530
 20
26.355772
 30
0.0
 10
17.802863
 20
26.398106
 30
0.0
  0
LWPOLYLINE
  5
159
100
AcDbEntity
  8
DIMENSIONS
 62
7
100
AcDbPolyline
 90
18
 70
1
 10
17.802863
 20
34.356772
 30
0.0
 10
17.760530
 20
34.399106
 30
0.0
 10
17.718196
 20
34.441439
 30
0.0
 10
17.675863
 20
34.441439
 30
0.0
 10
17.633530
 20
34.441439
 30
0.0
 10
17.591196
 20
34.441439
 30
0.0
 10
17.548863
 20
34.399106
 30
0.0
 10
17.548863
 20
34.356772
 30
0.0
 10
17.548863
 20
34.314439
 30
0.0
 10
17.548863
 20
32.070772
 30
0.0
 10
17.548863
 20
32.028439
 30
0.0
 10
17.591196
 20
31.986106
 30
0.0
 10
17.633530
 20
31.986106
 30
0.0
 10
17.675863
 20
31.986106
 30
0.0
 10
17.718196
 20
31.986106
 30
0.0
 10
17.760530
 20
32.028439
 30
0.0
 10
17.760530
 20
32.070772
 30
0.0
 10
17.802863
 20
32.113106
 30
0.0
  0
LWPOLYLINE
  5
15a
100
AcDbEntity
  8
DIMENSIONS
 62
7
100
AcDbPolyline
 90
3
 70
1
 10
17.421863
 20
35.753772
 30
0.0
 10
17.887530
 20
35.753772
 30
0.0
 10
17.675863
 20
34.356772
 30
0.0
  0
LWPOLYLINE
  5
15b
100
AcDbEntity
  8
DIMENSIONS
 62
7
100
AcDbPolyline
 90
3
 70
1
 10
17.421863
 20
30.716106
 30
0.0
 10
17.887530
 20
30.716106
 30
0.0
 10
17.675863
 20
32.113106
 30
0.0
  0
LWPOLYLINE
  5
15c
100
AcDbEntity
  8
DIMENSIONS
 62
7
100
AcDbPolyline
 90
14
 70
1
 10
16.321196
 20
28.980439
 30
0.0
 10
16.067196
 20
28.980439
 30
0.0
 10
16.067196
 20
26.736772
 30
0.0
 10
16.194196
 20
26.736772
 30
0.0
 10
16.236530
 20
26.821439
 30
0.0
 10
13.992863
 20
28.514772
 30
0.0
 10
13.950530
 20
28.430106
 30
0.0
 10
13.950530
 20
28.303106
 30
0.0
 10
17.294863
 20
28.303106
 30
0.0
 10
17.294863
 20
28.557106
 30
0.0
 10
13.950530
 20
28.557106
 30
0.0
 10
13.865863
 20
28.303106
 30
0.0
 10
16.109530
 20
26.609772
 30
0.0
 10
16.321196
 20
26.736772
 30
0.0
  0
LWPOLYLINE
  5
15d
100
AcDbEntity
  8
DIMENSIONS
 62
7
100
AcDbPolyline
 90
9
 70
1
 10
50.103196
 20
44.559105
 30
0.0
 10
50.103196
 20
44.305105
 30
0.0
 10
57.088195
 20
44.305105
 30
0.0
 10
57.088195
 20
44.559105
 30
0.0
 10
26.735196
 20
44.559105
 30
0.0
 10
26.735196
 20
44.305105
 30
0.0
 10
57.088195
 20
44.305105
 30
0.0
 10
57.088195
 20
44.432105
 30
0.0
 10
57.088195
 20
44.559105
 30
0.0
  0
LWPOLYLINE
  5
15e
100
AcDbEntity
  8
DIMENSIONS
 62
7
100
AcDbPolyline
 90
18
 70
1
 10
32.365529
 20
24.154439
 30
0.0
 10
32.407863
 20
24.154439
 30
0.0
 10
32.450196
 20
24.196772
 30
0.0
 10
32.450196
 20
24.239106
 30
0.0
 10
32.450196
 20
24.281439
 30
0.0
 10
32.450196
 20
24.323772
 30
0.0
 10
32.407863
 20
24.366106
 30
0.0
 10
32.365529
 20
24.366106
 30
0.0
 10
32.323196
 20
24.408439
 30
0.0
 10
12.468863
 20
24.408439
 30
0.0
 10
12.426530
 20
24.366106
 30
0.0
 10
12.384196
 20
24.323772
 30
0.0
 10
12.384196
 20
24.281439
 30
0.0
 10
12.384196
 20
24.239106
 30
0.0
 10
12.384196
 20
24.196772
 30
0.0
 10
12.426530
 20
24.154439
 30
0.0
 10
12.468863
 20
24.154439
 30
0.0
 10
12.511196
 20
24.154439
 30
0.0
  0
LWPOLYLINE
  5
15f
100
AcDbEntity
  8
DIMENSIONS
 62
7
100
AcDbPolyline
 90
18
 70
1
 10
25.846196
 20
34.229772
 30
0.0
 10
25.888529
 20
34.229772
 30
0.0
 10
25.930863
 20
34.272106
 30
0.0
 10
25.930863
 20
34.314439
 30
0.0
 10
25.930863
 20
34.356772
 30
0.0
 10
25.930863
 20
34.399106
 30
0.0
 10
25.888529
 20
34.441439
 30
0.0
 10
25.846196
 20
34.441439
 30
0.0
 10
25.803863
 20
34.483772
 30
0.0
 10
12.468863
 20
34.483772
 30
0.0
 10
12.426530
 20
34.441439
 30
0.0
 10
12.384196
 20
34.399106
 30
0.0
 10
12.384196
 20
34.356772
 30
0.0
 10
12.384196
 20
34.314439
 30
0.0
 10
12.384196
 20
34.272106
 30
0.0
 10
12.426530
 20
34.229772
 30
0.0
 10
12.468863
 20
34.229772
 30
0.0
 10
12.511196
 20
34.229772
 30
0.0
  0
LWPOLYLINE
  5
160
100
AcDbEntity
  8
DIMENSIONS
 62
7
100
AcDbPolyline
 90
18
 70
1
 10
13.103863
 20
25.678439
 30
0.0
 10
13.103863
 20
25.636106
 30
0.0
 10
13.103863
 20
25.593772
 30
0.0
 10
13.146196
 20
25.551439
 30
0.0
 10
13.188530
 20
25.551439
 30
0.0
 10
13.230863
 20
25.551439
 30
0.0
 10
13.273196
 20
25.551439
 30
0.0
 10
13.315530
 20
25.593772
 30
0.0
 10
13.357863
 20
25.636106
 30
0.0
 10
13.357863
 20
32.917439
 30
0.0
 10
13.315530
 20
32.959772
 30
0.0
 10
13.315530
 20
33.002106
 30
0.0
 10
13.273196
 20
33.044439
 30
0.0
 10
13.230863
 20
33.044439
 30
0.0
 10
13.188530
 20
33.044439
 30
0.0
 10
13.146196
 20
33.044439
 30
0.0
 10
13.103863
 20
33.002106
 30
0.0
 10
13.103863
 20
32.959772
 30
0.0
  0
LWPOLYLINE
  5
161
100
AcDbEntity
  8
DIMENSIONS
 62
7
100
AcDbPolyline
 90
9
 70
1
 10
9.971196
 20
26.990772
 30
0.0
 10
10.140530
 20
27.160106
 30
0.0
 10
9.590196
 20
27.752772
 30
0.0
 10
9.505530
 20
27.668106
 30
0.0
 10
9.505530
 20
27.541106
 30
0.0
 10
12.892196
 20
27.541106
 30
0.0
 10
12.892196
 20
27.795106
 30
0.0
 10
9.505530
 20
27.795106
 30
0.0
 10
9.420863
 20
27.583439
 30
0.0
  0
LWPOLYLINE
  5
162
100
AcDbEntity
  8
DIMENSIONS
 62
7
100
AcDbPolyline
 90
54
 70
1
 10
12.976863
 20
29.784772
 30
0.0
 10
12.807530
 20
29.954106
 30
0.0
 10
12.214863
 20
29.403772
 30
0.0
 10
12.299530
 20
29.319106
 30
0.0
 10
12.299530
 20
29.446106
 30
0.0
 10
11.749196
 20
29.446106
 30
0.0
 10
11.749196
 20
29.319106
 30
0.0
 10
11.833863
 20
29.403772
 30
0.0
 10
11.283530
 20
29.954106
 30
0.0
 10
11.198863
 20
29.869439
 30
0.0
 10
11.325863
 20
29.869439
 30
0.0
 10
11.325863
 20
31.012439
 30
0.0
 10
11.283530
 20
31.097106
 30
0.0
 10
10.733196
 20
31.647439
 30
0.0
 10
10.648530
 20
31.689772
 30
0.0
 10
10.055863
 20
31.689772
 30
0.0
 10
9.971196
 20
31.647439
 30
0.0
 10
9.420863
 20
31.097106
 30
0.0
 10
9.378530
 20
31.012439
 30
0.0
 10
9.378530
 20
29.869439
 30
0.0
 10
9.420863
 20
29.784772
 30
0.0
 10
9.971196
 20
29.234439
 30
0.0
 10
10.055863
 20
29.192106
 30
0.0
 10
10.648530
 20
29.192106
 30
0.0
 10
10.733196
 20
29.234439
 30
0.0
 10
11.283530
 20
29.784772
 30
0.0
 10
11.114196
 20
29.954106
 30
0.0
 10
10.563863
 20
29.403772
 30
0.0
 10
10.648530
 20
29.319106
 30
0.0
 10
10.648530
 20
29.446106
 30
0.0
 10
10.055863
 20
29.446106
 30
0.0
 10
10.055863
 20
29.319106
 30
0.0
 10
10.140530
 20
29.403772
 30
0.0
 10
9.590196
 20
29.954106
 30
0.0
 10
9.505530
 20
29.869439
 30
0.0
 10
9.632530
 20
29.869439
 30
0.0
 10
9.632530
 20
31.012439
 30
0.0
 10
9.505530
 20
31.012439
 30
0.0
 10
9.590196
 20
30.927772
 30
0.0
 10
10.140530
 20
31.478106
 30
0.0
 10
10.055863
 20
31.562772
 30
0.0
 10
10.055863
 20
31.435772
 30
0.0
 10
10.648530
 20
31.435772
 30
0.0
 10
10.648530
 20
31.562772
 30
0.0
 10
10.563863
 20
31.478106
 30
0.0
 10
11.114196
 20
30.927772
 30
0.0
 10
11.198863
 20
31.012439
 30
0.0
 10
11.071863
 20
31.012439
 30
0.0
 10
11.071863
 20
29.869439
 30
0.0
 10
11.114196
 20
29.784772
 30
0.0
 10
11.664530
 20
29.234439
 30
0.0
 10
11.749196
 20
29.192106
 30
0.0
 10
12.299530
 20
29.192106
 30
0.0
 10
12.384196
 20
29.234439
 30
0.0
  0
LWPOLYLINE
  5
163
100
AcDbEntity
  8
DIMENSIONS
 62
7
100
AcDbPolyline
 90
19
 70
1
 10
11.114196
 20
31.097106
 30
0.0
 10
11.283530
 20
30.927772
 30
0.0
 10
11.833863
 20
31.478106
 30
0.0
 10
11.749196
 20
31.562772
 30
0.0
 10
11.749196
 20
31.435772
 30
0.0
 10
12.299530
 20
31.435772
 30
0.0
 10
12.299530
 20
31.562772
 30
0.0
 10
12.214863
 20
31.478106
 30
0.0
 10
12.807530
 20
30.927772
 30
0.0
 10
12.892196
 20
31.012439
 30
0.0
 10
12.765196
 20
31.012439
 30
0.0
 10
12.765196
 20
29.869439
 30
0.0
 10
13.019196
 20
29.869439
 30
0.0
 10
13.019196
 20
31.012439
 30
0.0
 10
12.976863
 20
31.097106
 30
0.0
 10
12.384196
 20
31.647439
 30
0.0
 10
12.299530
 20
31.689772
 30
0.0
 10
11.749196
 20
31.689772
 30
0.0
 10
11.664530
 20
31.647439
 30
0.0
  0
LWPOLYLINE
  5
164
100
AcDbEntity
  8
DIMENSIONS
 62
7
100
AcDbPolyline
 90
4
 70
1
 10
12.384196
 20
57.047438
 30
0.0
 10
12.638196
 20
57.047438
 30
0.0
 10
12.638196
 20
58.148105
 30
0.0
 10
12.384196
 20
58.148105
 30
0.0
  0
LWPOLYLINE
  5
165
100
AcDbEntity
  8
DIMENSIONS
 62
7
100
AcDbPolyline
 90
18
 70
1
 10
12.172530
 20
24.154439
 30
0.0
 10
12.214863
 20
24.154439
 30
0.0
 10
12.257196
 20
24.196772
 30
0.0
 10
12.257196
 20
24.239106
 30
0.0
 10
12.257196
 20
24.281439
 30
0.0
 10
12.257196
 20
24.323772
 30
0.0
 10
12.214863
 20
24.366106
 30
0.0
 10
12.172530
 20
24.366106
 30
0.0
 10
12.130196
 20
24.408439
 30
0.0
 10
6.203530
 20
24.408439
 30
0.0
 10
6.161197
 20
24.366106
 30
0.0
 10
6.118863
 20
24.323772
 30
0.0
 10
6.118863
 20
24.281439
 30
0.0
 10
6.118863
 20
24.239106
 30
0.0
 10
6.118863
 20
24.196772
 30
0.0
 10
6.161197
 20
24.154439
 30
0.0
 10
6.203530
 20
24.154439
 30
0.0
 10
6.245863
 20
24.154439
 30
0.0
  0
LWPOLYLINE
  5
166
100
AcDbEntity
  8
DIMENSIONS
 62
7
100
AcDbPolyline
 90
18
 70
1
 10
11.833863
 20
44.305105
 30
0.0
 10
11.876196
 20
44.305105
 30
0.0
 10
11.918530
 20
44.347439
 30
0.0
 10
11.918530
 20
44.389772
 30
0.0
 10
11.918530
 20
44.432105
 30
0.0
 10
11.918530
 20
44.474439
 30
0.0
 10
11.876196
 20
44.516772
 30
0.0
 10
11.833863
 20
44.516772
 30
0.0
 10
11.791530
 20
44.559105
 30
0.0
 10
6.203530
 20
44.559105
 30
0.0
 10
6.161197
 20
44.516772
 30
0.0
 10
6.118863
 20
44.474439
 30
0.0
 10
6.118863
 20
44.432105
 30
0.0
 10
6.118863
 20
44.389772
 30
0.0
 10
6.118863
 20
44.347439
 30
0.0
 10
6.161197
 20
44.305105
 30
0.0
 10
6.203530
 20
44.305105
 30
0.0
 10
6.245863
 20
44.305105
 30
0.0
  0
LWPOLYLINE
  5
167
100
AcDbEntity
  8
DIMENSIONS
 62
7
100
AcDbPolyline
 90
18
 70
1
 10
6.838530
 20
25.678439
 30
0.0
 10
6.838530
 20
25.636106
 30
0.0
 10
6.838530
 20
25.593772
 30
0.0
 10
6.880863
 20
25.551439
 30
0.0
 10
6.923196
 20
25.551439
 30
0.0
 10
6.965530
 20
25.551439
 30
0.0
 10
7.007863
 20
25.551439
 30
0.0
 10
7.050196
 20
25.593772
 30
0.0
 10
7.092530
 20
25.636106
 30
0.0
 10
7.092530
 20
42.992772
 30
0.0
 10
7.050196
 20
43.035105
 30
0.0
 10
7.050196
 20
43.077439
 30
0.0
 10
7.007863
 20
43.119772
 30
0.0
 10
6.965530
 20
43.119772
 30
0.0
 10
6.923196
 20
43.119772
 30
0.0
 10
6.880863
 20
43.119772
 30
0.0
 10
6.838530
 20
43.077439
 30
0.0
 10
6.838530
 20
43.035105
 30
0.0
  0
LWPOLYLINE
  5
168
100
AcDbEntity
  8
DIMENSIONS
 62
7
100
AcDbPolyline
 90
29
 70
1
 10
3.748197
 20
31.478106
 30
0.0
 10
3.917530
 20
31.647439
 30
0.0
 10
3.324863
 20
32.197772
 30
0.0
 10
3.240197
 20
32.113106
 30
0.0
 10
3.367197
 20
32.113106
 30
0.0
 10
3.367197
 20
33.256106
 30
0.0
 10
3.240197
 20
33.256106
 30
0.0
 10
3.324863
 20
33.171439
 30
0.0
 10
3.917530
 20
33.721772
 30
0.0
 10
3.832863
 20
33.806439
 30
0.0
 10
3.832863
 20
33.679439
 30
0.0
 10
4.383197
 20
33.679439
 30
0.0
 10
4.383197
 20
33.806439
 30
0.0
 10
4.298530
 20
33.721772
 30
0.0
 10
4.848863
 20
33.171439
 30
0.0
 10
4.933530
 20
33.256106
 30
0.0
 10
4.806530
 20
33.256106
 30
0.0
 10
4.806530
 20
32.663439
 30
0.0
 10
5.060530
 20
32.663439
 30
0.0
 10
5.060530
 20
33.256106
 30
0.0
 10
5.018197
 20
33.340772
 30
0.0
 10
4.467863
 20
33.891106
 30
0.0
 10
4.383197
 20
33.933439
 30
0.0
 10
3.832863
 20
33.933439
 30
0.0
 10
3.748197
 20
33.891106
 30
0.0
 10
3.155530
 20
33.340772
 30
0.0
 10
3.113197
 20
33.256106
 30
0.0
 10
3.113197
 20
32.113106
 30
0.0
 10
3.155530
 20
32.028439
 30
0.0
  0
LWPOLYLINE
  5
169
100
AcDbEntity
  8
DIMENSIONS
 62
7
100
AcDbPolyline
 90
24
 70
1
 10
4.848863
 20
33.340772
 30
0.0
 10
5.018197
 20
33.171439
 30
0.0
 10
5.568530
 20
33.721772
 30
0.0
 10
5.483863
 20
33.806439
 30
0.0
 10
5.483863
 20
33.679439
 30
0.0
 10
6.034197
 20
33.679439
 30
0.0
 10
6.034197
 20
33.806439
 30
0.0
 10
5.949530
 20
33.721772
 30
0.0
 10
6.542196
 20
33.171439
 30
0.0
 10
6.626863
 20
33.256106
 30
0.0
 10
6.499863
 20
33.256106
 30
0.0
 10
6.499863
 20
32.113106
 30
0.0
 10
6.626863
 20
32.113106
 30
0.0
 10
6.542196
 20
32.197772
 30
0.0
 10
5.949530
 20
31.647439
 30
0.0
 10
6.118863
 20
31.478106
 30
0.0
 10
6.711530
 20
32.028439
 30
0.0
 10
6.753863
 20
32.113106
 30
0.0
 10
6.753863
 20
33.256106
 30
0.0
 10
6.711530
 20
33.340772
 30
0.0
 10
6.118863
 20
33.891106
 30
0.0
 10
6.034197
 20
33.933439
 30
0.0
 10
5.483863
 20
33.933439
 30
0.0
 10
5.399197
 20
33.891106
 30
0.0
  0
LWPOLYLINE
  5
16a
100
AcDbEntity
  8
DIMENSIONS
 62
7
100
AcDbPolyline
 90
44
 70
1
 10
4.806530
 20
34.907106
 30
0.0
 10
5.060530
 20
34.907106
 30
0.0
 10
5.060530
 20
36.600439
 30
0.0
 10
4.933530
 20
36.600439
 30
0.0
 10
5.018197
 20
36.515772
 30
0.0
 10
5.568530
 20
37.066106
 30
0.0
 10
5.483863
 20
37.150772
 30
0.0
 10
5.483863
 20
37.023772
 30
0.0
 10
6.034197
 20
37.023772
 30
0.0
 10
6.034197
 20
37.150772
 30
0.0
 10
5.949530
 20
37.066106
 30
0.0
 10
6.542196
 20
36.515772
 30
0.0
 10
6.626863
 20
36.600439
 30
0.0
 10
6.499863
 20
36.600439
 30
0.0
 10
6.499863
 20
35.499772
 30
0.0
 10
6.626863
 20
35.499772
 30
0.0
 10
6.542196
 20
35.584439
 30
0.0
 10
5.949530
 20
34.991772
 30
0.0
 10
6.034197
 20
34.907106
 30
0.0
 10
6.034197
 20
35.034106
 30
0.0
 10
4.383197
 20
35.034106
 30
0.0
 10
4.383197
 20
34.907106
 30
0.0
 10
4.467863
 20
34.991772
 30
0.0
 10
3.324863
 20
36.134772
 30
0.0
 10
3.240197
 20
36.050106
 30
0.0
 10
3.367197
 20
36.050106
 30
0.0
 10
3.367197
 20
36.600439
 30
0.0
 10
3.113197
 20
36.600439
 30
0.0
 10
3.113197
 20
36.050106
 30
0.0
 10
3.155530
 20
35.965439
 30
0.0
 10
4.298530
 20
34.822439
 30
0.0
 10
4.383197
 20
34.780106
 30
0.0
 10
6.034197
 20
34.780106
 30
0.0
 10
6.118863
 20
34.822439
 30
0.0
 10
6.711530
 20
35.415106
 30
0.0
 10
6.753863
 20
35.499772
 30
0.0
 10
6.753863
 20
36.600439
 30
0.0
 10
6.711530
 20
36.685106
 30
0.0
 10
6.118863
 20
37.235439
 30
0.0
 10
6.034197
 20
37.277772
 30
0.0
 10
5.483863
 20
37.277772
 30
0.0
 10
5.399197
 20
37.235439
 30
0.0
 10
4.848863
 20
36.685106
 30
0.0
 10
4.806530
 20
36.600439
 30
0.0
  0
LWPOLYLINE
  5
16b
100
AcDbEntity
  8
DIMENSIONS
 62
7
100
AcDbPolyline
 90
18
 70
1
 10
32.873529
 20
23.942772
 30
0.0
 10
32.831196
 20
23.985106
 30
0.0
 10
32.788863
 20
24.027439
 30
0.0
 10
32.746529
 20
24.027439
 30
0.0
 10
32.704196
 20
24.027439
 30
0.0
 10
32.661863
 20
24.027439
 30
0.0
 10
32.619529
 20
23.985106
 30
0.0
 10
32.619529
 20
23.942772
 30
0.0
 10
32.619529
 20
23.900439
 30
0.0
 10
32.619529
 20
12.936106
 30
0.0
 10
32.619529
 20
12.893773
 30
0.0
 10
32.661863
 20
12.851439
 30
0.0
 10
32.704196
 20
12.851439
 30
0.0
 10
32.746529
 20
12.851439
 30
0.0
 10
32.788863
 20
12.851439
 30
0.0
 10
32.831196
 20
12.893773
 30
0.0
 10
32.831196
 20
12.936106
 30
0.0
 10
32.873529
 20
12.978439
 30
0.0
  0
LWPOLYLINE
  5
16c
100
AcDbEntity
  8
DIMENSIONS
 62
7
100
AcDbPolyline
 90
18
 70
1
 10
49.637529
 20
23.942772
 30
0.0
 10
49.595196
 20
23.985106
 30
0.0
 10
49.552862
 20
24.027439
 30
0.0
 10
49.510529
 20
24.027439
 30
0.0
 10
49.468196
 20
24.027439
 30
0.0
 10
49.425862
 20
24.027439
 30
0.0
 10
49.383529
 20
23.985106
 30
0.0
 10
49.383529
 20
23.942772
 30
0.0
 10
49.383529
 20
23.900439
 30
0.0
 10
49.383529
 20
12.936106
 30
0.0
 10
49.383529
 20
12.893773
 30
0.0
 10
49.425862
 20
12.851439
 30
0.0
 10
49.468196
 20
12.851439
 30
0.0
 10
49.510529
 20
12.851439
 30
0.0
 10
49.552862
 20
12.851439
 30
0.0
 10
49.595196
 20
12.893773
 30
0.0
 10
49.595196
 20
12.936106
 30
0.0
 10
49.637529
 20
12.978439
 30
0.0
  0
LWPOLYLINE
  5
16d
100
AcDbEntity
  8
DIMENSIONS
 62
7
100
AcDbPolyline
 90
18
 70
1
 10
34.143529
 20
13.782773
 30
0.0
 10
34.101196
 20
13.740439
 30
0.0
 10
34.058863
 20
13.740439
 30
0.0
 10
34.016529
 20
13.698106
 30
0.0
 10
34.016529
 20
13.655773
 30
0.0
 10
34.016529
 20
13.613439
 30
0.0
 10
34.016529
 20
13.571106
 30
0.0
 10
34.058863
 20
13.528773
 30
0.0
 10
34.101196
 20
13.528773
 30
0.0
 10
48.071196
 20
13.528773
 30
0.0
 10
48.113529
 20
13.528773
 30
0.0
 10
48.155862
 20
13.528773
 30
0.0
 10
48.198196
 20
13.571106
 30
0.0
 10
48.198196
 20
13.613439
 30
0.0
 10
48.198196
 20
13.655773
 30
0.0
 10
48.198196
 20
13.698106
 30
0.0
 10
48.155862
 20
13.740439
 30
0.0
 10
48.113529
 20
13.782773
 30
0.0
  0
LWPOLYLINE
  5
16e
100
AcDbEntity
  8
DIMENSIONS
 62
7
100
AcDbPolyline
 90
4
 70
1
 10
42.102196
 20
54.507438
 30
0.0
 10
41.848196
 20
54.507438
 30
0.0
 10
41.848196
 20
34.356772
 30
0.0
 10
42.102196
 20
34.356772
 30
0.0
  0
LWPOLYLINE
  5
16f
100
AcDbEntity
  8
DIMENSIONS
 62
7
100
AcDbPolyline
 90
4
 70
1
 10
57.088195
 20
34.229772
 30
0.0
 10
57.088195
 20
34.483772
 30
0.0
 10
41.975196
 20
34.483772
 30
0.0
 10
41.975196
 20
34.229772
 30
0.0
  0
LWPOLYLINE
  5
170
100
AcDbEntity
  8
DIMENSIONS
 62
7
100
AcDbPolyline
 90
18
 70
1
 10
42.102196
 20
20.979439
 30
0.0
 10
42.059862
 20
21.021773
 30
0.0
 10
42.017529
 20
21.064106
 30
0.0
 10
41.975196
 20
21.064106
 30
0.0
 10
41.932862
 20
21.064106
 30
0.0
 10
41.890529
 20
21.064106
 30
0.0
 10
41.848196
 20
21.021773
 30
0.0
 10
41.848196
 20
20.979439
 30
0.0
 10
41.848196
 20
20.937106
 30
0.0
 10
41.848196
 20
18.016106
 30
0.0
 10
41.848196
 20
17.973773
 30
0.0
 10
41.890529
 20
17.931439
 30
0.0
 10
41.932862
 20
17.931439
 30
0.0
 10
41.975196
 20
17.931439
 30
0.0
 10
42.017529
 20
17.931439
 30
0.0
 10
42.059862
 20
17.973773
 30
0.0
 10
42.059862
 20
18.016106
 30
0.0
 10
42.102196
 20
18.058439
 30
0.0
  0
LWPOLYLINE
  5
171
100
AcDbEntity
  8
DIMENSIONS
 62
7
100
AcDbPolyline
 90
18
 70
1
 10
56.961195
 20
20.767773
 30
0.0
 10
56.918862
 20
20.810106
 30
0.0
 10
56.876529
 20
20.852439
 30
0.0
 10
56.834195
 20
20.852439
 30
0.0
 10
56.791862
 20
20.852439
 30
0.0
 10
56.749529
 20
20.852439
 30
0.0
 10
56.707195
 20
20.810106
 30
0.0
 10
56.707195
 20
20.767773
 30
0.0
 10
56.707195
 20
20.725439
 30
0.0
 10
56.707195
 20
18.016106
 30
0.0
 10
56.707195
 20
17.973773
 30
0.0
 10
56.749529
 20
17.931439
 30
0.0
 10
56.791862
 20
17.931439
 30
0.0
 10
56.834195
 20
17.931439
 30
0.0
 10
56.876529
 20
17.931439
 30
0.0
 10
56.918862
 20
17.973773
 30
0.0
 10
56.918862
 20
18.016106
 30
0.0
 10
56.961195
 20
18.058439
 30
0.0
  0
LWPOLYLINE
  5
172
100
AcDbEntity
  8
DIMENSIONS
 62
7
100
AcDbPolyline
 90
18
 70
1
 10
43.372196
 20
18.905106
 30
0.0
 10
43.329862
 20
18.862773
 30
0.0
 10
43.287529
 20
18.862773
 30
0.0
 10
43.245196
 20
18.820439
 30
0.0
 10
43.245196
 20
18.778106
 30
0.0
 10
43.245196
 20
18.735773
 30
0.0
 10
43.245196
 20
18.693439
 30
0.0
 10
43.287529
 20
18.651106
 30
0.0
 10
43.329862
 20
18.651106
 30
0.0
 10
55.352529
 20
18.651106
 30
0.0
 10
55.394862
 20
18.651106
 30
0.0
 10
55.437195
 20
18.651106
 30
0.0
 10
55.479529
 20
18.693439
 30
0.0
 10
55.479529
 20
18.735773
 30
0.0
 10
55.479529
 20
18.778106
 30
0.0
 10
55.479529
 20
18.820439
 30
0.0
 10
55.437195
 20
18.862773
 30
0.0
 10
55.394862
 20
18.905106
 30
0.0
  0
LWPOLYLINE
  5
173
100
AcDbEntity
  8
DIMENSIONS
 62
7
100
AcDbPolyline
 90
3
 70
1
 10
43.372196
 20
18.989773
 30
0.0
 10
43.372196
 20
18.524106
 30
0.0
 10
41.975196
 20
18.778106
 30
0.0
  0
LWPOLYLINE
  5
174
100
AcDbEntity
  8
DIMENSIONS
 62
7
100
AcDbPolyline
 90
44
 70
1
 10
45.700529
 20
21.995439
 30
0.0
 10
45.869862
 20
21.826106
 30
0.0
 10
46.420196
 20
22.376439
 30
0.0
 10
46.335529
 20
22.461106
 30
0.0
 10
46.335529
 20
22.334106
 30
0.0
 10
47.478529
 20
22.334106
 30
0.0
 10
47.478529
 20
22.461106
 30
0.0
 10
47.393862
 20
22.376439
 30
0.0
 10
47.944196
 20
21.826106
 30
0.0
 10
48.028862
 20
21.910773
 30
0.0
 10
47.901862
 20
21.910773
 30
0.0
 10
47.901862
 20
21.360439
 30
0.0
 10
48.028862
 20
21.360439
 30
0.0
 10
47.944196
 20
21.445106
 30
0.0
 10
47.393862
 20
20.894773
 30
0.0
 10
47.478529
 20
20.810106
 30
0.0
 10
47.478529
 20
20.937106
 30
0.0
 10
46.335529
 20
20.937106
 30
0.0
 10
46.250862
 20
20.894773
 30
0.0
 10
45.700529
 20
20.302106
 30
0.0
 10
45.658196
 20
20.217439
 30
0.0
 10
45.658196
 20
19.116773
 30
0.0
 10
45.785196
 20
18.989773
 30
0.0
 10
48.028862
 20
18.989773
 30
0.0
 10
48.028862
 20
19.243773
 30
0.0
 10
45.785196
 20
19.243773
 30
0.0
 10
45.785196
 20
19.116773
 30
0.0
 10
45.912196
 20
19.116773
 30
0.0
 10
45.912196
 20
20.217439
 30
0.0
 10
45.785196
 20
20.217439
 30
0.0
 10
45.869862
 20
20.132773
 30
0.0
 10
46.420196
 20
20.725439
 30
0.0
 10
46.335529
 20
20.810106
 30
0.0
 10
46.335529
 20
20.683106
 30
0.0
 10
47.478529
 20
20.683106
 30
0.0
 10
47.563196
 20
20.725439
 30
0.0
 10
48.113529
 20
21.275773
 30
0.0
 10
48.155862
 20
21.360439
 30
0.0
 10
48.155862
 20
21.910773
 30
0.0
 10
48.113529
 20
21.995439
 30
0.0
 10
47.563196
 20
22.545772
 30
0.0
 10
47.478529
 20
22.588106
 30
0.0
 10
46.335529
 20
22.588106
 30
0.0
 10
46.250862
 20
22.545772
 30
0.0
  0
LWPOLYLINE
  5
175
100
AcDbEntity
  8
DIMENSIONS
 62
7
100
AcDbPolyline
 90
9
 70
1
 10
49.129529
 20
22.588106
 30
0.0
 10
49.129529
 20
22.334106
 30
0.0
 10
51.373196
 20
22.334106
 30
0.0
 10
51.373196
 20
22.461106
 30
0.0
 10
51.246196
 20
22.503439
 30
0.0
 10
49.552862
 20
19.159106
 30
0.0
 10
49.806862
 20
19.074439
 30
0.0
 10
51.500196
 20
22.418772
 30
0.0
 10
51.373196
 20
22.588106
 30
0.0
  0
LWPOLYLINE
  5
176
100
AcDbEntity
  8
DIMENSIONS
 62
7
100
AcDbPolyline
 90
3
 70
1
 10
28.809529
 20
53.110438
 30
0.0
 10
29.275196
 20
53.110438
 30
0.0
 10
29.063529
 20
54.507438
 30
0.0
  0
LWPOLYLINE
  5
177
100
AcDbEntity
  8
DIMENSIONS
 62
7
100
AcDbPolyline
 90
29
 70
1
 10
25.803863
 20
41.553439
 30
0.0
 10
25.973196
 20
41.722772
 30
0.0
 10
25.422863
 20
42.273105
 30
0.0
 10
25.338196
 20
42.188439
 30
0.0
 10
25.465196
 20
42.188439
 30
0.0
 10
25.465196
 20
43.331439
 30
0.0
 10
25.338196
 20
43.331439
 30
0.0
 10
25.422863
 20
43.246772
 30
0.0
 10
25.973196
 20
43.797105
 30
0.0
 10
25.888529
 20
43.881772
 30
0.0
 10
25.888529
 20
43.754772
 30
0.0
 10
26.481196
 20
43.754772
 30
0.0
 10
26.481196
 20
43.881772
 30
0.0
 10
26.396529
 20
43.797105
 30
0.0
 10
26.946863
 20
43.246772
 30
0.0
 10
27.031529
 20
43.331439
 30
0.0
 10
26.904529
 20
43.331439
 30
0.0
 10
26.904529
 20
42.738772
 30
0.0
 10
27.158529
 20
42.738772
 30
0.0
 10
27.158529
 20
43.331439
 30
0.0
 10
27.116196
 20
43.416105
 30
0.0
 10
26.565863
 20
43.966439
 30
0.0
 10
26.481196
 20
44.008772
 30
0.0
 10
25.888529
 20
44.008772
 30
0.0
 10
25.803863
 20
43.966439
 30
0.0
 10
25.253529
 20
43.416105
 30
0.0
 10
25.211196
 20
43.331439
 30
0.0
 10
25.211196
 20
42.188439
 30
0.0
 10
25.253529
 20
42.103772
 30
0.0
  0
LWPOLYLINE
  5
178
100
AcDbEntity
  8
DIMENSIONS
 62
7
100
AcDbPolyline
 90
24
 70
1
 10
26.946863
 20
43.416105
 30
0.0
 10
27.116196
 20
43.246772
 30
0.0
 10
27.666529
 20
43.797105
 30
0.0
 10
27.581863
 20
43.881772
 30
0.0
 10
27.581863
 20
43.754772
 30
0.0
 10
28.132196
 20
43.754772
 30
0.0
 10
28.132196
 20
43.881772
 30
0.0
 10
28.047529
 20
43.797105
 30
0.0
 10
28.597863
 20
43.246772
 30
0.0
 10
28.682529
 20
43.331439
 30
0.0
 10
28.555529
 20
43.331439
 30
0.0
 10
28.555529
 20
42.188439
 30
0.0
 10
28.682529
 20
42.188439
 30
0.0
 10
28.597863
 20
42.273105
 30
0.0
 10
28.047529
 20
41.722772
 30
0.0
 10
28.216863
 20
41.553439
 30
0.0
 10
28.767196
 20
42.103772
 30
0.0
 10
28.809529
 20
42.188439
 30
0.0
 10
28.809529
 20
43.331439
 30
0.0
 10
28.767196
 20
43.416105
 30
0.0
 10
28.216863
 20
43.966439
 30
0.0
 10
28.132196
 20
44.008772
 30
0.0
 10
27.581863
 20
44.008772
 30
0.0
 10
27.497196
 20
43.966439
 30
0.0
  0
LWPOLYLINE
  5
179
100
AcDbEntity
  8
DIMENSIONS
 62
7
100
AcDbPolyline
 90
3
 70
1
 10
17.421863
 20
57.597772
 30
0.0
 10
17.887530
 20
57.597772
 30
0.0
 10
17.675863
 20
58.994772
 30
0.0
  0
LWPOLYLINE
  5
17a
100
AcDbEntity
  8
DIMENSIONS
 62
7
100
AcDbPolyline
 90
3
 70
1
 10
12.976863
 20
25.678439
 30
0.0
 10
13.442530
 20
25.678439
 30
0.0
 10
13.230863
 20
24.281439
 30
0.0
  0
LWPOLYLINE
  5
17b
100
AcDbEntity
  8
DIMENSIONS
 62
7
100
AcDbPolyline
 90
3
 70
1
 10
12.976863
 20
32.959772
 30
0.0
 10
13.442530
 20
32.959772
 30
0.0
 10
13.230863
 20
34.356772
 30
0.0
  0
LWPOLYLINE
  5
17c
100
AcDbEntity
  8
DIMENSIONS
 62
7
100
AcDbPolyline
 90
4
 70
1
 10
12.765196
 20
27.075439
 30
0.0
 10
13.019196
 20
27.075439
 30
0.0
 10
13.019196
 20
28.218439
 30
0.0
 10
12.765196
 20
28.218439
 30
0.0
  0
LWPOLYLINE
  5
17d
100
AcDbEntity
  8
DIMENSIONS
 62
7
100
AcDbPolyline
 90
3
 70
1
 10
12.638196
 20
45.829105
 30
0.0
 10
13.103863
 20
45.829105
 30
0.0
 10
12.849863
 20
44.432105
 30
0.0
  0
LWPOLYLINE
  5
17e
100
AcDbEntity
  8
DIMENSIONS
 62
7
100
AcDbPolyline
 90
3
 70
1
 10
6.711530
 20
25.678439
 30
0.0
 10
7.177196
 20
25.678439
 30
0.0
 10
6.965530
 20
24.281439
 30
0.0
  0
LWPOLYLINE
  5
17f
100
AcDbEntity
  8
DIMENSIONS
 62
7
100
AcDbPolyline
 90
3
 70
1
 10
6.711530
 20
43.035105
 30
0.0
 10
7.177196
 20
43.035105
 30
0.0
 10
6.965530
 20
44.432105
 30
0.0
  0
LWPOLYLINE
  5
180
100
AcDbEntity
  8
DIMENSIONS
 62
7
100
AcDbPolyline
 90
3
 70
1
 10
34.143529
 20
13.909773
 30
0.0
 10
34.143529
 20
13.444106
 30
0.0
 10
32.746529
 20
13.655773
 30
0.0
  0
LWPOLYLINE
  5
181
100
AcDbEntity
  8
DIMENSIONS
 62
7
100
AcDbPolyline
 90
29
 70
1
 10
38.503862
 20
16.915439
 30
0.0
 10
38.673196
 20
16.746106
 30
0.0
 10
39.265862
 20
17.296439
 30
0.0
 10
39.181196
 20
17.381106
 30
0.0
 10
39.181196
 20
17.254106
 30
0.0
 10
40.281862
 20
17.254106
 30
0.0
 10
40.281862
 20
17.381106
 30
0.0
 10
40.197196
 20
17.296439
 30
0.0
 10
40.747529
 20
16.746106
 30
0.0
 10
40.832196
 20
16.830773
 30
0.0
 10
40.705196
 20
16.830773
 30
0.0
 10
40.705196
 20
16.238106
 30
0.0
 10
40.832196
 20
16.238106
 30
0.0
 10
40.747529
 20
16.322773
 30
0.0
 10
40.197196
 20
15.772439
 30
0.0
 10
40.281862
 20
15.687773
 30
0.0
 10
40.281862
 20
15.814773
 30
0.0
 10
39.731529
 20
15.814773
 30
0.0
 10
39.731529
 20
15.560773
 30
0.0
 10
40.281862
 20
15.560773
 30
0.0
 10
40.366529
 20
15.603106
 30
0.0
 10
40.916862
 20
16.153439
 30
0.0
 10
40.959196
 20
16.238106
 30
0.0
 10
40.959196
 20
16.830773
 30
0.0
 10
40.916862
 20
16.915439
 30
0.0
 10
40.366529
 20
17.465773
 30
0.0
 10
40.281862
 20
17.508106
 30
0.0
 10
39.181196
 20
17.508106
 30
0.0
 10
39.096529
 20
17.465773
 30
0.0
  0
LWPOLYLINE
  5
182
100
AcDbEntity
  8
DIMENSIONS
 62
7
100
AcDbPolyline
 90
39
 70
1
 10
42.440862
 20
13.952106
 30
0.0
 10
42.610196
 20
14.121439
 30
0.0
 10
42.059862
 20
14.671773
 30
0.0
 10
41.975196
 20
14.587106
 30
0.0
 10
42.102196
 20
14.587106
 30
0.0
 10
42.102196
 20
16.830773
 30
0.0
 10
41.975196
 20
16.830773
 30
0.0
 10
42.059862
 20
16.746106
 30
0.0
 10
42.610196
 20
17.296439
 30
0.0
 10
42.525529
 20
17.381106
 30
0.0
 10
42.525529
 20
17.254106
 30
0.0
 10
43.075862
 20
17.254106
 30
0.0
 10
43.075862
 20
17.381106
 30
0.0
 10
42.991196
 20
17.296439
 30
0.0
 10
43.541529
 20
16.746106
 30
0.0
 10
43.626196
 20
16.830773
 30
0.0
 10
43.499196
 20
16.830773
 30
0.0
 10
43.499196
 20
14.587106
 30
0.0
 10
43.626196
 20
14.587106
 30
0.0
 10
43.541529
 20
14.671773
 30
0.0
 10
42.991196
 20
14.121439
 30
0.0
 10
43.075862
 20
14.036773
 30
0.0
 10
43.075862
 20
14.163773
 30
0.0
 10
42.525529
 20
14.163773
 30
0.0
 10
42.525529
 20
13.909773
 30
0.0
 10
43.075862
 20
13.909773
 30
0.0
 10
43.160529
 20
13.952106
 30
0.0
 10
43.710862
 20
14.502439
 30
0.0
 10
43.753196
 20
14.587106
 30
0.0
 10
43.753196
 20
16.830773
 30
0.0
 10
43.710862
 20
16.915439
 30
0.0
 10
43.160529
 20
17.465773
 30
0.0
 10
43.075862
 20
17.508106
 30
0.0
 10
42.525529
 20
17.508106
 30
0.0
 10
42.440862
 20
17.465773
 30
0.0
 10
41.890529
 20
16.915439
 30
0.0
 10
41.848196
 20
16.830773
 30
0.0
 10
41.848196
 20
14.587106
 30
0.0
 10
41.890529
 20
14.502439
 30
0.0
  0
LWPOLYLINE
  5
183
100
AcDbEntity
  8
DIMENSIONS
 62
7
100
AcDbPolyline
 90
3
 70
1
 10
50.907529
 20
13.994439
 30
0.0
 10
50.907529
 20
13.528773
 30
0.0
 10
49.510529
 20
13.740439
 30
0.0
  0
LWPOLYLINE
  5
184
100
AcDbEntity
  8
DIMENSIONS
 62
7
100
AcDbPolyline
 90
3
 70
1
 10
70.507862
 20
13.994439
 30
0.0
 10
70.507862
 20
13.528773
 30
0.0
 10
71.904862
 20
13.740439
 30
0.0
  0
LWPOLYLINE
  5
185
100
AcDbEntity
  8
DIMENSIONS
 62
7
100
AcDbPolyline
 90
14
 70
1
 10
60.432529
 20
15.095106
 30
0.0
 10
60.432529
 20
15.349106
 30
0.0
 10
58.188862
 20
15.349106
 30
0.0
 10
58.188862
 20
15.222106
 30
0.0
 10
58.273529
 20
15.137439
 30
0.0
 10
59.966862
 20
17.381106
 30
0.0
 10
59.882195
 20
17.465773
 30
0.0
 10
59.755195
 20
17.465773
 30
0.0
 10
59.755195
 20
14.079106
 30
0.0
 10
60.009195
 20
14.079106
 30
0.0
 10
60.009195
 20
17.465773
 30
0.0
 10
59.755195
 20
17.508106
 30
0.0
 10
58.061862
 20
15.264439
 30
0.0
 10
58.188862
 20
15.095106
 30
0.0
  0
LWPOLYLINE
  5
186
100
AcDbEntity
  8
DIMENSIONS
 62
7
100
AcDbPolyline
 90
39
 70
1
 10
62.041195
 20
13.994439
 30
0.0
 10
62.210529
 20
14.163773
 30
0.0
 10
61.660195
 20
14.756439
 30
0.0
 10
61.575529
 20
14.671773
 30
0.0
 10
61.702529
 20
14.671773
 30
0.0
 10
61.702529
 20
16.873106
 30
0.0
 10
61.575529
 20
16.873106
 30
0.0
 10
61.660195
 20
16.788439
 30
0.0
 10
62.210529
 20
17.381106
 30
0.0
 10
62.125862
 20
17.465773
 30
0.0
 10
62.125862
 20
17.338773
 30
0.0
 10
62.676195
 20
17.338773
 30
0.0
 10
62.676195
 20
17.465773
 30
0.0
 10
62.591529
 20
17.381106
 30
0.0
 10
63.141862
 20
16.788439
 30
0.0
 10
63.226529
 20
16.873106
 30
0.0
 10
63.099529
 20
16.873106
 30
0.0
 10
63.099529
 20
14.671773
 30
0.0
 10
63.226529
 20
14.671773
 30
0.0
 10
63.141862
 20
14.756439
 30
0.0
 10
62.591529
 20
14.163773
 30
0.0
 10
62.676195
 20
14.079106
 30
0.0
 10
62.676195
 20
14.206106
 30
0.0
 10
62.125862
 20
14.206106
 30
0.0
 10
62.125862
 20
13.952106
 30
0.0
 10
62.676195
 20
13.952106
 30
0.0
 10
62.760862
 20
13.994439
 30
0.0
 10
63.311195
 20
14.587106
 30
0.0
 10
63.353529
 20
14.671773
 30
0.0
 10
63.353529
 20
16.873106
 30
0.0
 10
63.311195
 20
16.957773
 30
0.0
 10
62.760862
 20
17.550439
 30
0.0
 10
62.676195
 20
17.592773
 30
0.0
 10
62.125862
 20
17.592773
 30
0.0
 10
62.041195
 20
17.550439
 30
0.0
 10
61.490862
 20
16.957773
 30
0.0
 10
61.448529
 20
16.873106
 30
0.0
 10
61.448529
 20
14.671773
 30
0.0
 10
61.490862
 20
14.587106
 30
0.0
  0
LWPOLYLINE
  5
187
100
AcDbEntity
  8
DIMENSIONS
 62
7
100
AcDbPolyline
 90
3
 70
1
 10
73.301862
 20
14.036773
 30
0.0
 10
73.301862
 20
13.571106
 30
0.0
 10
71.904862
 20
13.782773
 30
0.0
  0
LWPOLYLINE
  5
188
100
AcDbEntity
  8
DIMENSIONS
 62
7
100
AcDbPolyline
 90
39
 70
1
 10
83.461861
 20
14.798773
 30
0.0
 10
83.292528
 20
14.629439
 30
0.0
 10
83.885195
 20
14.036773
 30
0.0
 10
83.969861
 20
13.994439
 30
0.0
 10
85.070528
 20
13.994439
 30
0.0
 10
85.155195
 20
14.036773
 30
0.0
 10
85.705528
 20
14.629439
 30
0.0
 10
85.747861
 20
14.714106
 30
0.0
 10
85.747861
 20
15.814773
 30
0.0
 10
85.705528
 20
15.899439
 30
0.0
 10
85.155195
 20
16.449773
 30
0.0
 10
85.070528
 20
16.492106
 30
0.0
 10
83.377195
 20
16.492106
 30
0.0
 10
83.377195
 20
16.365106
 30
0.0
 10
83.504195
 20
16.365106
 30
0.0
 10
83.504195
 20
17.508106
 30
0.0
 10
83.377195
 20
17.508106
 30
0.0
 10
83.377195
 20
17.381106
 30
0.0
 10
85.620861
 20
17.381106
 30
0.0
 10
85.620861
 20
17.635106
 30
0.0
 10
83.377195
 20
17.635106
 30
0.0
 10
83.250195
 20
17.508106
 30
0.0
 10
83.250195
 20
16.365106
 30
0.0
 10
83.377195
 20
16.238106
 30
0.0
 10
85.070528
 20
16.238106
 30
0.0
 10
85.070528
 20
16.365106
 30
0.0
 10
84.985861
 20
16.280439
 30
0.0
 10
85.536195
 20
15.730106
 30
0.0
 10
85.620861
 20
15.814773
 30
0.0
 10
85.493861
 20
15.814773
 30
0.0
 10
85.493861
 20
14.714106
 30
0.0
 10
85.620861
 20
14.714106
 30
0.0
 10
85.536195
 20
14.798773
 30
0.0
 10
84.985861
 20
14.206106
 30
0.0
 10
85.070528
 20
14.121439
 30
0.0
 10
85.070528
 20
14.248439
 30
0.0
 10
83.969861
 20
14.248439
 30
0.0
 10
83.969861
 20
14.121439
 30
0.0
 10
84.054528
 20
14.206106
 30
0.0
  0
LWPOLYLINE
  5
189
100
AcDbEntity
  8
DIMENSIONS
 62
7
100
AcDbPolyline
 90
3
 70
1
 10
55.394862
 20
18.989773
 30
0.0
 10
55.394862
 20
18.524106
 30
0.0
 10
56.834195
 20
18.778106
 30
0.0
  0
LWPOLYLINE
  5
18a
100
AcDbEntity
  8
DIMENSIONS
 62
7
100
AcDbPolyline
 90
3
 70
1
 10
28.809529
 20
35.753772
 30
0.0
 10
29.275196
 20
35.753772
 30
0.0
 10
29.063529
 20
34.356772
 30
0.0
  0
LWPOLYLINE
  5
18b
100
AcDbEntity
  8
DIMENSIONS
 62
7
100
AcDbPolyline
 90
3
 70
1
 10
20.639196
 20
31.943772
 30
0.0
 10
20.300530
 20
31.689772
 30
0.0
 10
19.623196
 20
32.917439
 30
0.0
  0
LWPOLYLINE
  5
18c
100
AcDbEntity
  8
DIMENSIONS
 62
7
100
AcDbPolyline
 90
3
 70
1
 10
29.444529
 20
20.217439
 30
0.0
 10
29.063529
 20
19.963439
 30
0.0
 10
30.121863
 20
18.947439
 30
0.0
  0
LWPOLYLINE
  5
18d
100
AcDbEntity
  8
DIMENSIONS
 62
7
100
AcDbPolyline
 90
29
 70
1
 10
28.894196
 20
25.974772
 30
0.0
 10
28.851863
 20
25.720772
 30
0.0
 10
29.613863
 20
25.593772
 30
0.0
 10
29.656196
 20
25.720772
 30
0.0
 10
29.529196
 20
25.636106
 30
0.0
 10
30.206529
 20
24.747106
 30
0.0
 10
30.333529
 20
24.831772
 30
0.0
 10
30.206529
 20
24.831772
 30
0.0
 10
30.079529
 20
24.069772
 30
0.0
 10
30.206529
 20
24.069772
 30
0.0
 10
30.121863
 20
24.154439
 30
0.0
 10
29.698529
 20
23.815772
 30
0.0
 10
29.783196
 20
23.731106
 30
0.0
 10
29.783196
 20
23.858106
 30
0.0
 10
28.978863
 20
23.942772
 30
0.0
 10
28.978863
 20
23.815772
 30
0.0
 10
29.063529
 20
23.858106
 30
0.0
 10
28.724863
 20
24.323772
 30
0.0
 10
28.513196
 20
24.196772
 30
0.0
 10
28.851863
 20
23.731106
 30
0.0
 10
28.978863
 20
23.688772
 30
0.0
 10
29.783196
 20
23.604106
 30
0.0
 10
29.825529
 20
23.604106
 30
0.0
 10
30.248863
 20
23.942772
 30
0.0
 10
30.333529
 20
24.027439
 30
0.0
 10
30.460529
 20
24.789439
 30
0.0
 10
30.418196
 20
24.874106
 30
0.0
 10
29.740863
 20
25.763106
 30
0.0
 10
29.656196
 20
25.847772
 30
0.0
  0
LWPOLYLINE
  5
18e
100
AcDbEntity
  8
DIMENSIONS
 62
7
100
AcDbPolyline
 90
24
 70
1
 10
29.105863
 20
23.815772
 30
0.0
 10
28.851863
 20
23.815772
 30
0.0
 10
28.767196
 20
23.053772
 30
0.0
 10
28.894196
 20
23.053772
 30
0.0
 10
28.809529
 20
23.138439
 30
0.0
 10
28.343863
 20
22.799772
 30
0.0
 10
28.428529
 20
22.715106
 30
0.0
 10
28.428529
 20
22.842106
 30
0.0
 10
27.666529
 20
22.969106
 30
0.0
 10
27.666529
 20
22.842106
 30
0.0
 10
27.751196
 20
22.884439
 30
0.0
 10
27.073863
 20
23.773439
 30
0.0
 10
26.989196
 20
23.731106
 30
0.0
 10
27.116196
 20
23.731106
 30
0.0
 10
27.200863
 20
24.493106
 30
0.0
 10
26.946863
 20
24.493106
 30
0.0
 10
26.862196
 20
23.731106
 30
0.0
 10
26.862196
 20
23.646439
 30
0.0
 10
27.539529
 20
22.757439
 30
0.0
 10
27.624196
 20
22.715106
 30
0.0
 10
28.386196
 20
22.588106
 30
0.0
 10
28.470863
 20
22.588106
 30
0.0
 10
28.936529
 20
22.926772
 30
0.0
 10
29.021196
 20
23.053772
 30
0.0
  0
LWPOLYLINE
  5
18f
100
AcDbEntity
  8
DIMENSIONS
 62
7
100
AcDbPolyline
 90
9
 70
1
 10
30.883863
 20
23.307772
 30
0.0
 10
30.841529
 20
23.053772
 30
0.0
 10
31.645863
 20
22.926772
 30
0.0
 10
31.688196
 20
23.053772
 30
0.0
 10
31.603529
 20
23.138439
 30
0.0
 10
28.894196
 20
21.106439
 30
0.0
 10
29.021196
 20
20.894773
 30
0.0
 10
31.730529
 20
22.926772
 30
0.0
 10
31.688196
 20
23.180772
 30
0.0
  0
LWPOLYLINE
  5
190
100
AcDbEntity
  8
DIMENSIONS
 62
7
100
AcDbPolyline
 90
3
 70
1
 10
48.113529
 20
13.909773
 30
0.0
 10
48.113529
 20
13.444106
 30
0.0
 10
49.510529
 20
13.655773
 30
0.0
  0
LWPOLYLINE
  5
191
100
AcDbEntity
  8
DIMENSIONS
 62
7
100
AcDbPolyline
 90
18
 70
1
 10
26.184863
 20
77.875438
 30
0.0
 10
26.227196
 20
77.875438
 30
0.0
 10
26.269529
 20
77.917771
 30
0.0
 10
26.269529
 20
77.960105
 30
0.0
 10
26.269529
 20
78.002438
 30
0.0
 10
26.269529
 20
78.044771
 30
0.0
 10
26.227196
 20
78.087105
 30
0.0
 10
26.184863
 20
78.087105
 30
0.0
 10
26.142529
 20
78.129438
 30
0.0
 10
16.913863
 20
78.129438
 30
0.0
 10
16.871530
 20
78.087105
 30
0.0
 10
16.829196
 20
78.044771
 30
0.0
 10
16.829196
 20
78.002438
 30
0.0
 10
16.829196
 20
77.960105
 30
0.0
 10
16.829196
 20
77.917771
 30
0.0
 10
16.871530
 20
77.875438
 30
0.0
 10
16.913863
 20
77.875438
 30
0.0
 10
16.956196
 20
77.875438
 30
0.0
  0
LWPOLYLINE
  5
192
100
AcDbEntity
  8
DIMENSIONS
 62
7
100
AcDbPolyline
 90
18
 70
1
 10
26.184863
 20
75.631771
 30
0.0
 10
26.227196
 20
75.631771
 30
0.0
 10
26.269529
 20
75.674105
 30
0.0
 10
26.269529
 20
75.716438
 30
0.0
 10
26.269529
 20
75.758771
 30
0.0
 10
26.269529
 20
75.801105
 30
0.0
 10
26.227196
 20
75.843438
 30
0.0
 10
26.184863
 20
75.843438
 30
0.0
 10
26.142529
 20
75.885771
 30
0.0
 10
16.913863
 20
75.885771
 30
0.0
 10
16.871530
 20
75.843438
 30
0.0
 10
16.829196
 20
75.801105
 30
0.0
 10
16.829196
 20
75.758771
 30
0.0
 10
16.829196
 20
75.716438
 30
0.0
 10
16.829196
 20
75.674105
 30
0.0
 10
16.871530
 20
75.631771
 30
0.0
 10
16.913863
 20
75.631771
 30
0.0
 10
16.956196
 20
75.631771
 30
0.0
  0
LWPOLYLINE
  5
193
100
AcDbEntity
  8
DIMENSIONS
 62
7
100
AcDbPolyline
 90
18
 70
1
 10
17.548863
 20
79.399438
 30
0.0
 10
17.548863
 20
79.357105
 30
0.0
 10
17.548863
 20
79.314771
 30
0.0
 10
17.591196
 20
79.272438
 30
0.0
 10
17.633530
 20
79.272438
 30
0.0
 10
17.675863
 20
79.272438
 30
0.0
 10
17.718196
 20
79.272438
 30
0.0
 10
17.760530
 20
79.314771
 30
0.0
 10
17.802863
 20
79.357105
 30
0.0
 10
17.802863
 20
80.754105
 30
0.0
 10
17.760530
 20
80.796438
 30
0.0
 10
17.760530
 20
80.838771
 30
0.0
 10
17.718196
 20
80.881105
 30
0.0
 10
17.675863
 20
80.881105
 30
0.0
 10
17.633530
 20
80.881105
 30
0.0
 10
17.591196
 20
80.881105
 30
0.0
 10
17.548863
 20
80.838771
 30
0.0
 10
17.548863
 20
80.796438
 30
0.0
  0
LWPOLYLINE
  5
194
100
AcDbEntity
  8
DIMENSIONS
 62
7
100
AcDbPolyline
 90
18
 70
1
 10
17.802863
 20
74.361771
 30
0.0
 10
17.760530
 20
74.404105
 30
0.0
 10
17.718196
 20
74.446438
 30
0.0
 10
17.675863
 20
74.446438
 30
0.0
 10
17.633530
 20
74.446438
 30
0.0
 10
17.591196
 20
74.446438
 30
0.0
 10
17.548863
 20
74.404105
 30
0.0
 10
17.548863
 20
74.361771
 30
0.0
 10
17.548863
 20
74.319438
 30
0.0
 10
17.548863
 20
70.001438
 30
0.0
 10
17.548863
 20
69.959105
 30
0.0
 10
17.591196
 20
69.916771
 30
0.0
 10
17.633530
 20
69.916771
 30
0.0
 10
17.675863
 20
69.916771
 30
0.0
 10
17.718196
 20
69.916771
 30
0.0
 10
17.760530
 20
69.959105
 30
0.0
 10
17.760530
 20
70.001438
 30
0.0
 10
17.802863
 20
70.043771
 30
0.0
  0
LWPOLYLINE
  5
195
100
AcDbEntity
  8
DIMENSIONS
 62
7
100
AcDbPolyline
 90
18
 70
1
 10
17.802863
 20
78.002438
 30
0.0
 10
17.760530
 20
78.044771
 30
0.0
 10
17.718196
 20
78.087105
 30
0.0
 10
17.675863
 20
78.087105
 30
0.0
 10
17.633530
 20
78.087105
 30
0.0
 10
17.591196
 20
78.087105
 30
0.0
 10
17.548863
 20
78.044771
 30
0.0
 10
17.548863
 20
78.002438
 30
0.0
 10
17.548863
 20
77.960105
 30
0.0
 10
17.548863
 20
75.716438
 30
0.0
 10
17.548863
 20
75.674105
 30
0.0
 10
17.591196
 20
75.631771
 30
0.0
 10
17.633530
 20
75.631771
 30
0.0
 10
17.675863
 20
75.631771
 30
0.0
 10
17.718196
 20
75.631771
 30
0.0
 10
17.760530
 20
75.674105
 30
0.0
 10
17.760530
 20
75.716438
 30
0.0
 10
17.802863
 20
75.758771
 30
0.0
  0
LWPOLYLINE
  5
196
100
AcDbEntity
  8
DIMENSIONS
 62
7
100
AcDbPolyline
 90
9
 70
1
 10
9.971196
 20
78.510438
 30
0.0
 10
10.140530
 20
78.679771
 30
0.0
 10
9.590196
 20
79.230105
 30
0.0
 10
9.505530
 20
79.145438
 30
0.0
 10
9.505530
 20
79.018438
 30
0.0
 10
12.892196
 20
79.018438
 30
0.0
 10
12.892196
 20
79.272438
 30
0.0
 10
9.505530
 20
79.272438
 30
0.0
 10
9.420863
 20
79.060771
 30
0.0
  0
LWPOLYLINE
  5
197
100
AcDbEntity
  8
DIMENSIONS
 62
7
100
AcDbPolyline
 90
19
 70
1
 10
11.114196
 20
82.574438
 30
0.0
 10
11.283530
 20
82.405105
 30
0.0
 10
11.833863
 20
82.955438
 30
0.0
 10
11.749196
 20
83.040104
 30
0.0
 10
11.749196
 20
82.913104
 30
0.0
 10
12.299530
 20
82.913104
 30
0.0
 10
12.299530
 20
83.040104
 30
0.0
 10
12.214863
 20
82.955438
 30
0.0
 10
12.807530
 20
82.405105
 30
0.0
 10
12.892196
 20
82.489771
 30
0.0
 10
12.765196
 20
82.489771
 30
0.0
 10
12.765196
 20
81.389105
 30
0.0
 10
13.019196
 20
81.389105
 30
0.0
 10
13.019196
 20
82.489771
 30
0.0
 10
12.976863
 20
82.574438
 30
0.0
 10
12.384196
 20
83.124771
 30
0.0
 10
12.299530
 20
83.167104
 30
0.0
 10
11.749196
 20
83.167104
 30
0.0
 10
11.664530
 20
83.124771
 30
0.0
  0
LWPOLYLINE
  5
198
100
AcDbEntity
  8
DIMENSIONS
 62
7
100
AcDbPolyline
 90
18
 70
1
 10
12.172530
 20
85.707104
 30
0.0
 10
12.214863
 20
85.707104
 30
0.0
 10
12.257196
 20
85.749438
 30
0.0
 10
12.257196
 20
85.791771
 30
0.0
 10
12.257196
 20
85.834104
 30
0.0
 10
12.257196
 20
85.876438
 30
0.0
 10
12.214863
 20
85.918771
 30
0.0
 10
12.172530
 20
85.918771
 30
0.0
 10
12.130196
 20
85.961104
 30
0.0
 10
5.864863
 20
85.961104
 30
0.0
 10
5.822530
 20
85.918771
 30
0.0
 10
5.780197
 20
85.876438
 30
0.0
 10
5.780197
 20
85.834104
 30
0.0
 10
5.780197
 20
85.791771
 30
0.0
 10
5.780197
 20
85.749438
 30
0.0
 10
5.822530
 20
85.707104
 30
0.0
 10
5.864863
 20
85.707104
 30
0.0
 10
5.907197
 20
85.707104
 30
0.0
  0
LWPOLYLINE
  5
199
100
AcDbEntity
  8
DIMENSIONS
 62
7
100
AcDbPolyline
 90
18
 70
1
 10
12.511196
 20
67.249772
 30
0.0
 10
12.553530
 20
67.249772
 30
0.0
 10
12.595863
 20
67.292105
 30
0.0
 10
12.595863
 20
67.334438
 30
0.0
 10
12.595863
 20
67.376772
 30
0.0
 10
12.595863
 20
67.419105
 30
0.0
 10
12.553530
 20
67.461438
 30
0.0
 10
12.511196
 20
67.461438
 30
0.0
 10
12.468863
 20
67.503772
 30
0.0
 10
5.864863
 20
67.503772
 30
0.0
 10
5.822530
 20
67.461438
 30
0.0
 10
5.780197
 20
67.419105
 30
0.0
 10
5.780197
 20
67.376772
 30
0.0
 10
5.780197
 20
67.334438
 30
0.0
 10
5.780197
 20
67.292105
 30
0.0
 10
5.822530
 20
67.249772
 30
0.0
 10
5.864863
 20
67.249772
 30
0.0
 10
5.907197
 20
67.249772
 30
0.0
  0
LWPOLYLINE
  5
19a
100
AcDbEntity
  8
DIMENSIONS
 62
7
100
AcDbPolyline
 90
18
 70
1
 10
6.753863
 20
84.437104
 30
0.0
 10
6.711530
 20
84.479438
 30
0.0
 10
6.669196
 20
84.521771
 30
0.0
 10
6.626863
 20
84.521771
 30
0.0
 10
6.584530
 20
84.521771
 30
0.0
 10
6.542196
 20
84.521771
 30
0.0
 10
6.499863
 20
84.479438
 30
0.0
 10
6.499863
 20
84.437104
 30
0.0
 10
6.499863
 20
84.394771
 30
0.0
 10
6.499863
 20
68.731438
 30
0.0
 10
6.499863
 20
68.689105
 30
0.0
 10
6.542196
 20
68.646771
 30
0.0
 10
6.584530
 20
68.646771
 30
0.0
 10
6.626863
 20
68.646771
 30
0.0
 10
6.669196
 20
68.646771
 30
0.0
 10
6.711530
 20
68.689105
 30
0.0
 10
6.711530
 20
68.731438
 30
0.0
 10
6.753863
 20
68.773771
 30
0.0
  0
LWPOLYLINE
  5
19b
100
AcDbEntity
  8
DIMENSIONS
 62
7
100
AcDbPolyline
 90
29
 70
1
 10
3.367197
 20
73.726771
 30
0.0
 10
3.536530
 20
73.896105
 30
0.0
 10
2.986197
 20
74.446438
 30
0.0
 10
2.901530
 20
74.361771
 30
0.0
 10
3.028530
 20
74.361771
 30
0.0
 10
3.028530
 20
75.504771
 30
0.0
 10
2.901530
 20
75.504771
 30
0.0
 10
2.986197
 20
75.420105
 30
0.0
 10
3.536530
 20
75.970438
 30
0.0
 10
3.451863
 20
76.055105
 30
0.0
 10
3.451863
 20
75.928105
 30
0.0
 10
4.002197
 20
75.928105
 30
0.0
 10
4.002197
 20
76.055105
 30
0.0
 10
3.917530
 20
75.970438
 30
0.0
 10
4.510197
 20
75.420105
 30
0.0
 10
4.594863
 20
75.504771
 30
0.0
 10
4.467863
 20
75.504771
 30
0.0
 10
4.467863
 20
74.954438
 30
0.0
 10
4.721863
 20
74.954438
 30
0.0
 10
4.721863
 20
75.504771
 30
0.0
 10
4.679530
 20
75.589438
 30
0.0
 10
4.086863
 20
76.139771
 30
0.0
 10
4.002197
 20
76.182105
 30
0.0
 10
3.451863
 20
76.182105
 30
0.0
 10
3.367197
 20
76.139771
 30
0.0
 10
2.816863
 20
75.589438
 30
0.0
 10
2.774530
 20
75.504771
 30
0.0
 10
2.774530
 20
74.361771
 30
0.0
 10
2.816863
 20
74.277105
 30
0.0
  0
LWPOLYLINE
  5
19c
100
AcDbEntity
  8
DIMENSIONS
 62
7
100
AcDbPolyline
 90
24
 70
1
 10
4.510197
 20
75.589438
 30
0.0
 10
4.679530
 20
75.420105
 30
0.0
 10
5.229863
 20
75.970438
 30
0.0
 10
5.145197
 20
76.055105
 30
0.0
 10
5.145197
 20
75.928105
 30
0.0
 10
5.695530
 20
75.928105
 30
0.0
 10
5.695530
 20
76.055105
 30
0.0
 10
5.610863
 20
75.970438
 30
0.0
 10
6.161197
 20
75.420105
 30
0.0
 10
6.245863
 20
75.504771
 30
0.0
 10
6.118863
 20
75.504771
 30
0.0
 10
6.118863
 20
74.361771
 30
0.0
 10
6.245863
 20
74.361771
 30
0.0
 10
6.161197
 20
74.446438
 30
0.0
 10
5.610863
 20
73.896105
 30
0.0
 10
5.780197
 20
73.726771
 30
0.0
 10
6.330530
 20
74.277105
 30
0.0
 10
6.372863
 20
74.361771
 30
0.0
 10
6.372863
 20
75.504771
 30
0.0
 10
6.330530
 20
75.589438
 30
0.0
 10
5.780197
 20
76.139771
 30
0.0
 10
5.695530
 20
76.182105
 30
0.0
 10
5.145197
 20
76.182105
 30
0.0
 10
5.060530
 20
76.139771
 30
0.0
  0
LWPOLYLINE
  5
19d
100
AcDbEntity
  8
DIMENSIONS
 62
7
100
AcDbPolyline
 90
29
 70
1
 10
3.367197
 20
77.113438
 30
0.0
 10
3.536530
 20
77.282771
 30
0.0
 10
2.986197
 20
77.833105
 30
0.0
 10
2.901530
 20
77.748438
 30
0.0
 10
3.028530
 20
77.748438
 30
0.0
 10
3.028530
 20
78.849105
 30
0.0
 10
2.901530
 20
78.849105
 30
0.0
 10
2.986197
 20
78.764438
 30
0.0
 10
3.536530
 20
79.314771
 30
0.0
 10
3.451863
 20
79.399438
 30
0.0
 10
3.451863
 20
79.272438
 30
0.0
 10
4.002197
 20
79.272438
 30
0.0
 10
4.002197
 20
79.399438
 30
0.0
 10
3.917530
 20
79.314771
 30
0.0
 10
4.510197
 20
78.764438
 30
0.0
 10
4.594863
 20
78.849105
 30
0.0
 10
4.467863
 20
78.849105
 30
0.0
 10
4.467863
 20
78.298771
 30
0.0
 10
4.721863
 20
78.298771
 30
0.0
 10
4.721863
 20
78.849105
 30
0.0
 10
4.679530
 20
78.933771
 30
0.0
 10
4.086863
 20
79.484105
 30
0.0
 10
4.002197
 20
79.526438
 30
0.0
 10
3.451863
 20
79.526438
 30
0.0
 10
3.367197
 20
79.484105
 30
0.0
 10
2.816863
 20
78.933771
 30
0.0
 10
2.774530
 20
78.849105
 30
0.0
 10
2.774530
 20
77.748438
 30
0.0
 10
2.816863
 20
77.663771
 30
0.0
  0
LWPOLYLINE
  5
19e
100
AcDbEntity
  8
DIMENSIONS
 62
7
100
AcDbPolyline
 90
3
 70
1
 10
59.882195
 20
106.958437
 30
0.0
 10
59.882195
 20
106.492771
 30
0.0
 10
58.485195
 20
106.746771
 30
0.0
  0
LWPOLYLINE
  5
19f
100
AcDbEntity
  8
DIMENSIONS
 62
7
100
AcDbPolyline
 90
3
 70
1
 10
167.916860
 20
106.958437
 30
0.0
 10
167.916860
 20
106.492771
 30
0.0
 10
169.313860
 20
106.746771
 30
0.0
  0
LWPOLYLINE
  5
1a0
100
AcDbEntity
  8
DIMENSIONS
 62
7
100
AcDbPolyline
 90
9
 70
1
 10
109.877861
 20
109.964104
 30
0.0
 10
110.047194
 20
109.794771
 30
0.0
 10
110.639861
 20
110.345104
 30
0.0
 10
110.555194
 20
110.429771
 30
0.0
 10
110.428194
 20
110.429771
 30
0.0
 10
110.428194
 20
107.085437
 30
0.0
 10
110.682194
 20
107.085437
 30
0.0
 10
110.682194
 20
110.429771
 30
0.0
 10
110.470528
 20
110.514437
 30
0.0
  0
LWPOLYLINE
  5
1a1
100
AcDbEntity
  8
DIMENSIONS
 62
7
100
AcDbPolyline
 90
4
 70
1
 10
109.962528
 20
107.212437
 30
0.0
 10
109.962528
 20
106.958437
 30
0.0
 10
111.105528
 20
106.958437
 30
0.0
 10
111.105528
 20
107.212437
 30
0.0
  0
LWPOLYLINE
  5
1a2
100
AcDbEntity
  8
DIMENSIONS
 62
7
100
AcDbPolyline
 90
54
 70
1
 10
116.058527
 20
107.000771
 30
0.0
 10
116.227861
 20
107.170104
 30
0.0
 10
115.677527
 20
107.720437
 30
0.0
 10
115.592861
 20
107.635771
 30
0.0
 10
115.719861
 20
107.635771
 30
0.0
 10
115.719861
 20
108.186104
 30
0.0
 10
115.592861
 20
108.186104
 30
0.0
 10
115.677527
 20
108.101437
 30
0.0
 10
116.227861
 20
108.651771
 30
0.0
 10
116.143194
 20
108.736437
 30
0.0
 10
116.143194
 20
108.609437
 30
0.0
 10
117.243861
 20
108.609437
 30
0.0
 10
117.328527
 20
108.651771
 30
0.0
 10
117.921194
 20
109.244437
 30
0.0
 10
117.963527
 20
109.329104
 30
0.0
 10
117.963527
 20
109.879437
 30
0.0
 10
117.921194
 20
109.964104
 30
0.0
 10
117.328527
 20
110.514437
 30
0.0
 10
117.243861
 20
110.556771
 30
0.0
 10
116.143194
 20
110.556771
 30
0.0
 10
116.058527
 20
110.514437
 30
0.0
 10
115.508194
 20
109.964104
 30
0.0
 10
115.465861
 20
109.879437
 30
0.0
 10
115.465861
 20
109.329104
 30
0.0
 10
115.508194
 20
109.244437
 30
0.0
 10
116.058527
 20
108.651771
 30
0.0
 10
116.227861
 20
108.821104
 30
0.0
 10
115.677527
 20
109.413771
 30
0.0
 10
115.592861
 20
109.329104
 30
0.0
 10
115.719861
 20
109.329104
 30
0.0
 10
115.719861
 20
109.879437
 30
0.0
 10
115.592861
 20
109.879437
 30
0.0
 10
115.677527
 20
109.794771
 30
0.0
 10
116.227861
 20
110.345104
 30
0.0
 10
116.143194
 20
110.429771
 30
0.0
 10
116.143194
 20
110.302771
 30
0.0
 10
117.243861
 20
110.302771
 30
0.0
 10
117.243861
 20
110.429771
 30
0.0
 10
117.159194
 20
110.345104
 30
0.0
 10
117.751861
 20
109.794771
 30
0.0
 10
117.836527
 20
109.879437
 30
0.0
 10
117.709527
 20
109.879437
 30
0.0
 10
117.709527
 20
109.329104
 30
0.0
 10
117.836527
 20
109.329104
 30
0.0
 10
117.751861
 20
109.413771
 30
0.0
 10
117.159194
 20
108.821104
 30
0.0
 10
117.243861
 20
108.736437
 30
0.0
 10
117.243861
 20
108.863437
 30
0.0
 10
116.143194
 20
108.863437
 30
0.0
 10
116.058527
 20
108.821104
 30
0.0
 10
115.508194
 20
108.270771
 30
0.0
 10
115.465861
 20
108.186104
 30
0.0
 10
115.465861
 20
107.635771
 30
0.0
 10
115.508194
 20
107.551104
 30
0.0
  0
LWPOLYLINE
  5
1a3
100
AcDbEntity
  8
DIMENSIONS
 62
7
100
AcDbPolyline
 90
19
 70
1
 10
117.328527
 20
108.821104
 30
0.0
 10
117.159194
 20
108.651771
 30
0.0
 10
117.751861
 20
108.101437
 30
0.0
 10
117.836527
 20
108.186104
 30
0.0
 10
117.709527
 20
108.186104
 30
0.0
 10
117.709527
 20
107.635771
 30
0.0
 10
117.836527
 20
107.635771
 30
0.0
 10
117.751861
 20
107.720437
 30
0.0
 10
117.159194
 20
107.170104
 30
0.0
 10
117.243861
 20
107.085437
 30
0.0
 10
117.243861
 20
107.212437
 30
0.0
 10
116.143194
 20
107.212437
 30
0.0
 10
116.143194
 20
106.958437
 30
0.0
 10
117.243861
 20
106.958437
 30
0.0
 10
117.328527
 20
107.000771
 30
0.0
 10
117.921194
 20
107.551104
 30
0.0
 10
117.963527
 20
107.635771
 30
0.0
 10
117.963527
 20
108.186104
 30
0.0
 10
117.921194
 20
108.270771
 30
0.0
  0
LWPOLYLINE
  5
1a4
100
AcDbEntity
  8
DIMENSIONS
 62
7
100
AcDbPolyline
 90
3
 70
1
 10
73.301862
 20
100.947104
 30
0.0
 10
73.301862
 20
100.481437
 30
0.0
 10
71.904862
 20
100.693104
 30
0.0
  0
LWPOLYLINE
  5
1a5
100
AcDbEntity
  8
DIMENSIONS
 62
7
100
AcDbPolyline
 90
14
 70
1
 10
70.507862
 20
102.047771
 30
0.0
 10
70.507862
 20
102.301771
 30
0.0
 10
68.264195
 20
102.301771
 30
0.0
 10
68.264195
 20
102.174771
 30
0.0
 10
68.348862
 20
102.090104
 30
0.0
 10
70.042195
 20
104.333771
 30
0.0
 10
69.957528
 20
104.418437
 30
0.0
 10
69.830528
 20
104.418437
 30
0.0
 10
69.830528
 20
101.031771
 30
0.0
 10
70.084528
 20
101.031771
 30
0.0
 10
70.084528
 20
104.418437
 30
0.0
 10
69.830528
 20
104.460771
 30
0.0
 10
68.137195
 20
102.217104
 30
0.0
 10
68.264195
 20
102.047771
 30
0.0
  0
LWPOLYLINE
  5
1a6
100
AcDbEntity
  8
DIMENSIONS
 62
7
100
AcDbPolyline
 90
3
 70
1
 10
34.143529
 20
114.409104
 30
0.0
 10
34.143529
 20
113.943437
 30
0.0
 10
32.746529
 20
114.197437
 30
0.0
  0
LWPOLYLINE
  5
1a7
100
AcDbEntity
  8
DIMENSIONS
 62
7
100
AcDbPolyline
 90
3
 70
1
 10
176.891526
 20
114.409104
 30
0.0
 10
176.891526
 20
113.943437
 30
0.0
 10
178.288526
 20
114.197437
 30
0.0
  0
LWPOLYLINE
  5
1a8
100
AcDbEntity
  8
DIMENSIONS
 62
7
100
AcDbPolyline
 90
44
 70
1
 10
101.199528
 20
117.414770
 30
0.0
 10
101.368861
 20
117.245437
 30
0.0
 10
101.961528
 20
117.795770
 30
0.0
 10
101.876861
 20
117.880437
 30
0.0
 10
101.876861
 20
117.753437
 30
0.0
 10
102.977528
 20
117.753437
 30
0.0
 10
102.977528
 20
117.880437
 30
0.0
 10
102.892861
 20
117.795770
 30
0.0
 10
103.443194
 20
117.245437
 30
0.0
 10
103.527861
 20
117.330104
 30
0.0
 10
103.400861
 20
117.330104
 30
0.0
 10
103.400861
 20
116.779770
 30
0.0
 10
103.527861
 20
116.779770
 30
0.0
 10
103.443194
 20
116.864437
 30
0.0
 10
102.892861
 20
116.271770
 30
0.0
 10
102.977528
 20
116.187104
 30
0.0
 10
102.977528
 20
116.314104
 30
0.0
 10
101.876861
 20
116.314104
 30
0.0
 10
101.792194
 20
116.271770
 30
0.0
 10
101.199528
 20
115.721437
 30
0.0
 10
101.157194
 20
115.636770
 30
0.0
 10
101.157194
 20
114.536104
 30
0.0
 10
101.284194
 20
114.409104
 30
0.0
 10
103.527861
 20
114.409104
 30
0.0
 10
103.527861
 20
114.663104
 30
0.0
 10
101.284194
 20
114.663104
 30
0.0
 10
101.284194
 20
114.536104
 30
0.0
 10
101.411194
 20
114.536104
 30
0.0
 10
101.411194
 20
115.636770
 30
0.0
 10
101.284194
 20
115.636770
 30
0.0
 10
101.368861
 20
115.552104
 30
0.0
 10
101.961528
 20
116.102437
 30
0.0
 10
101.876861
 20
116.187104
 30
0.0
 10
101.876861
 20
116.060104
 30
0.0
 10
102.977528
 20
116.060104
 30
0.0
 10
103.062194
 20
116.102437
 30
0.0
 10
103.612528
 20
116.695104
 30
0.0
 10
103.654861
 20
116.779770
 30
0.0
 10
103.654861
 20
117.330104
 30
0.0
 10
103.612528
 20
117.414770
 30
0.0
 10
103.062194
 20
117.965104
 30
0.0
 10
102.977528
 20
118.007437
 30
0.0
 10
101.876861
 20
118.007437
 30
0.0
 10
101.792194
 20
117.965104
 30
0.0
  0
LWPOLYLINE
  5
1a9
100
AcDbEntity
  8
DIMENSIONS
 62
7
100
AcDbPolyline
 90
44
 70
1
 10
104.670861
 20
116.314104
 30
0.0
 10
104.670861
 20
116.060104
 30
0.0
 10
106.321861
 20
116.060104
 30
0.0
 10
106.321861
 20
116.187104
 30
0.0
 10
106.237194
 20
116.102437
 30
0.0
 10
106.829861
 20
115.552104
 30
0.0
 10
106.914528
 20
115.636770
 30
0.0
 10
106.787528
 20
115.636770
 30
0.0
 10
106.787528
 20
115.086437
 30
0.0
 10
106.914528
 20
115.086437
 30
0.0
 10
106.829861
 20
115.171104
 30
0.0
 10
106.237194
 20
114.620770
 30
0.0
 10
106.321861
 20
114.536104
 30
0.0
 10
106.321861
 20
114.663104
 30
0.0
 10
105.221194
 20
114.663104
 30
0.0
 10
105.221194
 20
114.536104
 30
0.0
 10
105.305861
 20
114.620770
 30
0.0
 10
104.755528
 20
115.171104
 30
0.0
 10
104.670861
 20
115.086437
 30
0.0
 10
104.797861
 20
115.086437
 30
0.0
 10
104.797861
 20
116.779770
 30
0.0
 10
104.670861
 20
116.779770
 30
0.0
 10
104.755528
 20
116.695104
 30
0.0
 10
105.856194
 20
117.795770
 30
0.0
 10
105.771528
 20
117.880437
 30
0.0
 10
105.771528
 20
117.753437
 30
0.0
 10
106.321861
 20
117.753437
 30
0.0
 10
106.321861
 20
118.007437
 30
0.0
 10
105.771528
 20
118.007437
 30
0.0
 10
105.686861
 20
117.965104
 30
0.0
 10
104.586194
 20
116.864437
 30
0.0
 10
104.543861
 20
116.779770
 30
0.0
 10
104.543861
 20
115.086437
 30
0.0
 10
104.586194
 20
115.001770
 30
0.0
 10
105.136528
 20
114.451437
 30
0.0
 10
105.221194
 20
114.409104
 30
0.0
 10
106.321861
 20
114.409104
 30
0.0
 10
106.406528
 20
114.451437
 30
0.0
 10
106.999194
 20
115.001770
 30
0.0
 10
107.041528
 20
115.086437
 30
0.0
 10
107.041528
 20
115.636770
 30
0.0
 10
106.999194
 20
115.721437
 30
0.0
 10
106.406528
 20
116.271770
 30
0.0
 10
106.321861
 20
116.314104
 30
0.0
  0
LWPOLYLINE
  5
1aa
100
AcDbEntity
  8
DIMENSIONS
 62
7
100
AcDbPolyline
 90
39
 70
1
 10
108.480861
 20
114.451437
 30
0.0
 10
108.650194
 20
114.620770
 30
0.0
 10
108.099861
 20
115.171104
 30
0.0
 10
108.015194
 20
115.086437
 30
0.0
 10
108.142194
 20
115.086437
 30
0.0
 10
108.142194
 20
117.330104
 30
0.0
 10
108.015194
 20
117.330104
 30
0.0
 10
108.099861
 20
117.245437
 30
0.0
 10
108.650194
 20
117.795770
 30
0.0
 10
108.565528
 20
117.880437
 30
0.0
 10
108.565528
 20
117.753437
 30
0.0
 10
109.158194
 20
117.753437
 30
0.0
 10
109.158194
 20
117.880437
 30
0.0
 10
109.073528
 20
117.795770
 30
0.0
 10
109.623861
 20
117.245437
 30
0.0
 10
109.708528
 20
117.330104
 30
0.0
 10
109.581528
 20
117.330104
 30
0.0
 10
109.581528
 20
115.086437
 30
0.0
 10
109.708528
 20
115.086437
 30
0.0
 10
109.623861
 20
115.171104
 30
0.0
 10
109.073528
 20
114.620770
 30
0.0
 10
109.158194
 20
114.536104
 30
0.0
 10
109.158194
 20
114.663104
 30
0.0
 10
108.565528
 20
114.663104
 30
0.0
 10
108.565528
 20
114.409104
 30
0.0
 10
109.158194
 20
114.409104
 30
0.0
 10
109.242861
 20
114.451437
 30
0.0
 10
109.793194
 20
115.001770
 30
0.0
 10
109.835528
 20
115.086437
 30
0.0
 10
109.835528
 20
117.330104
 30
0.0
 10
109.793194
 20
117.414770
 30
0.0
 10
109.242861
 20
117.965104
 30
0.0
 10
109.158194
 20
118.007437
 30
0.0
 10
108.565528
 20
118.007437
 30
0.0
 10
108.480861
 20
117.965104
 30
0.0
 10
107.930528
 20
117.414770
 30
0.0
 10
107.888194
 20
117.330104
 30
0.0
 10
107.888194
 20
115.086437
 30
0.0
 10
107.930528
 20
115.001770
 30
0.0
  0
LWPOLYLINE
  5
1ab
100
AcDbEntity
  8
DIMENSIONS
 62
7
100
AcDbPolyline
 90
3
 70
1
 10
202.079859
 20
84.437104
 30
0.0
 10
202.545526
 20
84.437104
 30
0.0
 10
202.291526
 20
85.834104
 30
0.0
  0
LWPOLYLINE
  5
1ac
100
AcDbEntity
  8
DIMENSIONS
 62
7
100
AcDbPolyline
 90
3
 70
1
 10
202.079859
 20
25.678439
 30
0.0
 10
202.545526
 20
25.678439
 30
0.0
 10
202.291526
 20
24.281439
 30
0.0
  0
LWPOLYLINE
  5
1ad
100
AcDbEntity
  8
DIMENSIONS
 62
7
100
AcDbPolyline
 90
9
 70
1
 10
199.074192
 20
51.925105
 30
0.0
 10
199.243526
 20
52.094439
 30
0.0
 10
198.693192
 20
52.644772
 30
0.0
 10
198.608526
 20
52.560105
 30
0.0
 10
198.608526
 20
52.433105
 30
0.0
 10
201.952859
 20
52.433105
 30
0.0
 10
201.952859
 20
52.687105
 30
0.0
 10
198.608526
 20
52.687105
 30
0.0
 10
198.523859
 20
52.475438
 30
0.0
  0
LWPOLYLINE
  5
1ae
100
AcDbEntity
  8
DIMENSIONS
 62
7
100
AcDbPolyline
 90
4
 70
1
 10
201.825859
 20
52.009772
 30
0.0
 10
202.079859
 20
52.009772
 30
0.0
 10
202.079859
 20
53.110438
 30
0.0
 10
201.825859
 20
53.110438
 30
0.0
  0
LWPOLYLINE
  5
1af
100
AcDbEntity
  8
DIMENSIONS
 62
7
100
AcDbPolyline
 90
9
 70
1
 10
199.074192
 20
54.126438
 30
0.0
 10
199.243526
 20
54.295772
 30
0.0
 10
198.693192
 20
54.888438
 30
0.0
 10
198.608526
 20
54.803772
 30
0.0
 10
198.608526
 20
54.676772
 30
0.0
 10
201.952859
 20
54.676772
 30
0.0
 10
201.952859
 20
54.930772
 30
0.0
 10
198.608526
 20
54.930772
 30
0.0
 10
198.523859
 20
54.719105
 30
0.0
  0
LWPOLYLINE
  5
1b0
100
AcDbEntity
  8
DIMENSIONS
 62
7
100
AcDbPolyline
 90
4
 70
1
 10
201.825859
 20
54.211105
 30
0.0
 10
202.079859
 20
54.211105
 30
0.0
 10
202.079859
 20
55.354105
 30
0.0
 10
201.825859
 20
55.354105
 30
0.0
  0
LWPOLYLINE
  5
1b1
100
AcDbEntity
  8
DIMENSIONS
 62
7
100
AcDbPolyline
 90
39
 70
1
 10
202.037526
 20
56.962772
 30
0.0
 10
201.868192
 20
57.132105
 30
0.0
 10
201.317859
 20
56.539438
 30
0.0
 10
201.402526
 20
56.454772
 30
0.0
 10
201.402526
 20
56.581772
 30
0.0
 10
199.158859
 20
56.581772
 30
0.0
 10
199.158859
 20
56.454772
 30
0.0
 10
199.243526
 20
56.539438
 30
0.0
 10
198.693192
 20
57.132105
 30
0.0
 10
198.608526
 20
57.047438
 30
0.0
 10
198.735526
 20
57.047438
 30
0.0
 10
198.735526
 20
57.597772
 30
0.0
 10
198.608526
 20
57.597772
 30
0.0
 10
198.693192
 20
57.513105
 30
0.0
 10
199.243526
 20
58.063438
 30
0.0
 10
199.158859
 20
58.148105
 30
0.0
 10
199.158859
 20
58.021105
 30
0.0
 10
201.402526
 20
58.021105
 30
0.0
 10
201.402526
 20
58.148105
 30
0.0
 10
201.317859
 20
58.063438
 30
0.0
 10
201.868192
 20
57.513105
 30
0.0
 10
201.952859
 20
57.597772
 30
0.0
 10
201.825859
 20
57.597772
 30
0.0
 10
201.825859
 20
57.047438
 30
0.0
 10
202.079859
 20
57.047438
 30
0.0
 10
202.079859
 20
57.597772
 30
0.0
 10
202.037526
 20
57.682438
 30
0.0
 10
201.487192
 20
58.232772
 30
0.0
 10
201.402526
 20
58.275105
 30
0.0
 10
199.158859
 20
58.275105
 30
0.0
 10
199.074192
 20
58.232772
 30
0.0
 10
198.523859
 20
57.682438
 30
0.0
 10
198.481526
 20
57.597772
 30
0.0
 10
198.481526
 20
57.047438
 30
0.0
 10
198.523859
 20
56.962772
 30
0.0
 10
199.074192
 20
56.370105
 30
0.0
 10
199.158859
 20
56.327772
 30
0.0
 10
201.402526
 20
56.327772
 30
0.0
 10
201.487192
 20
56.370105
 30
0.0
  0
LWPOLYLINE
  5
1b2
100
AcDbEntity
  8
DIMENSIONS
 62
7
100
AcDbPolyline
 90
3
 70
1
 10
197.253859
 20
33.510106
 30
0.0
 10
197.719526
 20
33.510106
 30
0.0
 10
197.507859
 20
32.113106
 30
0.0
  0
LWPOLYLINE
  5
1b3
100
AcDbEntity
  8
DIMENSIONS
 62
7
100
AcDbPolyline
 90
3
 70
1
 10
197.253859
 20
76.605438
 30
0.0
 10
197.719526
 20
76.605438
 30
0.0
 10
197.507859
 20
78.002438
 30
0.0
  0
LWPOLYLINE
  5
1b4
100
AcDbEntity
  8
DIMENSIONS
 62
7
100
AcDbPolyline
 90
54
 70
1
 10
197.253859
 20
52.729438
 30
0.0
 10
197.084526
 20
52.898772
 30
0.0
 10
196.491859
 20
52.348439
 30
0.0
 10
196.576526
 20
52.263772
 30
0.0
 10
196.576526
 20
52.390772
 30
0.0
 10
196.026192
 20
52.390772
 30
0.0
 10
196.026192
 20
52.263772
 30
0.0
 10
196.110859
 20
52.348439
 30
0.0
 10
195.560526
 20
52.898772
 30
0.0
 10
195.475859
 20
52.814105
 30
0.0
 10
195.602859
 20
52.814105
 30
0.0
 10
195.602859
 20
53.957105
 30
0.0
 10
195.560526
 20
54.041772
 30
0.0
 10
195.010192
 20
54.592105
 30
0.0
 10
194.925526
 20
54.634438
 30
0.0
 10
194.375192
 20
54.634438
 30
0.0
 10
194.290526
 20
54.592105
 30
0.0
 10
193.697859
 20
54.041772
 30
0.0
 10
193.655526
 20
53.957105
 30
0.0
 10
193.655526
 20
52.814105
 30
0.0
 10
193.697859
 20
52.729438
 30
0.0
 10
194.290526
 20
52.179105
 30
0.0
 10
194.375192
 20
52.136772
 30
0.0
 10
194.925526
 20
52.136772
 30
0.0
 10
195.010192
 20
52.179105
 30
0.0
 10
195.560526
 20
52.729438
 30
0.0
 10
195.391192
 20
52.898772
 30
0.0
 10
194.840859
 20
52.348439
 30
0.0
 10
194.925526
 20
52.263772
 30
0.0
 10
194.925526
 20
52.390772
 30
0.0
 10
194.375192
 20
52.390772
 30
0.0
 10
194.375192
 20
52.263772
 30
0.0
 10
194.459859
 20
52.348439
 30
0.0
 10
193.867192
 20
52.898772
 30
0.0
 10
193.782526
 20
52.814105
 30
0.0
 10
193.909526
 20
52.814105
 30
0.0
 10
193.909526
 20
53.957105
 30
0.0
 10
193.782526
 20
53.957105
 30
0.0
 10
193.867192
 20
53.872438
 30
0.0
 10
194.459859
 20
54.422772
 30
0.0
 10
194.375192
 20
54.507438
 30
0.0
 10
194.375192
 20
54.380438
 30
0.0
 10
194.925526
 20
54.380438
 30
0.0
 10
194.925526
 20
54.507438
 30
0.0
 10
194.840859
 20
54.422772
 30
0.0
 10
195.391192
 20
53.872438
 30
0.0
 10
195.475859
 20
53.957105
 30
0.0
 10
195.348859
 20
53.957105
 30
0.0
 10
195.348859
 20
52.814105
 30
0.0
 10
195.391192
 20
52.729438
 30
0.0
 10
195.941526
 20
52.179105
 30
0.0
 10
196.026192
 20
52.136772
 30
0.0
 10
196.576526
 20
52.136772
 30
0.0
 10
196.661192
 20
52.179105
 30
0.0
  0
LWPOLYLINE
  5
1b5
100
AcDbEntity
  8
DIMENSIONS
 62
7
100
AcDbPolyline
 90
19
 70
1
 10
195.391192
 20
54.041772
 30
0.0
 10
195.560526
 20
53.872438
 30
0.0
 10
196.110859
 20
54.422772
 30
0.0
 10
196.026192
 20
54.507438
 30
0.0
 10
196.026192
 20
54.380438
 30
0.0
 10
196.576526
 20
54.380438
 30
0.0
 10
196.576526
 20
54.507438
 30
0.0
 10
196.491859
 20
54.422772
 30
0.0
 10
197.084526
 20
53.872438
 30
0.0
 10
197.169192
 20
53.957105
 30
0.0
 10
197.042192
 20
53.957105
 30
0.0
 10
197.042192
 20
52.814105
 30
0.0
 10
197.296192
 20
52.814105
 30
0.0
 10
197.296192
 20
53.957105
 30
0.0
 10
197.253859
 20
54.041772
 30
0.0
 10
196.661192
 20
54.592105
 30
0.0
 10
196.576526
 20
54.634438
 30
0.0
 10
196.026192
 20
54.634438
 30
0.0
 10
195.941526
 20
54.592105
 30
0.0
  0
LWPOLYLINE
  5
1b6
100
AcDbEntity
  8
DIMENSIONS
 62
7
100
AcDbPolyline
 90
3
 70
1
 10
17.421863
 20
79.399438
 30
0.0
 10
17.887530
 20
79.399438
 30
0.0
 10
17.675863
 20
78.002438
 30
0.0
  0
LWPOLYLINE
  5
1b7
100
AcDbEntity
  8
DIMENSIONS
 62
7
100
AcDbPolyline
 90
3
 70
1
 10
17.421863
 20
74.361771
 30
0.0
 10
17.887530
 20
74.361771
 30
0.0
 10
17.675863
 20
75.758771
 30
0.0
  0
LWPOLYLINE
  5
1b8
100
AcDbEntity
  8
DIMENSIONS
 62
7
100
AcDbPolyline
 90
3
 70
1
 10
12.976863
 20
84.437104
 30
0.0
 10
13.442530
 20
84.437104
 30
0.0
 10
13.230863
 20
85.834104
 30
0.0
  0
LWPOLYLINE
  5
1b9
100
AcDbEntity
  8
DIMENSIONS
 62
7
100
AcDbPolyline
 90
3
 70
1
 10
12.976863
 20
77.198105
 30
0.0
 10
13.442530
 20
77.198105
 30
0.0
 10
13.230863
 20
75.758771
 30
0.0
  0
SPLINE
  5
1ba
100
AcDbEntity
  8
DIMENSIONS
 62
7
100
AcDbSpline
 70
8
 71
3
 72
8
 73
4
 74
0
 40
0
 40
0
 40
0
 40
0
 40
1
 40
1
 40
1
 40
1
 10
12.976863
 20
81.304438
 30
0.0
 10
12.976863
 20
81.304438
 30
0.0
 10
12.887353
 20
81.473771
 30
0.0
 10
12.807530
 20
81.473771
 30
0.0
  0
SPLINE
  5
1bb
100
AcDbEntity
  8
DIMENSIONS
 62
7
100
AcDbSpline
 70
8
 71
3
 72
8
 73
4
 74
0
 40
0
 40
0
 40
0
 40
0
 40
1
 40
1
 40
1
 40
1
 10
12.807530
 20
81.473771
 30
0.0
 10
12.528144
 20
81.473771
 30
0.0
 10
12.214863
 20
80.881105
 30
0.0
 10
12.214863
 20
80.881105
 30
0.0
  0
LWPOLYLINE
  5
1bc
100
AcDbEntity
  8
DIMENSIONS
 62
7
100
AcDbPolyline
 90
4
 70
1
 10
12.765196
 20
78.595105
 30
0.0
 10
13.019196
 20
78.595105
 30
0.0
 10
13.019196
 20
79.695771
 30
0.0
 10
12.765196
 20
79.695771
 30
0.0
  0
LWPOLYLINE
  5
1bd
100
AcDbEntity
  8
DIMENSIONS
 62
7
100
AcDbPolyline
 90
53
 70
0
 10
12.214863
 20
80.881105
 30
0.0
 10
12.299530
 20
80.796438
 30
0.0
 10
12.299530
 20
80.923438
 30
0.0
 10
11.749196
 20
80.923438
 30
0.0
 10
11.749196
 20
80.796438
 30
0.0
 10
11.833863
 20
80.881105
 30
0.0
 10
11.283530
 20
81.473771
 30
0.0
 10
11.198863
 20
81.389105
 30
0.0
 10
11.325863
 20
81.389105
 30
0.0
 10
11.325863
 20
82.489771
 30
0.0
 10
11.283530
 20
82.574438
 30
0.0
 10
10.733196
 20
83.124771
 30
0.0
 10
10.648530
 20
83.167104
 30
0.0
 10
10.055863
 20
83.167104
 30
0.0
 10
9.971196
 20
83.124771
 30
0.0
 10
9.420863
 20
82.574438
 30
0.0
 10
9.378530
 20
82.489771
 30
0.0
 10
9.378530
 20
81.389105
 30
0.0
 10
9.420863
 20
81.304438
 30
0.0
 10
9.971196
 20
80.711771
 30
0.0
 10
10.055863
 20
80.669438
 30
0.0
 10
10.648530
 20
80.669438
 30
0.0
 10
10.733196
 20
80.711771
 30
0.0
 10
11.283530
 20
81.304438
 30
0.0
 10
11.114196
 20
81.473771
 30
0.0
 10
10.563863
 20
80.881105
 30
0.0
 10
10.648530
 20
80.796438
 30
0.0
 10
10.648530
 20
80.923438
 30
0.0
 10
10.055863
 20
80.923438
 30
0.0
 10
10.055863
 20
80.796438
 30
0.0
 10
10.140530
 20
80.881105
 30
0.0
 10
9.590196
 20
81.473771
 30
0.0
 10
9.505530
 20
81.389105
 30
0.0
 10
9.632530
 20
81.389105
 30
0.0
 10
9.632530
 20
82.489771
 30
0.0
 10
9.505530
 20
82.489771
 30
0.0
 10
9.590196
 20
82.405105
 30
0.0
 10
10.140530
 20
82.955438
 30
0.0
 10
10.055863
 20
83.040104
 30
0.0
 10
10.055863
 20
82.913104
 30
0.0
 10
10.648530
 20
82.913104
 30
0.0
 10
10.648530
 20
83.040104
 30
0.0
 10
10.563863
 20
82.955438
 30
0.0
 10
11.114196
 20
82.405105
 30
0.0
 10
11.198863
 20
82.489771
 30
0.0
 10
11.071863
 20
82.489771
 30
0.0
 10
11.071863
 20
81.389105
 30
0.0
 10
11.114196
 20
81.304438
 30
0.0
 10
11.664530
 20
80.711771
 30
0.0
 10
11.749196
 20
80.669438
 30
0.0
 10
12.299530
 20
80.669438
 30
0.0
 10
12.384196
 20
80.711771
 30
0.0
 10
12.976863
 20
81.304438
 30
0.0
  0
LWPOLYLINE
  5
1be
100
AcDbEntity
  8
DIMENSIONS
 62
7
100
AcDbPolyline
 90
3
 70
1
 10
12.638196
 20
65.979772
 30
0.0
 10
13.103863
 20
65.979772
 30
0.0
 10
12.849863
 20
67.376772
 30
0.0
  0
LWPOLYLINE
  5
1bf
100
AcDbEntity
  8
DIMENSIONS
 62
7
100
AcDbPolyline
 90
3
 70
1
 10
6.372863
 20
68.773771
 30
0.0
 10
6.838530
 20
68.773771
 30
0.0
 10
6.626863
 20
67.376772
 30
0.0
  0
LWPOLYLINE
  5
1c0
100
AcDbEntity
  8
DIMENSIONS
 62
7
100
AcDbPolyline
 90
18
 70
1
 10
169.186860
 20
98.999771
 30
0.0
 10
169.186860
 20
98.957437
 30
0.0
 10
169.186860
 20
98.915104
 30
0.0
 10
169.229193
 20
98.872771
 30
0.0
 10
169.271526
 20
98.872771
 30
0.0
 10
169.313860
 20
98.872771
 30
0.0
 10
169.356193
 20
98.872771
 30
0.0
 10
169.398526
 20
98.915104
 30
0.0
 10
169.440860
 20
98.957437
 30
0.0
 10
169.440860
 20
102.259437
 30
0.0
 10
169.398526
 20
102.301771
 30
0.0
 10
169.398526
 20
102.344104
 30
0.0
 10
169.356193
 20
102.386437
 30
0.0
 10
169.313860
 20
102.386437
 30
0.0
 10
169.271526
 20
102.386437
 30
0.0
 10
169.229193
 20
102.386437
 30
0.0
 10
169.186860
 20
102.344104
 30
0.0
 10
169.186860
 20
102.301771
 30
0.0
  0
LWPOLYLINE
  5
1c1
100
AcDbEntity
  8
DIMENSIONS
 62
7
100
AcDbPolyline
 90
18
 70
1
 10
155.767193
 20
98.999771
 30
0.0
 10
155.767193
 20
98.957437
 30
0.0
 10
155.767193
 20
98.915104
 30
0.0
 10
155.809527
 20
98.872771
 30
0.0
 10
155.851860
 20
98.872771
 30
0.0
 10
155.894193
 20
98.872771
 30
0.0
 10
155.936527
 20
98.872771
 30
0.0
 10
155.978860
 20
98.915104
 30
0.0
 10
156.021193
 20
98.957437
 30
0.0
 10
156.021193
 20
102.259437
 30
0.0
 10
155.978860
 20
102.301771
 30
0.0
 10
155.978860
 20
102.344104
 30
0.0
 10
155.936527
 20
102.386437
 30
0.0
 10
155.894193
 20
102.386437
 30
0.0
 10
155.851860
 20
102.386437
 30
0.0
 10
155.809527
 20
102.386437
 30
0.0
 10
155.767193
 20
102.344104
 30
0.0
 10
155.767193
 20
102.301771
 30
0.0
  0
LWPOLYLINE
  5
1c2
100
AcDbEntity
  8
DIMENSIONS
 62
7
100
AcDbPolyline
 90
18
 70
1
 10
167.916860
 20
101.497437
 30
0.0
 10
167.959193
 20
101.497437
 30
0.0
 10
168.001526
 20
101.539771
 30
0.0
 10
168.001526
 20
101.582104
 30
0.0
 10
168.001526
 20
101.624437
 30
0.0
 10
168.001526
 20
101.666771
 30
0.0
 10
167.959193
 20
101.709104
 30
0.0
 10
167.916860
 20
101.709104
 30
0.0
 10
167.874526
 20
101.751437
 30
0.0
 10
157.248860
 20
101.751437
 30
0.0
 10
157.206527
 20
101.709104
 30
0.0
 10
157.164193
 20
101.666771
 30
0.0
 10
157.164193
 20
101.624437
 30
0.0
 10
157.164193
 20
101.582104
 30
0.0
 10
157.164193
 20
101.539771
 30
0.0
 10
157.206527
 20
101.497437
 30
0.0
 10
157.248860
 20
101.497437
 30
0.0
 10
157.291193
 20
101.497437
 30
0.0
  0
LWPOLYLINE
  5
1c3
100
AcDbEntity
  8
DIMENSIONS
 62
7
100
AcDbPolyline
 90
3
 70
1
 10
167.916860
 20
101.836104
 30
0.0
 10
167.916860
 20
101.370437
 30
0.0
 10
169.313860
 20
101.624437
 30
0.0
  0
LWPOLYLINE
  5
1c4
100
AcDbEntity
  8
DIMENSIONS
 62
7
100
AcDbPolyline
 90
3
 70
1
 10
157.291193
 20
101.836104
 30
0.0
 10
157.291193
 20
101.370437
 30
0.0
 10
155.894193
 20
101.624437
 30
0.0
  0
LWPOLYLINE
  5
1c5
100
AcDbEntity
  8
DIMENSIONS
 62
7
100
AcDbPolyline
 90
44
 70
1
 10
159.704193
 20
104.841771
 30
0.0
 10
159.873526
 20
104.672437
 30
0.0
 10
160.423860
 20
105.222771
 30
0.0
 10
160.339193
 20
105.307437
 30
0.0
 10
160.339193
 20
105.180437
 30
0.0
 10
161.482193
 20
105.180437
 30
0.0
 10
161.482193
 20
105.307437
 30
0.0
 10
161.397526
 20
105.222771
 30
0.0
 10
161.947860
 20
104.672437
 30
0.0
 10
162.032526
 20
104.757104
 30
0.0
 10
161.905526
 20
104.757104
 30
0.0
 10
161.905526
 20
104.206771
 30
0.0
 10
162.032526
 20
104.206771
 30
0.0
 10
161.947860
 20
104.291437
 30
0.0
 10
161.397526
 20
103.741104
 30
0.0
 10
161.482193
 20
103.656437
 30
0.0
 10
161.482193
 20
103.783437
 30
0.0
 10
160.339193
 20
103.783437
 30
0.0
 10
160.254526
 20
103.741104
 30
0.0
 10
159.704193
 20
103.190771
 30
0.0
 10
159.661860
 20
103.106104
 30
0.0
 10
159.661860
 20
101.963104
 30
0.0
 10
159.788860
 20
101.836104
 30
0.0
 10
162.032526
 20
101.836104
 30
0.0
 10
162.032526
 20
102.090104
 30
0.0
 10
159.788860
 20
102.090104
 30
0.0
 10
159.788860
 20
101.963104
 30
0.0
 10
159.915860
 20
101.963104
 30
0.0
 10
159.915860
 20
103.106104
 30
0.0
 10
159.788860
 20
103.106104
 30
0.0
 10
159.873526
 20
103.021437
 30
0.0
 10
160.423860
 20
103.571771
 30
0.0
 10
160.339193
 20
103.656437
 30
0.0
 10
160.339193
 20
103.529437
 30
0.0
 10
161.482193
 20
103.529437
 30
0.0
 10
161.566860
 20
103.571771
 30
0.0
 10
162.117193
 20
104.122104
 30
0.0
 10
162.159526
 20
104.206771
 30
0.0
 10
162.159526
 20
104.757104
 30
0.0
 10
162.117193
 20
104.841771
 30
0.0
 10
161.566860
 20
105.392104
 30
0.0
 10
161.482193
 20
105.434437
 30
0.0
 10
160.339193
 20
105.434437
 30
0.0
 10
160.254526
 20
105.392104
 30
0.0
  0
LWPOLYLINE
  5
1c6
100
AcDbEntity
  8
DIMENSIONS
 62
7
100
AcDbPolyline
 90
14
 70
1
 10
165.376860
 20
102.979104
 30
0.0
 10
165.376860
 20
103.233104
 30
0.0
 10
163.175526
 20
103.233104
 30
0.0
 10
163.175526
 20
103.106104
 30
0.0
 10
163.260193
 20
103.021437
 30
0.0
 10
164.911193
 20
105.222771
 30
0.0
 10
164.826526
 20
105.307437
 30
0.0
 10
164.699526
 20
105.307437
 30
0.0
 10
164.699526
 20
101.963104
 30
0.0
 10
164.953526
 20
101.963104
 30
0.0
 10
164.953526
 20
105.307437
 30
0.0
 10
164.699526
 20
105.349771
 30
0.0
 10
163.048526
 20
103.148437
 30
0.0
 10
163.175526
 20
102.979104
 30
0.0
  0
LWPOLYLINE
  5
1c7
100
AcDbEntity
  8
DIMENSIONS
 62
7
100
AcDbPolyline
 90
3
 70
1
 10
98.490194
 20
14.036773
 30
0.0
 10
98.490194
 20
13.571106
 30
0.0
 10
99.887194
 20
13.782773
 30
0.0
  0
LWPOLYLINE
  5
1c8
100
AcDbEntity
  8
DIMENSIONS
 62
7
100
AcDbPolyline
 90
39
 70
1
 10
87.229528
 20
14.036773
 30
0.0
 10
87.398861
 20
14.206106
 30
0.0
 10
86.848528
 20
14.798773
 30
0.0
 10
86.763861
 20
14.714106
 30
0.0
 10
86.890861
 20
14.714106
 30
0.0
 10
86.890861
 20
16.915439
 30
0.0
 10
86.763861
 20
16.915439
 30
0.0
 10
86.848528
 20
16.830773
 30
0.0
 10
87.398861
 20
17.423439
 30
0.0
 10
87.314195
 20
17.508106
 30
0.0
 10
87.314195
 20
17.381106
 30
0.0
 10
87.864528
 20
17.381106
 30
0.0
 10
87.864528
 20
17.508106
 30
0.0
 10
87.779861
 20
17.423439
 30
0.0
 10
88.330195
 20
16.830773
 30
0.0
 10
88.414861
 20
16.915439
 30
0.0
 10
88.287861
 20
16.915439
 30
0.0
 10
88.287861
 20
14.714106
 30
0.0
 10
88.414861
 20
14.714106
 30
0.0
 10
88.330195
 20
14.798773
 30
0.0
 10
87.779861
 20
14.206106
 30
0.0
 10
87.864528
 20
14.121439
 30
0.0
 10
87.864528
 20
14.248439
 30
0.0
 10
87.314195
 20
14.248439
 30
0.0
 10
87.314195
 20
13.994439
 30
0.0
 10
87.864528
 20
13.994439
 30
0.0
 10
87.949195
 20
14.036773
 30
0.0
 10
88.499528
 20
14.629439
 30
0.0
 10
88.541861
 20
14.714106
 30
0.0
 10
88.541861
 20
16.915439
 30
0.0
 10
88.499528
 20
17.000106
 30
0.0
 10
87.949195
 20
17.592773
 30
0.0
 10
87.864528
 20
17.635106
 30
0.0
 10
87.314195
 20
17.635106
 30
0.0
 10
87.229528
 20
17.592773
 30
0.0
 10
86.679195
 20
17.000106
 30
0.0
 10
86.636861
 20
16.915439
 30
0.0
 10
86.636861
 20
14.714106
 30
0.0
 10
86.679195
 20
14.629439
 30
0.0
  0
LWPOLYLINE
  5
1c9
100
AcDbEntity
  8
DIMENSIONS
 62
7
100
AcDbPolyline
 90
3
 70
1
 10
101.284194
 20
13.825106
 30
0.0
 10
101.284194
 20
13.359439
 30
0.0
 10
99.887194
 20
13.613439
 30
0.0
  0
LWPOLYLINE
  5
1ca
100
AcDbEntity
  8
DIMENSIONS
 62
7
100
AcDbPolyline
 90
3
 70
1
 10
126.472527
 20
13.825106
 30
0.0
 10
126.472527
 20
13.359439
 30
0.0
 10
127.911860
 20
13.613439
 30
0.0
  0
LWPOLYLINE
  5
1cb
100
AcDbEntity
  8
DIMENSIONS
 62
7
100
AcDbPolyline
 90
39
 70
1
 10
111.444194
 20
14.587106
 30
0.0
 10
111.274861
 20
14.417773
 30
0.0
 10
111.867528
 20
13.867439
 30
0.0
 10
111.952194
 20
13.825106
 30
0.0
 10
113.052861
 20
13.825106
 30
0.0
 10
113.137527
 20
13.867439
 30
0.0
 10
113.687861
 20
14.417773
 30
0.0
 10
113.730194
 20
14.502439
 30
0.0
 10
113.730194
 20
15.645439
 30
0.0
 10
113.687861
 20
15.730106
 30
0.0
 10
113.137527
 20
16.280439
 30
0.0
 10
113.052861
 20
16.322773
 30
0.0
 10
111.359528
 20
16.322773
 30
0.0
 10
111.359528
 20
16.195773
 30
0.0
 10
111.486528
 20
16.195773
 30
0.0
 10
111.486528
 20
17.338773
 30
0.0
 10
111.359528
 20
17.338773
 30
0.0
 10
111.359528
 20
17.211773
 30
0.0
 10
113.603194
 20
17.211773
 30
0.0
 10
113.603194
 20
17.465773
 30
0.0
 10
111.359528
 20
17.465773
 30
0.0
 10
111.232528
 20
17.338773
 30
0.0
 10
111.232528
 20
16.195773
 30
0.0
 10
111.359528
 20
16.068773
 30
0.0
 10
113.052861
 20
16.068773
 30
0.0
 10
113.052861
 20
16.195773
 30
0.0
 10
112.968194
 20
16.111106
 30
0.0
 10
113.518527
 20
15.560773
 30
0.0
 10
113.603194
 20
15.645439
 30
0.0
 10
113.476194
 20
15.645439
 30
0.0
 10
113.476194
 20
14.502439
 30
0.0
 10
113.603194
 20
14.502439
 30
0.0
 10
113.518527
 20
14.587106
 30
0.0
 10
112.968194
 20
14.036773
 30
0.0
 10
113.052861
 20
13.952106
 30
0.0
 10
113.052861
 20
14.079106
 30
0.0
 10
111.952194
 20
14.079106
 30
0.0
 10
111.952194
 20
13.952106
 30
0.0
 10
112.036861
 20
14.036773
 30
0.0
  0
LWPOLYLINE
  5
1cc
100
AcDbEntity
  8
DIMENSIONS
 62
7
100
AcDbPolyline
 90
39
 70
1
 10
115.211861
 20
13.867439
 30
0.0
 10
115.381194
 20
14.036773
 30
0.0
 10
114.830861
 20
14.587106
 30
0.0
 10
114.746194
 20
14.502439
 30
0.0
 10
114.873194
 20
14.502439
 30
0.0
 10
114.873194
 20
16.746106
 30
0.0
 10
114.746194
 20
16.746106
 30
0.0
 10
114.830861
 20
16.661439
 30
0.0
 10
115.381194
 20
17.254106
 30
0.0
 10
115.296527
 20
17.338773
 30
0.0
 10
115.296527
 20
17.211773
 30
0.0
 10
115.846861
 20
17.211773
 30
0.0
 10
115.846861
 20
17.338773
 30
0.0
 10
115.762194
 20
17.254106
 30
0.0
 10
116.312527
 20
16.661439
 30
0.0
 10
116.397194
 20
16.746106
 30
0.0
 10
116.270194
 20
16.746106
 30
0.0
 10
116.270194
 20
14.502439
 30
0.0
 10
116.397194
 20
14.502439
 30
0.0
 10
116.312527
 20
14.587106
 30
0.0
 10
115.762194
 20
14.036773
 30
0.0
 10
115.846861
 20
13.952106
 30
0.0
 10
115.846861
 20
14.079106
 30
0.0
 10
115.296527
 20
14.079106
 30
0.0
 10
115.296527
 20
13.825106
 30
0.0
 10
115.846861
 20
13.825106
 30
0.0
 10
115.931527
 20
13.867439
 30
0.0
 10
116.481861
 20
14.417773
 30
0.0
 10
116.524194
 20
14.502439
 30
0.0
 10
116.524194
 20
16.746106
 30
0.0
 10
116.481861
 20
16.830773
 30
0.0
 10
115.931527
 20
17.423439
 30
0.0
 10
115.846861
 20
17.465773
 30
0.0
 10
115.296527
 20
17.465773
 30
0.0
 10
115.211861
 20
17.423439
 30
0.0
 10
114.661527
 20
16.830773
 30
0.0
 10
114.619194
 20
16.746106
 30
0.0
 10
114.619194
 20
14.502439
 30
0.0
 10
114.661527
 20
14.417773
 30
0.0
  0
LWPOLYLINE
  5
1cd
100
AcDbEntity
  8
DIMENSIONS
 62
7
100
AcDbPolyline
 90
3
 70
1
 10
129.308860
 20
13.825106
 30
0.0
 10
129.308860
 20
13.359439
 30
0.0
 10
127.911860
 20
13.613439
 30
0.0
  0
LWPOLYLINE
  5
1ce
100
AcDbEntity
  8
DIMENSIONS
 62
7
100
AcDbPolyline
 90
34
 70
1
 10
185.612193
 20
54.211105
 30
0.0
 10
185.442859
 20
54.380438
 30
0.0
 10
184.892526
 20
53.787772
 30
0.0
 10
184.977193
 20
53.703105
 30
0.0
 10
184.977193
 20
53.830105
 30
0.0
 10
183.876526
 20
53.830105
 30
0.0
 10
183.876526
 20
53.703105
 30
0.0
 10
183.961193
 20
53.787772
 30
0.0
 10
183.410859
 20
54.380438
 30
0.0
 10
183.326193
 20
54.295772
 30
0.0
 10
183.453193
 20
54.295772
 30
0.0
 10
183.453193
 20
56.497105
 30
0.0
 10
183.326193
 20
56.497105
 30
0.0
 10
183.410859
 20
56.412438
 30
0.0
 10
183.961193
 20
57.005105
 30
0.0
 10
183.876526
 20
57.089772
 30
0.0
 10
183.876526
 20
56.962772
 30
0.0
 10
184.977193
 20
56.962772
 30
0.0
 10
184.977193
 20
57.089772
 30
0.0
 10
184.892526
 20
57.005105
 30
0.0
 10
185.442859
 20
56.412438
 30
0.0
 10
185.612193
 20
56.581772
 30
0.0
 10
185.061859
 20
57.174438
 30
0.0
 10
184.977193
 20
57.216772
 30
0.0
 10
183.876526
 20
57.216772
 30
0.0
 10
183.791859
 20
57.174438
 30
0.0
 10
183.241526
 20
56.581772
 30
0.0
 10
183.199193
 20
56.497105
 30
0.0
 10
183.199193
 20
54.295772
 30
0.0
 10
183.241526
 20
54.211105
 30
0.0
 10
183.791859
 20
53.618438
 30
0.0
 10
183.876526
 20
53.576105
 30
0.0
 10
184.977193
 20
53.576105
 30
0.0
 10
185.061859
 20
53.618438
 30
0.0
  0
LWPOLYLINE
  5
1cf
100
AcDbEntity
  8
DIMENSIONS
 62
7
100
AcDbPolyline
 90
39
 70
1
 10
29.486863
 20
146.413103
 30
0.0
 10
29.486863
 20
146.159103
 30
0.0
 10
35.074863
 20
146.159103
 30
0.0
 10
35.159533
 20
146.201433
 30
0.0
 10
37.022200
 20
148.064100
 30
0.0
 10
37.022200
 20
148.233433
 30
0.0
 10
35.159533
 20
150.096100
 30
0.0
 10
35.074863
 20
150.138430
 30
0.0
 10
31.349529
 20
150.138430
 30
0.0
 10
31.264859
 20
150.096100
 30
0.0
 10
29.402192
 20
148.233433
 30
0.0
 10
29.359862
 20
148.148763
 30
0.0
 10
29.359862
 20
144.423429
 30
0.0
 10
29.402192
 20
144.338759
 30
0.0
 10
31.264859
 20
142.476092
 30
0.0
 10
31.349529
 20
142.433762
 30
0.0
 10
35.074863
 20
142.433762
 30
0.0
 10
35.074863
 20
142.687762
 30
0.0
 10
31.349529
 20
142.687762
 30
0.0
 10
31.349529
 20
142.560762
 30
0.0
 10
31.434199
 20
142.645432
 30
0.0
 10
29.571532
 20
144.508098
 30
0.0
 10
29.486862
 20
144.423428
 30
0.0
 10
29.613862
 20
144.423428
 30
0.0
 10
29.613862
 20
148.148762
 30
0.0
 10
29.486862
 20
148.148762
 30
0.0
 10
29.571532
 20
148.064092
 30
0.0
 10
31.434199
 20
149.926759
 30
0.0
 10
31.349529
 20
150.011429
 30
0.0
 10
31.349529
 20
149.884429
 30
0.0
 10
35.074863
 20
149.884429
 30
0.0
 10
35.074863
 20
150.011429
 30
0.0
 10
34.990193
 20
149.926759
 30
0.0
 10
36.852859
 20
148.064092
 30
0.0
 10
36.937529
 20
148.148762
 30
0.0
 10
36.852859
 20
148.233432
 30
0.0
 10
34.990193
 20
146.370766
 30
0.0
 10
35.074863
 20
146.286096
 30
0.0
 10
35.074863
 20
146.413096
 30
0.0
  0
LWPOLYLINE
  5
1d0
100
AcDbEntity
  8
DIMENSIONS
 62
7
100
AcDbPolyline
 90
34
 70
1
 10
40.662862
 20
142.687770
 30
0.0
 10
40.662862
 20
142.433770
 30
0.0
 10
46.250862
 20
142.433770
 30
0.0
 10
46.335532
 20
142.476100
 30
0.0
 10
48.198199
 20
144.338767
 30
0.0
 10
48.198199
 20
144.508100
 30
0.0
 10
46.335532
 20
146.370767
 30
0.0
 10
46.250862
 20
146.413097
 30
0.0
 10
42.525529
 20
146.413097
 30
0.0
 10
42.525529
 20
146.286097
 30
0.0
 10
42.610199
 20
146.370767
 30
0.0
 10
40.747532
 20
148.233433
 30
0.0
 10
40.662862
 20
148.148763
 30
0.0
 10
40.747532
 20
148.064093
 30
0.0
 10
42.610199
 20
149.926760
 30
0.0
 10
42.525529
 20
150.011430
 30
0.0
 10
42.525529
 20
149.884430
 30
0.0
 10
48.113529
 20
149.884430
 30
0.0
 10
48.113529
 20
150.138430
 30
0.0
 10
42.525529
 20
150.138430
 30
0.0
 10
42.440859
 20
150.096100
 30
0.0
 10
40.578193
 20
148.233433
 30
0.0
 10
40.578193
 20
148.064100
 30
0.0
 10
42.440859
 20
146.201433
 30
0.0
 10
42.525529
 20
146.159103
 30
0.0
 10
46.250862
 20
146.159103
 30
0.0
 10
46.250862
 20
146.286103
 30
0.0
 10
46.166192
 20
146.201433
 30
0.0
 10
48.028858
 20
144.338767
 30
0.0
 10
48.113528
 20
144.423437
 30
0.0
 10
48.028858
 20
144.508107
 30
0.0
 10
46.166192
 20
142.645441
 30
0.0
 10
46.250862
 20
142.560771
 30
0.0
 10
46.250862
 20
142.687771
 30
0.0
  0
LWPOLYLINE
  5
1d1
100
AcDbEntity
  8
DIMENSIONS
 62
7
100
AcDbPolyline
 90
24
 70
1
 10
59.331862
 20
149.884436
 30
0.0
 10
59.331862
 20
150.138436
 30
0.0
 10
53.743862
 20
150.138436
 30
0.0
 10
53.659192
 20
150.096106
 30
0.0
 10
51.796526
 20
148.233439
 30
0.0
 10
51.754196
 20
148.148769
 30
0.0
 10
51.754196
 20
144.423435
 30
0.0
 10
51.796526
 20
144.338765
 30
0.0
 10
53.659192
 20
142.476098
 30
0.0
 10
53.743862
 20
142.433768
 30
0.0
 10
59.331862
 20
142.433768
 30
0.0
 10
59.331862
 20
142.687768
 30
0.0
 10
53.743862
 20
142.687768
 30
0.0
 10
53.743862
 20
142.560768
 30
0.0
 10
53.828532
 20
142.645438
 30
0.0
 10
51.965865
 20
144.508104
 30
0.0
 10
51.881195
 20
144.423434
 30
0.0
 10
52.008195
 20
144.423434
 30
0.0
 10
52.008195
 20
148.148768
 30
0.0
 10
51.881195
 20
148.148768
 30
0.0
 10
51.965865
 20
148.064098
 30
0.0
 10
53.828532
 20
149.926765
 30
0.0
 10
53.743862
 20
150.011435
 30
0.0
 10
53.743862
 20
149.884435
 30
0.0
  0
LWPOLYLINE
  5
1d2
100
AcDbEntity
  8
DIMENSIONS
 62
7
100
AcDbPolyline
 90
19
 70
1
 10
63.184195
 20
150.011436
 30
0.0
 10
62.930195
 20
150.011436
 30
0.0
 10
62.930195
 20
144.423436
 30
0.0
 10
62.972528
 20
144.338766
 30
0.0
 10
64.835195
 20
142.476099
 30
0.0
 10
64.919862
 20
142.433769
 30
0.0
 10
66.782529
 20
142.433769
 30
0.0
 10
66.867195
 20
142.476099
 30
0.0
 10
70.592528
 20
146.201432
 30
0.0
 10
70.423195
 20
146.370766
 30
0.0
 10
66.697862
 20
142.645433
 30
0.0
 10
66.782529
 20
142.560763
 30
0.0
 10
66.782529
 20
142.687763
 30
0.0
 10
64.919862
 20
142.687763
 30
0.0
 10
64.919862
 20
142.560763
 30
0.0
 10
65.004529
 20
142.645433
 30
0.0
 10
63.141862
 20
144.508099
 30
0.0
 10
63.057195
 20
144.423429
 30
0.0
 10
63.184195
 20
144.423429
 30
0.0
  0
LWPOLYLINE
  5
1d3
100
AcDbEntity
  8
DIMENSIONS
 62
7
100
AcDbPolyline
 90
4
 70
1
 10
70.634862
 20
150.011436
 30
0.0
 10
70.380862
 20
150.011436
 30
0.0
 10
70.380862
 20
142.560770
 30
0.0
 10
70.634862
 20
142.560770
 30
0.0
  0
LWPOLYLINE
  5
1d4
100
AcDbEntity
  8
DIMENSIONS
 62
7
100
AcDbPolyline
 90
4
 70
1
 10
74.275528
 20
150.138436
 30
0.0
 10
74.275528
 20
149.884436
 30
0.0
 10
81.726195
 20
149.884436
 30
0.0
 10
81.726195
 20
150.138436
 30
0.0
  0
LWPOLYLINE
  5
1d5
100
AcDbEntity
  8
DIMENSIONS
 62
7
100
AcDbPolyline
 90
14
 70
1
 10
78.127862
 20
153.736770
 30
0.0
 10
77.873862
 20
153.736770
 30
0.0
 10
77.873862
 20
144.423436
 30
0.0
 10
77.916192
 20
144.338766
 30
0.0
 10
79.778859
 20
142.476099
 30
0.0
 10
79.948192
 20
142.476099
 30
0.0
 10
81.810859
 20
144.338766
 30
0.0
 10
81.641525
 20
144.508099
 30
0.0
 10
79.778859
 20
142.645433
 30
0.0
 10
79.863529
 20
142.560763
 30
0.0
 10
79.948199
 20
142.645433
 30
0.0
 10
78.085532
 20
144.508099
 30
0.0
 10
78.000862
 20
144.423429
 30
0.0
 10
78.127862
 20
144.423429
 30
0.0
  0
LWPOLYLINE
  5
1d6
100
AcDbEntity
  8
DIMENSIONS
 62
7
100
AcDbPolyline
 90
24
 70
1
 10
92.902195
 20
149.884436
 30
0.0
 10
92.902195
 20
150.138436
 30
0.0
 10
87.314195
 20
150.138436
 30
0.0
 10
87.229525
 20
150.096106
 30
0.0
 10
85.366858
 20
148.233439
 30
0.0
 10
85.324528
 20
148.148769
 30
0.0
 10
85.324528
 20
144.423435
 30
0.0
 10
85.366858
 20
144.338765
 30
0.0
 10
87.229525
 20
142.476098
 30
0.0
 10
87.314195
 20
142.433768
 30
0.0
 10
92.902195
 20
142.433768
 30
0.0
 10
92.902195
 20
142.687768
 30
0.0
 10
87.314195
 20
142.687768
 30
0.0
 10
87.314195
 20
142.560768
 30
0.0
 10
87.398865
 20
142.645438
 30
0.0
 10
85.536199
 20
144.508104
 30
0.0
 10
85.451529
 20
144.423434
 30
0.0
 10
85.578529
 20
144.423434
 30
0.0
 10
85.578529
 20
148.148768
 30
0.0
 10
85.451529
 20
148.148768
 30
0.0
 10
85.536199
 20
148.064098
 30
0.0
 10
87.398865
 20
149.926765
 30
0.0
 10
87.314195
 20
150.011435
 30
0.0
 10
87.314195
 20
149.884435
 30
0.0
  0
LWPOLYLINE
  5
1d7
100
AcDbEntity
  8
DIMENSIONS
 62
7
100
AcDbPolyline
 90
4
 70
1
 10
96.500528
 20
142.560770
 30
0.0
 10
96.754528
 20
142.560770
 30
0.0
 10
96.754528
 20
153.736770
 30
0.0
 10
96.500528
 20
153.736770
 30
0.0
  0
LWPOLYLINE
  5
1d8
100
AcDbEntity
  8
DIMENSIONS
 62
7
100
AcDbPolyline
 90
19
 70
1
 10
96.542858
 20
146.370770
 30
0.0
 10
96.712192
 20
146.201436
 30
0.0
 10
100.479858
 20
149.926770
 30
0.0
 10
100.395188
 20
150.011440
 30
0.0
 10
100.395188
 20
149.884440
 30
0.0
 10
102.257855
 20
149.884440
 30
0.0
 10
102.257855
 20
150.011440
 30
0.0
 10
102.173185
 20
149.926770
 30
0.0
 10
104.035852
 20
148.064103
 30
0.0
 10
104.120522
 20
148.148773
 30
0.0
 10
103.993522
 20
148.148773
 30
0.0
 10
103.993522
 20
142.560773
 30
0.0
 10
104.247522
 20
142.560773
 30
0.0
 10
104.247522
 20
148.148773
 30
0.0
 10
104.205192
 20
148.233443
 30
0.0
 10
102.342526
 20
150.096110
 30
0.0
 10
102.257856
 20
150.138440
 30
0.0
 10
100.395194
 20
150.138440
 30
0.0
 10
100.310524
 20
150.096110
 30
0.0
  0
LWPOLYLINE
  5
1d9
100
AcDbEntity
  8
DIMENSIONS
 62
7
100
AcDbPolyline
 90
39
 70
1
 10
107.845858
 20
146.413100
 30
0.0
 10
107.845858
 20
146.159100
 30
0.0
 10
113.433858
 20
146.159100
 30
0.0
 10
113.518528
 20
146.201430
 30
0.0
 10
115.381195
 20
148.064097
 30
0.0
 10
115.381195
 20
148.233430
 30
0.0
 10
113.518528
 20
150.096097
 30
0.0
 10
113.433858
 20
150.138427
 30
0.0
 10
109.708525
 20
150.138427
 30
0.0
 10
109.623855
 20
150.096097
 30
0.0
 10
107.761188
 20
148.233430
 30
0.0
 10
107.718858
 20
148.148760
 30
0.0
 10
107.718858
 20
144.423426
 30
0.0
 10
107.761188
 20
144.338756
 30
0.0
 10
109.623855
 20
142.476089
 30
0.0
 10
109.708525
 20
142.433759
 30
0.0
 10
113.433858
 20
142.433759
 30
0.0
 10
113.433858
 20
142.687759
 30
0.0
 10
109.708525
 20
142.687759
 30
0.0
 10
109.708525
 20
142.560759
 30
0.0
 10
109.793195
 20
142.645429
 30
0.0
 10
107.930529
 20
144.508095
 30
0.0
 10
107.845859
 20
144.423425
 30
0.0
 10
107.972859
 20
144.423425
 30
0.0
 10
107.972859
 20
148.148759
 30
0.0
 10
107.845859
 20
148.148759
 30
0.0
 10
107.930529
 20
148.064089
 30
0.0
 10
109.793195
 20
149.926756
 30
0.0
 10
109.708525
 20
150.011426
 30
0.0
 10
109.708525
 20
149.884426
 30
0.0
 10
113.433858
 20
149.884426
 30
0.0
 10
113.433858
 20
150.011426
 30
0.0
 10
113.349188
 20
149.926756
 30
0.0
 10
115.211855
 20
148.064089
 30
0.0
 10
115.296525
 20
148.148759
 30
0.0
 10
115.211855
 20
148.233429
 30
0.0
 10
113.349188
 20
146.370763
 30
0.0
 10
113.433858
 20
146.286093
 30
0.0
 10
113.433858
 20
146.413093
 30
0.0
  0
LWPOLYLINE
  5
1da
100
AcDbEntity
  8
DIMENSIONS
 62
7
100
AcDbPolyline
 90
39
 70
1
 10
124.652191
 20
142.433767
 30
0.0
 10
124.652191
 20
142.687767
 30
0.0
 10
120.884524
 20
142.687767
 30
0.0
 10
120.884524
 20
142.560767
 30
0.0
 10
120.969194
 20
142.645437
 30
0.0
 10
119.106527
 20
144.508103
 30
0.0
 10
119.021857
 20
144.423433
 30
0.0
 10
119.148857
 20
144.423433
 30
0.0
 10
119.148857
 20
148.148767
 30
0.0
 10
119.021857
 20
148.148767
 30
0.0
 10
119.106527
 20
148.064097
 30
0.0
 10
120.969194
 20
149.926764
 30
0.0
 10
120.884524
 20
150.011434
 30
0.0
 10
120.884524
 20
149.884434
 30
0.0
 10
124.652191
 20
149.884434
 30
0.0
 10
124.652191
 20
150.011434
 30
0.0
 10
124.567521
 20
149.926764
 30
0.0
 10
126.430188
 20
148.064097
 30
0.0
 10
126.514858
 20
148.148767
 30
0.0
 10
126.387858
 20
148.148767
 30
0.0
 10
126.387858
 20
144.423433
 30
0.0
 10
126.514858
 20
144.423433
 30
0.0
 10
126.430188
 20
144.508103
 30
0.0
 10
124.567521
 20
142.645437
 30
0.0
 10
124.736855
 20
142.476103
 30
0.0
 10
126.599521
 20
144.338770
 30
0.0
 10
126.641851
 20
144.423440
 30
0.0
 10
126.641851
 20
148.148774
 30
0.0
 10
126.599521
 20
148.233444
 30
0.0
 10
124.736855
 20
150.096111
 30
0.0
 10
124.652185
 20
150.138441
 30
0.0
 10
120.884518
 20
150.138441
 30
0.0
 10
120.799848
 20
150.096111
 30
0.0
 10
118.937181
 20
148.233444
 30
0.0
 10
118.894851
 20
148.148774
 30
0.0
 10
118.894851
 20
144.423440
 30
0.0
 10
118.937181
 20
144.338770
 30
0.0
 10
120.799848
 20
142.476103
 30
0.0
 10
120.884518
 20
142.433773
 30
0.0
  0
LWPOLYLINE
  5
1db
100
AcDbEntity
  8
DIMENSIONS
 62
7
100
AcDbPolyline
 90
4
 70
1
 10
130.113191
 20
142.560767
 30
0.0
 10
130.367191
 20
142.560767
 30
0.0
 10
130.367191
 20
150.011433
 30
0.0
 10
130.113191
 20
150.011433
 30
0.0
  0
LWPOLYLINE
  5
1dc
100
AcDbEntity
  8
DIMENSIONS
 62
7
100
AcDbPolyline
 90
19
 70
1
 10
130.155521
 20
146.370767
 30
0.0
 10
130.324854
 20
146.201433
 30
0.0
 10
134.050188
 20
149.926767
 30
0.0
 10
133.965518
 20
150.011437
 30
0.0
 10
133.965518
 20
149.884437
 30
0.0
 10
135.828185
 20
149.884437
 30
0.0
 10
135.828185
 20
150.011437
 30
0.0
 10
135.743515
 20
149.926767
 30
0.0
 10
137.606182
 20
148.064100
 30
0.0
 10
137.690852
 20
148.148770
 30
0.0
 10
137.563852
 20
148.148770
 30
0.0
 10
137.563852
 20
142.560770
 30
0.0
 10
137.817852
 20
142.560770
 30
0.0
 10
137.817852
 20
148.148770
 30
0.0
 10
137.775522
 20
148.233440
 30
0.0
 10
135.912855
 20
150.096107
 30
0.0
 10
135.828185
 20
150.138437
 30
0.0
 10
133.965518
 20
150.138437
 30
0.0
 10
133.880848
 20
150.096107
 30
0.0
  0
LWPOLYLINE
  5
1dd
100
AcDbEntity
  8
DIMENSIONS
 62
7
100
AcDbPolyline
 90
4
 70
1
 10
152.507521
 20
138.835434
 30
0.0
 10
152.761521
 20
138.835434
 30
0.0
 10
152.761521
 20
150.011436
 30
0.0
 10
152.507521
 20
150.011436
 30
0.0
  0
LWPOLYLINE
  5
1de
100
AcDbEntity
  8
DIMENSIONS
 62
7
100
AcDbPolyline
 90
29
 70
1
 10
152.549851
 20
148.233433
 30
0.0
 10
152.719184
 20
148.064100
 30
0.0
 10
154.581851
 20
149.926767
 30
0.0
 10
154.497181
 20
150.011437
 30
0.0
 10
154.497181
 20
149.884437
 30
0.0
 10
158.222514
 20
149.884437
 30
0.0
 10
158.222514
 20
150.011437
 30
0.0
 10
158.137844
 20
149.926767
 30
0.0
 10
160.000510
 20
148.064100
 30
0.0
 10
160.085180
 20
148.148770
 30
0.0
 10
159.958180
 20
148.148770
 30
0.0
 10
159.958180
 20
144.423436
 30
0.0
 10
160.085180
 20
144.423436
 30
0.0
 10
160.000510
 20
144.508106
 30
0.0
 10
158.137844
 20
142.645440
 30
0.0
 10
158.222514
 20
142.560770
 30
0.0
 10
158.222514
 20
142.687770
 30
0.0
 10
152.634515
 20
142.687770
 30
0.0
 10
152.634515
 20
142.433770
 30
0.0
 10
158.222514
 20
142.433770
 30
0.0
 10
158.307184
 20
142.476100
 30
0.0
 10
160.169851
 20
144.338767
 30
0.0
 10
160.212181
 20
144.423437
 30
0.0
 10
160.212181
 20
148.148771
 30
0.0
 10
160.169851
 20
148.233441
 30
0.0
 10
158.307184
 20
150.096108
 30
0.0
 10
158.222514
 20
150.138438
 30
0.0
 10
154.497181
 20
150.138438
 30
0.0
 10
154.412511
 20
150.096108
 30
0.0
  0
LWPOLYLINE
  5
1df
100
AcDbEntity
  8
DIMENSIONS
 62
7
100
AcDbPolyline
 90
9
 70
1
 10
163.937517
 20
153.736767
 30
0.0
 10
163.683517
 20
153.736767
 30
0.0
 10
163.683517
 20
144.423433
 30
0.0
 10
163.725847
 20
144.338763
 30
0.0
 10
165.588513
 20
142.476096
 30
0.0
 10
165.757847
 20
142.645430
 30
0.0
 10
163.895180
 20
144.508096
 30
0.0
 10
163.810510
 20
144.423426
 30
0.0
 10
163.937510
 20
144.423426
 30
0.0
  0
LWPOLYLINE
  5
1e0
100
AcDbEntity
  8
DIMENSIONS
 62
7
100
AcDbPolyline
 90
39
 70
1
 10
173.166184
 20
142.433767
 30
0.0
 10
173.166184
 20
142.687767
 30
0.0
 10
171.303514
 20
142.687767
 30
0.0
 10
171.303514
 20
142.560767
 30
0.0
 10
171.388214
 20
142.645437
 30
0.0
 10
169.483214
 20
144.508103
 30
0.0
 10
169.398514
 20
144.423433
 30
0.0
 10
169.525514
 20
144.423433
 30
0.0
 10
169.525514
 20
148.148767
 30
0.0
 10
169.398514
 20
148.148767
 30
0.0
 10
169.483214
 20
148.064097
 30
0.0
 10
171.388214
 20
149.926764
 30
0.0
 10
171.303514
 20
150.011434
 30
0.0
 10
171.303514
 20
149.884434
 30
0.0
 10
173.166184
 20
149.884434
 30
0.0
 10
173.166184
 20
150.011434
 30
0.0
 10
173.081484
 20
149.926764
 30
0.0
 10
174.944154
 20
148.064097
 30
0.0
 10
175.028854
 20
148.148767
 30
0.0
 10
174.901854
 20
148.148767
 30
0.0
 10
174.901854
 20
144.423433
 30
0.0
 10
175.028854
 20
144.423433
 30
0.0
 10
174.944154
 20
144.508103
 30
0.0
 10
173.081484
 20
142.645437
 30
0.0
 10
173.250824
 20
142.476103
 30
0.0
 10
175.113484
 20
144.338770
 30
0.0
 10
175.155784
 20
144.423440
 30
0.0
 10
175.155784
 20
148.148774
 30
0.0
 10
175.113484
 20
148.233444
 30
0.0
 10
173.250824
 20
150.096111
 30
0.0
 10
173.166124
 20
150.138441
 30
0.0
 10
171.303454
 20
150.138441
 30
0.0
 10
171.218754
 20
150.096111
 30
0.0
 10
169.313754
 20
148.233444
 30
0.0
 10
169.271454
 20
148.148774
 30
0.0
 10
169.271454
 20
144.423440
 30
0.0
 10
169.313754
 20
144.338770
 30
0.0
 10
171.218754
 20
142.476103
 30
0.0
 10
171.303454
 20
142.433773
 30
0.0
  0
LWPOLYLINE
  5
1e1
100
AcDbEntity
  8
DIMENSIONS
 62
7
100
AcDbPolyline
 90
4
 70
1
 10
175.113514
 20
144.508100
 30
0.0
 10
174.944184
 20
144.338767
 30
0.0
 10
176.806854
 20
142.476100
 30
0.0
 10
176.976184
 20
142.645434
 30
0.0
  0
LWPOLYLINE
  5
1e2
100
AcDbEntity
  8
DIMENSIONS
 62
7
100
AcDbPolyline
 90
4
 70
1
 10
180.616854
 20
150.138433
 30
0.0
 10
180.616854
 20
149.884433
 30
0.0
 10
188.067514
 20
149.884433
 30
0.0
 10
188.067514
 20
150.138433
 30
0.0
  0
LWPOLYLINE
  5
1e3
100
AcDbEntity
  8
DIMENSIONS
 62
7
100
AcDbPolyline
 90
14
 70
1
 10
184.469184
 20
153.736767
 30
0.0
 10
184.215184
 20
153.736767
 30
0.0
 10
184.215184
 20
144.423433
 30
0.0
 10
184.257484
 20
144.338763
 30
0.0
 10
186.120154
 20
142.476096
 30
0.0
 10
186.289484
 20
142.476096
 30
0.0
 10
188.152154
 20
144.338763
 30
0.0
 10
187.982824
 20
144.508096
 30
0.0
 10
186.120154
 20
142.645430
 30
0.0
 10
186.204854
 20
142.560760
 30
0.0
 10
186.289554
 20
142.645430
 30
0.0
 10
184.426894
 20
144.508096
 30
0.0
 10
184.342194
 20
144.423426
 30
0.0
 10
184.469194
 20
144.423426
 30
0.0
  0
LWPOLYLINE
  5
1e4
100
AcDbEntity
  8
DIMENSIONS
 62
7
100
AcDbPolyline
 90
39
 70
1
 10
191.792854
 20
146.413100
 30
0.0
 10
191.792854
 20
146.159100
 30
0.0
 10
197.423184
 20
146.159100
 30
0.0
 10
197.507884
 20
146.201430
 30
0.0
 10
199.370554
 20
148.064097
 30
0.0
 10
199.370554
 20
148.233430
 30
0.0
 10
197.507884
 20
150.096097
 30
0.0
 10
197.423184
 20
150.138427
 30
0.0
 10
193.655514
 20
150.138427
 30
0.0
 10
193.570814
 20
150.096097
 30
0.0
 10
191.708144
 20
148.233430
 30
0.0
 10
191.665844
 20
148.148760
 30
0.0
 10
191.665844
 20
144.423426
 30
0.0
 10
191.708144
 20
144.338756
 30
0.0
 10
193.570814
 20
142.476089
 30
0.0
 10
193.655514
 20
142.433759
 30
0.0
 10
197.423184
 20
142.433759
 30
0.0
 10
197.423184
 20
142.687759
 30
0.0
 10
193.655514
 20
142.687759
 30
0.0
 10
193.655514
 20
142.560759
 30
0.0
 10
193.740214
 20
142.645429
 30
0.0
 10
191.877544
 20
144.508095
 30
0.0
 10
191.792844
 20
144.423425
 30
0.0
 10
191.919844
 20
144.423425
 30
0.0
 10
191.919844
 20
148.148759
 30
0.0
 10
191.792844
 20
148.148759
 30
0.0
 10
191.877544
 20
148.064089
 30
0.0
 10
193.740214
 20
149.926756
 30
0.0
 10
193.655514
 20
150.011426
 30
0.0
 10
193.655514
 20
149.884426
 30
0.0
 10
197.423184
 20
149.884426
 30
0.0
 10
197.423184
 20
150.011426
 30
0.0
 10
197.338484
 20
149.926756
 30
0.0
 10
199.201154
 20
148.064089
 30
0.0
 10
199.285854
 20
148.148759
 30
0.0
 10
199.201154
 20
148.233429
 30
0.0
 10
197.338484
 20
146.370763
 30
0.0
 10
197.423184
 20
146.286093
 30
0.0
 10
197.423184
 20
146.413093
 30
0.0
  0
LWPOLYLINE
  5
1e5
100
AcDbEntity
  8
DIMENSIONS
 62
7
100
AcDbPolyline
 90
9
 70
1
 10
29.402187
 20
133.332100
 30
0.0
 10
29.571520
 20
133.162767
 30
0.0
 10
31.434187
 20
135.025434
 30
0.0
 10
31.349517
 20
135.110104
 30
0.0
 10
31.222517
 20
135.110104
 30
0.0
 10
31.222517
 20
123.891767
 30
0.0
 10
31.476517
 20
123.891767
 30
0.0
 10
31.476517
 20
135.110103
 30
0.0
 10
31.264851
 20
135.194773
 30
0.0
  0
LWPOLYLINE
  5
1e6
100
AcDbEntity
  8
DIMENSIONS
 62
7
100
AcDbPolyline
 90
4
 70
1
 10
29.486857
 20
124.018767
 30
0.0
 10
29.486857
 20
123.764767
 30
0.0
 10
33.212190
 20
123.764767
 30
0.0
 10
33.212190
 20
124.018767
 30
0.0
  0
LWPOLYLINE
  5
1e7
100
AcDbEntity
  8
DIMENSIONS
 62
7
100
AcDbPolyline
 90
9
 70
1
 10
36.852856
 20
133.332100
 30
0.0
 10
37.022190
 20
133.162767
 30
0.0
 10
38.884856
 20
135.025434
 30
0.0
 10
38.800186
 20
135.110104
 30
0.0
 10
38.673186
 20
135.110104
 30
0.0
 10
38.673186
 20
123.891767
 30
0.0
 10
38.927186
 20
123.891767
 30
0.0
 10
38.927186
 20
135.110103
 30
0.0
 10
38.715519
 20
135.194773
 30
0.0
  0
LWPOLYLINE
  5
1e8
100
AcDbEntity
  8
DIMENSIONS
 62
7
100
AcDbPolyline
 90
4
 70
1
 10
36.937526
 20
124.018767
 30
0.0
 10
36.937526
 20
123.764767
 30
0.0
 10
40.662859
 20
123.764767
 30
0.0
 10
40.662859
 20
124.018767
 30
0.0
  0
LWPOLYLINE
  5
1e9
100
AcDbEntity
  8
DIMENSIONS
 62
7
100
AcDbPolyline
 90
39
 70
1
 10
46.166193
 20
123.807107
 30
0.0
 10
46.335526
 20
123.976437
 30
0.0
 10
44.472859
 20
125.881434
 30
0.0
 10
44.388189
 20
125.796764
 30
0.0
 10
44.515189
 20
125.796764
 30
0.0
 10
44.515189
 20
133.247437
 30
0.0
 10
44.388189
 20
133.247437
 30
0.0
 10
44.472859
 20
133.162767
 30
0.0
 10
46.335526
 20
135.025434
 30
0.0
 10
46.250856
 20
135.110104
 30
0.0
 10
46.250856
 20
134.983104
 30
0.0
 10
48.113523
 20
134.983104
 30
0.0
 10
48.113523
 20
135.110104
 30
0.0
 10
48.028853
 20
135.025434
 30
0.0
 10
49.933853
 20
133.162767
 30
0.0
 10
50.018523
 20
133.247437
 30
0.0
 10
49.891523
 20
133.247437
 30
0.0
 10
49.891523
 20
125.796770
 30
0.0
 10
50.018523
 20
125.796770
 30
0.0
 10
49.933853
 20
125.881440
 30
0.0
 10
48.028853
 20
123.976437
 30
0.0
 10
48.113523
 20
123.891737
 30
0.0
 10
48.113523
 20
124.018737
 30
0.0
 10
46.250856
 20
124.018737
 30
0.0
 10
46.250856
 20
123.764737
 30
0.0
 10
48.113523
 20
123.764737
 30
0.0
 10
48.198193
 20
123.807037
 30
0.0
 10
50.103193
 20
125.712037
 30
0.0
 10
50.145523
 20
125.796707
 30
0.0
 10
50.145523
 20
133.247437
 30
0.0
 10
50.103193
 20
133.332107
 30
0.0
 10
48.198193
 20
135.194774
 30
0.0
 10
48.113523
 20
135.237104
 30
0.0
 10
46.250856
 20
135.237104
 30
0.0
 10
46.166186
 20
135.194774
 30
0.0
 10
44.303519
 20
133.332107
 30
0.0
 10
44.261189
 20
133.247437
 30
0.0
 10
44.261189
 20
125.796770
 30
0.0
 10
44.303519
 20
125.712100
 30
0.0
  0
LWPOLYLINE
  5
1ea
100
AcDbEntity
  8
DIMENSIONS
 62
7
100
AcDbPolyline
 90
4
 70
1
 10
64.835192
 20
123.976437
 30
0.0
 10
65.004526
 20
123.807107
 30
0.0
 10
72.455195
 20
131.300103
 30
0.0
 10
72.285862
 20
131.469437
 30
0.0
  0
LWPOLYLINE
  5
1eb
100
AcDbEntity
  8
DIMENSIONS
 62
7
100
AcDbPolyline
 90
4
 70
1
 10
65.004526
 20
131.469434
 30
0.0
 10
64.835192
 20
131.300100
 30
0.0
 10
72.285859
 20
123.807107
 30
0.0
 10
72.455192
 20
123.976437
 30
0.0
  0
LWPOLYLINE
  5
1ec
100
AcDbEntity
  8
DIMENSIONS
 62
7
100
AcDbPolyline
 90
44
 70
1
 10
87.229525
 20
133.332100
 30
0.0
 10
87.398858
 20
133.162767
 30
0.0
 10
89.261525
 20
135.025434
 30
0.0
 10
89.176855
 20
135.110104
 30
0.0
 10
89.176855
 20
134.983104
 30
0.0
 10
92.902189
 20
134.983104
 30
0.0
 10
92.902189
 20
135.110104
 30
0.0
 10
92.817519
 20
135.025434
 30
0.0
 10
94.680186
 20
133.162767
 30
0.0
 10
94.764856
 20
133.247437
 30
0.0
 10
94.637856
 20
133.247437
 30
0.0
 10
94.637856
 20
131.384770
 30
0.0
 10
94.764856
 20
131.384770
 30
0.0
 10
94.680186
 20
131.469440
 30
0.0
 10
92.817519
 20
129.606773
 30
0.0
 10
92.902189
 20
129.522103
 30
0.0
 10
92.902189
 20
129.649103
 30
0.0
 10
89.176855
 20
129.649103
 30
0.0
 10
89.092185
 20
129.606773
 30
0.0
 10
87.229518
 20
127.744107
 30
0.0
 10
87.187188
 20
127.659437
 30
0.0
 10
87.187188
 20
123.891767
 30
0.0
 10
87.314188
 20
123.764767
 30
0.0
 10
94.764854
 20
123.764767
 30
0.0
 10
94.764854
 20
124.018767
 30
0.0
 10
87.314188
 20
124.018767
 30
0.0
 10
87.314188
 20
123.891767
 30
0.0
 10
87.441188
 20
123.891767
 30
0.0
 10
87.441188
 20
127.659437
 30
0.0
 10
87.314188
 20
127.659437
 30
0.0
 10
87.398858
 20
127.574767
 30
0.0
 10
89.261525
 20
129.437434
 30
0.0
 10
89.176855
 20
129.522104
 30
0.0
 10
89.176855
 20
129.395104
 30
0.0
 10
92.902189
 20
129.395104
 30
0.0
 10
92.986859
 20
129.437434
 30
0.0
 10
94.849526
 20
131.300100
 30
0.0
 10
94.891856
 20
131.384770
 30
0.0
 10
94.891856
 20
133.247437
 30
0.0
 10
94.849526
 20
133.332107
 30
0.0
 10
92.986859
 20
135.194774
 30
0.0
 10
92.902189
 20
135.237104
 30
0.0
 10
89.176855
 20
135.237104
 30
0.0
 10
89.092185
 20
135.194774
 30
0.0
  0
LWPOLYLINE
  5
1ed
100
AcDbEntity
  8
DIMENSIONS
 62
7
100
AcDbPolyline
 90
44
 70
1
 10
98.532525
 20
129.649100
 30
0.0
 10
98.532525
 20
129.395100
 30
0.0
 10
104.120525
 20
129.395100
 30
0.0
 10
104.120525
 20
129.522100
 30
0.0
 10
104.035855
 20
129.437430
 30
0.0
 10
105.898522
 20
127.574763
 30
0.0
 10
105.983192
 20
127.659433
 30
0.0
 10
105.856192
 20
127.659433
 30
0.0
 10
105.856192
 20
125.796766
 30
0.0
 10
105.983192
 20
125.796766
 30
0.0
 10
105.898522
 20
125.881436
 30
0.0
 10
104.035855
 20
123.976437
 30
0.0
 10
104.120525
 20
123.891737
 30
0.0
 10
104.120525
 20
124.018737
 30
0.0
 10
100.395194
 20
124.018737
 30
0.0
 10
100.395194
 20
123.891737
 30
0.0
 10
100.479864
 20
123.976437
 30
0.0
 10
98.617197
 20
125.881436
 30
0.0
 10
98.532527
 20
125.796766
 30
0.0
 10
98.659527
 20
125.796766
 30
0.0
 10
98.659527
 20
131.384766
 30
0.0
 10
98.532527
 20
131.384766
 30
0.0
 10
98.617197
 20
131.300096
 30
0.0
 10
102.342531
 20
135.025430
 30
0.0
 10
102.257861
 20
135.110100
 30
0.0
 10
102.257861
 20
134.983100
 30
0.0
 10
104.120528
 20
134.983100
 30
0.0
 10
104.120528
 20
135.237100
 30
0.0
 10
102.257861
 20
135.237100
 30
0.0
 10
102.173191
 20
135.194770
 30
0.0
 10
98.447858
 20
131.469437
 30
0.0
 10
98.405528
 20
131.384767
 30
0.0
 10
98.405528
 20
125.796767
 30
0.0
 10
98.447858
 20
125.712097
 30
0.0
 10
100.310525
 20
123.807097
 30
0.0
 10
100.395195
 20
123.764797
 30
0.0
 10
104.120529
 20
123.764797
 30
0.0
 10
104.205199
 20
123.807097
 30
0.0
 10
106.067866
 20
125.712097
 30
0.0
 10
106.110196
 20
125.796767
 30
0.0
 10
106.110196
 20
127.659437
 30
0.0
 10
106.067866
 20
127.744107
 30
0.0
 10
104.205199
 20
129.606773
 30
0.0
 10
104.120529
 20
129.649103
 30
0.0
  0
LWPOLYLINE
  5
1ee
100
AcDbEntity
  8
DIMENSIONS
 62
7
100
AcDbPolyline
 90
39
 70
1
 10
111.486525
 20
123.807107
 30
0.0
 10
111.655858
 20
123.976437
 30
0.0
 10
109.793191
 20
125.881434
 30
0.0
 10
109.708521
 20
125.796764
 30
0.0
 10
109.835521
 20
125.796764
 30
0.0
 10
109.835521
 20
133.247437
 30
0.0
 10
109.708521
 20
133.247437
 30
0.0
 10
109.793191
 20
133.162767
 30
0.0
 10
111.655858
 20
135.025434
 30
0.0
 10
111.571188
 20
135.110104
 30
0.0
 10
111.571188
 20
134.983104
 30
0.0
 10
113.433855
 20
134.983104
 30
0.0
 10
113.433855
 20
135.110104
 30
0.0
 10
113.349185
 20
135.025434
 30
0.0
 10
115.211852
 20
133.162767
 30
0.0
 10
115.296522
 20
133.247437
 30
0.0
 10
115.169522
 20
133.247437
 30
0.0
 10
115.169522
 20
125.796770
 30
0.0
 10
115.296522
 20
125.796770
 30
0.0
 10
115.211852
 20
125.881440
 30
0.0
 10
113.349185
 20
123.976437
 30
0.0
 10
113.433855
 20
123.891737
 30
0.0
 10
113.433855
 20
124.018737
 30
0.0
 10
111.571194
 20
124.018737
 30
0.0
 10
111.571194
 20
123.764737
 30
0.0
 10
113.433861
 20
123.764737
 30
0.0
 10
113.518531
 20
123.807037
 30
0.0
 10
115.381198
 20
125.712037
 30
0.0
 10
115.423528
 20
125.796707
 30
0.0
 10
115.423528
 20
133.247437
 30
0.0
 10
115.381198
 20
133.332107
 30
0.0
 10
113.518531
 20
135.194774
 30
0.0
 10
113.433861
 20
135.237104
 30
0.0
 10
111.571194
 20
135.237104
 30
0.0
 10
111.486524
 20
135.194774
 30
0.0
 10
109.623857
 20
133.332107
 30
0.0
 10
109.581527
 20
133.247437
 30
0.0
 10
109.581527
 20
125.796770
 30
0.0
 10
109.623857
 20
125.712100
 30
0.0
  0
LWPOLYLINE
  5
1ef
100
AcDbEntity
  8
DIMENSIONS
 62
7
100
AcDbPolyline
 90
19
 70
1
 10
32.746526
 20
24.408437
 30
0.0
 10
32.746526
 20
24.154437
 30
0.0
 10
178.288524
 20
24.154437
 30
0.0
 10
178.415524
 20
24.281437
 30
0.0
 10
178.415524
 20
85.834107
 30
0.0
 10
178.288524
 20
85.961107
 30
0.0
 10
32.746529
 20
85.961107
 30
0.0
 10
32.619529
 20
85.834107
 30
0.0
 10
32.619529
 20
24.281437
 30
0.0
 10
32.873529
 20
24.281437
 30
0.0
 10
32.873529
 20
85.834107
 30
0.0
 10
32.746529
 20
85.834107
 30
0.0
 10
32.746529
 20
85.707107
 30
0.0
 10
178.288524
 20
85.707107
 30
0.0
 10
178.288524
 20
85.834107
 30
0.0
 10
178.161524
 20
85.834107
 30
0.0
 10
178.161524
 20
24.281437
 30
0.0
 10
178.288524
 20
24.281437
 30
0.0
 10
178.288524
 20
24.408437
 30
0.0
  0
LWPOLYLINE
  5
1f0
100
AcDbEntity
  8
DIMENSIONS
 62
7
100
AcDbPolyline
 90
194
 70
1
 10
81.599195
 20
55.057767
 30
0.0
 10
81.853195
 20
55.057767
 30
0.0
 10
81.768525
 20
56.370107
 30
0.0
 10
81.768525
 20
56.370107
 30
0.0
 10
81.514525
 20
57.597767
 30
0.0
 10
81.091192
 20
58.825437
 30
0.0
 10
81.091192
 20
58.867737
 30
0.0
 10
80.540859
 20
60.010737
 30
0.0
 10
80.498529
 20
60.010737
 30
0.0
 10
79.778863
 20
61.069077
 30
0.0
 10
78.932196
 20
62.042737
 30
0.0
 10
78.932196
 20
62.085037
 30
0.0
 10
77.958529
 20
62.931697
 30
0.0
 10
77.916199
 20
62.931697
 30
0.0
 10
76.857866
 20
63.651367
 30
0.0
 10
76.857866
 20
63.651367
 30
0.0
 10
75.714866
 20
64.201697
 30
0.0
 10
75.672533
 20
64.243997
 30
0.0
 10
74.444866
 20
64.667327
 30
0.0
 10
73.174866
 20
64.921327
 30
0.0
 10
73.174866
 20
64.921327
 30
0.0
 10
71.904866
 20
65.006027
 30
0.0
 10
70.634866
 20
64.921327
 30
0.0
 10
70.592533
 20
64.921327
 30
0.0
 10
69.322533
 20
64.667327
 30
0.0
 10
68.137200
 20
64.243997
 30
0.0
 10
68.137200
 20
64.201697
 30
0.0
 10
66.994200
 20
63.651367
 30
0.0
 10
66.951866
 20
63.651367
 30
0.0
 10
65.851200
 20
62.931697
 30
0.0
 10
65.851200
 20
62.931697
 30
0.0
 10
64.919867
 20
62.085037
 30
0.0
 10
64.877534
 20
62.042737
 30
0.0
 10
64.030867
 20
61.069077
 30
0.0
 10
63.311200
 20
60.010737
 30
0.0
 10
63.311200
 20
60.010737
 30
0.0
 10
62.718534
 20
58.867737
 30
0.0
 10
62.718534
 20
58.825437
 30
0.0
 10
62.337534
 20
57.597767
 30
0.0
 10
62.083534
 20
56.370107
 30
0.0
 10
62.083534
 20
56.370107
 30
0.0
 10
61.998867
 20
55.057767
 30
0.0
 10
62.083534
 20
53.787767
 30
0.0
 10
62.083534
 20
53.745467
 30
0.0
 10
62.337534
 20
52.475467
 30
0.0
 10
62.718534
 20
51.290137
 30
0.0
 10
62.718534
 20
51.290137
 30
0.0
 10
63.311200
 20
50.147137
 30
0.0
 10
63.311200
 20
50.104837
 30
0.0
 10
64.030867
 20
49.004177
 30
0.0
 10
64.073200
 20
49.004177
 30
0.0
 10
64.919867
 20
48.072837
 30
0.0
 10
65.851200
 20
47.226177
 30
0.0
 10
65.851200
 20
47.183877
 30
0.0
 10
66.951867
 20
46.464217
 30
0.0
 10
66.994200
 20
46.464217
 30
0.0
 10
68.137200
 20
45.913877
 30
0.0
 10
68.137200
 20
45.913877
 30
0.0
 10
69.322533
 20
45.490547
 30
0.0
 10
70.592533
 20
45.236547
 30
0.0
 10
70.634866
 20
45.236547
 30
0.0
 10
71.904866
 20
45.151847
 30
0.0
 10
73.174866
 20
45.236547
 30
0.0
 10
73.174866
 20
45.236547
 30
0.0
 10
74.444866
 20
45.490547
 30
0.0
 10
75.672533
 20
45.913877
 30
0.0
 10
75.714866
 20
45.913877
 30
0.0
 10
76.857866
 20
46.464217
 30
0.0
 10
76.857866
 20
46.464217
 30
0.0
 10
77.916199
 20
47.183877
 30
0.0
 10
77.958529
 20
47.226177
 30
0.0
 10
78.932196
 20
48.072837
 30
0.0
 10
79.778863
 20
49.004177
 30
0.0
 10
79.778863
 20
49.004177
 30
0.0
 10
80.498529
 20
50.104837
 30
0.0
 10
80.540859
 20
50.147137
 30
0.0
 10
81.091192
 20
51.290137
 30
0.0
 10
81.091192
 20
51.290137
 30
0.0
 10
81.514525
 20
52.475467
 30
0.0
 10
81.768525
 20
53.745467
 30
0.0
 10
81.768525
 20
53.787767
 30
0.0
 10
81.853195
 20
55.057767
 30
0.0
 10
81.599195
 20
55.057767
 30
0.0
 10
81.514525
 20
53.787767
 30
0.0
 10
81.641525
 20
53.787767
 30
0.0
 10
81.514525
 20
53.787767
 30
0.0
 10
81.260525
 20
52.517767
 30
0.0
 10
80.837192
 20
51.332437
 30
0.0
 10
80.964192
 20
51.332437
 30
0.0
 10
80.837192
 20
51.374737
 30
0.0
 10
80.286859
 20
50.231737
 30
0.0
 10
80.413859
 20
50.189437
 30
0.0
 10
80.286859
 20
50.231737
 30
0.0
 10
79.567192
 20
49.131077
 30
0.0
 10
79.694192
 20
49.088777
 30
0.0
 10
79.609522
 20
49.173477
 30
0.0
 10
78.762856
 20
48.242147
 30
0.0
 10
77.789189
 20
47.395477
 30
0.0
 10
77.873859
 20
47.310777
 30
0.0
 10
77.789189
 20
47.395477
 30
0.0
 10
76.730856
 20
46.675807
 30
0.0
 10
76.815526
 20
46.591107
 30
0.0
 10
76.773196
 20
46.675807
 30
0.0
 10
75.630196
 20
46.125477
 30
0.0
 10
75.672529
 20
46.040777
 30
0.0
 10
75.630196
 20
46.167777
 30
0.0
 10
74.402529
 20
45.744447
 30
0.0
 10
73.132530
 20
45.490447
 30
0.0
 10
73.174863
 20
45.363447
 30
0.0
 10
73.174863
 20
45.490447
 30
0.0
 10
71.904863
 20
45.405747
 30
0.0
 10
70.634863
 20
45.490447
 30
0.0
 10
70.634863
 20
45.363447
 30
0.0
 10
70.634863
 20
45.490447
 30
0.0
 10
69.364863
 20
45.744447
 30
0.0
 10
68.179529
 20
46.167777
 30
0.0
 10
68.179529
 20
46.040777
 30
0.0
 10
68.221862
 20
46.125477
 30
0.0
 10
67.078862
 20
46.675807
 30
0.0
 10
67.036529
 20
46.591107
 30
0.0
 10
67.078862
 20
46.675807
 30
0.0
 10
65.978196
 20
47.395477
 30
0.0
 10
65.935862
 20
47.310777
 30
0.0
 10
66.020529
 20
47.395477
 30
0.0
 10
65.089196
 20
48.242147
 30
0.0
 10
64.242529
 20
49.173477
 30
0.0
 10
64.157862
 20
49.088777
 30
0.0
 10
64.242529
 20
49.131077
 30
0.0
 10
63.522862
 20
50.231737
 30
0.0
 10
63.438195
 20
50.189437
 30
0.0
 10
63.565195
 20
50.231737
 30
0.0
 10
62.972529
 20
51.374737
 30
0.0
 10
62.845529
 20
51.332437
 30
0.0
 10
62.972529
 20
51.332437
 30
0.0
 10
62.591529
 20
52.517767
 30
0.0
 10
62.337529
 20
53.787767
 30
0.0
 10
62.210529
 20
53.787767
 30
0.0
 10
62.337529
 20
53.787767
 30
0.0
 10
62.252862
 20
55.057767
 30
0.0
 10
62.337529
 20
56.370107
 30
0.0
 10
62.210529
 20
56.370107
 30
0.0
 10
62.337529
 20
56.327807
 30
0.0
 10
62.591529
 20
57.555477
 30
0.0
 10
62.972529
 20
58.783147
 30
0.0
 10
62.845529
 20
58.825447
 30
0.0
 10
62.972529
 20
58.783147
 30
0.0
 10
63.565195
 20
59.926147
 30
0.0
 10
63.438195
 20
59.968447
 30
0.0
 10
63.522862
 20
59.883747
 30
0.0
 10
64.242529
 20
60.942087
 30
0.0
 10
65.089196
 20
61.915747
 30
0.0
 10
65.004529
 20
62.000447
 30
0.0
 10
65.089196
 20
61.915747
 30
0.0
 10
66.020529
 20
62.762417
 30
0.0
 10
65.935862
 20
62.847117
 30
0.0
 10
65.978196
 20
62.720117
 30
0.0
 10
67.078862
 20
63.439777
 30
0.0
 10
67.036529
 20
63.566777
 30
0.0
 10
67.078862
 20
63.439777
 30
0.0
 10
68.221862
 20
63.990117
 30
0.0
 10
68.179529
 20
64.117117
 30
0.0
 10
68.179529
 20
63.990117
 30
0.0
 10
69.364863
 20
64.413447
 30
0.0
 10
70.634863
 20
64.667447
 30
0.0
 10
70.634863
 20
64.794447
 30
0.0
 10
70.634863
 20
64.667447
 30
0.0
 10
71.904863
 20
64.752147
 30
0.0
 10
73.174863
 20
64.667447
 30
0.0
 10
73.174863
 20
64.794447
 30
0.0
 10
73.132530
 20
64.667447
 30
0.0
 10
74.402529
 20
64.413447
 30
0.0
 10
75.630196
 20
63.990117
 30
0.0
 10
75.672529
 20
64.117117
 30
0.0
 10
75.630196
 20
63.990117
 30
0.0
 10
76.773196
 20
63.439777
 30
0.0
 10
76.815526
 20
63.566777
 30
0.0
 10
76.730856
 20
63.439777
 30
0.0
 10
77.789189
 20
62.720117
 30
0.0
 10
77.873859
 20
62.847117
 30
0.0
 10
77.789189
 20
62.762417
 30
0.0
 10
78.762856
 20
61.915747
 30
0.0
 10
78.847526
 20
62.000447
 30
0.0
 10
78.720526
 20
61.915747
 30
0.0
 10
79.567193
 20
60.942087
 30
0.0
 10
80.286860
 20
59.883747
 30
0.0
 10
80.413860
 20
59.968447
 30
0.0
 10
80.286860
 20
59.926147
 30
0.0
 10
80.837193
 20
58.783147
 30
0.0
 10
80.964193
 20
58.825447
 30
0.0
 10
80.837193
 20
58.783147
 30
0.0
 10
81.260526
 20
57.555477
 30
0.0
 10
81.514526
 20
56.327807
 30
0.0
 10
81.641526
 20
56.370107
 30
0.0
 10
81.514526
 20
56.370107
 30
0.0
  0
LWPOLYLINE
  5
1f1
100
AcDbEntity
  8
DIMENSIONS
 62
7
100
AcDbPolyline
 90
184
 70
1
 10
56.114529
 20
44.432107
 30
0.0
 10
56.368529
 20
44.432107
 30
0.0
 10
56.283862
 20
45.490437
 30
0.0
 10
56.283862
 20
45.490437
 30
0.0
 10
56.029862
 20
46.506437
 30
0.0
 10
56.029862
 20
46.548737
 30
0.0
 10
55.648862
 20
47.522407
 30
0.0
 10
55.606532
 20
47.522407
 30
0.0
 10
55.056198
 20
48.411407
 30
0.0
 10
55.056198
 20
48.411407
 30
0.0
 10
54.378865
 20
49.215737
 30
0.0
 10
54.336535
 20
49.258037
 30
0.0
 10
53.532201
 20
49.935367
 30
0.0
 10
53.532201
 20
49.935367
 30
0.0
 10
52.600868
 20
50.485697
 30
0.0
 10
52.600868
 20
50.527997
 30
0.0
 10
51.627202
 20
50.951327
 30
0.0
 10
51.584872
 20
50.951327
 30
0.0
 10
50.568872
 20
51.205327
 30
0.0
 10
50.568872
 20
51.205327
 30
0.0
 10
49.510539
 20
51.290027
 30
0.0
 10
48.452206
 20
51.205327
 30
0.0
 10
48.409876
 20
51.205327
 30
0.0
 10
47.393876
 20
50.951327
 30
0.0
 10
47.393876
 20
50.951327
 30
0.0
 10
46.420210
 20
50.527997
 30
0.0
 10
46.377880
 20
50.485697
 30
0.0
 10
45.488880
 20
49.935367
 30
0.0
 10
44.684547
 20
49.258037
 30
0.0
 10
44.642217
 20
49.215737
 30
0.0
 10
43.964883
 20
48.411407
 30
0.0
 10
43.964883
 20
48.411407
 30
0.0
 10
43.414550
 20
47.522407
 30
0.0
 10
43.414550
 20
47.522407
 30
0.0
 10
42.991217
 20
46.548737
 30
0.0
 10
42.991217
 20
46.506437
 30
0.0
 10
42.779550
 20
45.490437
 30
0.0
 10
42.779550
 20
45.490437
 30
0.0
 10
42.694880
 20
44.432107
 30
0.0
 10
42.779550
 20
43.373777
 30
0.0
 10
42.779550
 20
43.331477
 30
0.0
 10
42.991217
 20
42.315477
 30
0.0
 10
42.991217
 20
42.315477
 30
0.0
 10
43.414550
 20
41.341817
 30
0.0
 10
43.414550
 20
41.341817
 30
0.0
 10
43.964883
 20
40.452817
 30
0.0
 10
43.964883
 20
40.410517
 30
0.0
 10
44.642217
 20
39.606187
 30
0.0
 10
44.684547
 20
39.563887
 30
0.0
 10
45.488880
 20
38.886547
 30
0.0
 10
46.377880
 20
38.336217
 30
0.0
 10
46.420210
 20
38.336217
 30
0.0
 10
47.393876
 20
37.912887
 30
0.0
 10
47.393876
 20
37.912887
 30
0.0
 10
48.409876
 20
37.658887
 30
0.0
 10
48.452206
 20
37.658887
 30
0.0
 10
49.510539
 20
37.574187
 30
0.0
 10
50.568872
 20
37.658887
 30
0.0
 10
50.568872
 20
37.658887
 30
0.0
 10
51.584872
 20
37.912887
 30
0.0
 10
51.627202
 20
37.912887
 30
0.0
 10
52.600868
 20
38.336217
 30
0.0
 10
52.600868
 20
38.336217
 30
0.0
 10
53.532201
 20
38.886547
 30
0.0
 10
53.532201
 20
38.886547
 30
0.0
 10
54.336535
 20
39.563887
 30
0.0
 10
54.378865
 20
39.606187
 30
0.0
 10
55.056198
 20
40.410517
 30
0.0
 10
55.056198
 20
40.452817
 30
0.0
 10
55.606532
 20
41.341817
 30
0.0
 10
55.648862
 20
41.341817
 30
0.0
 10
56.029862
 20
42.315477
 30
0.0
 10
56.029862
 20
42.315477
 30
0.0
 10
56.283862
 20
43.331477
 30
0.0
 10
56.283862
 20
43.373777
 30
0.0
 10
56.368529
 20
44.432107
 30
0.0
 10
56.114529
 20
44.432107
 30
0.0
 10
56.029859
 20
43.373777
 30
0.0
 10
56.156859
 20
43.373777
 30
0.0
 10
56.029859
 20
43.373777
 30
0.0
 10
55.775859
 20
42.357777
 30
0.0
 10
55.902859
 20
42.357777
 30
0.0
 10
55.775859
 20
42.400077
 30
0.0
 10
55.394859
 20
41.426407
 30
0.0
 10
55.521859
 20
41.384107
 30
0.0
 10
55.394859
 20
41.426407
 30
0.0
 10
54.844526
 20
40.537407
 30
0.0
 10
54.971526
 20
40.495107
 30
0.0
 10
54.844526
 20
40.537407
 30
0.0
 10
54.167192
 20
39.733077
 30
0.0
 10
54.294192
 20
39.690777
 30
0.0
 10
54.209522
 20
39.775477
 30
0.0
 10
53.405188
 20
39.098147
 30
0.0
 10
53.489858
 20
39.013447
 30
0.0
 10
53.447528
 20
39.098147
 30
0.0
 10
52.516194
 20
38.547817
 30
0.0
 10
52.558524
 20
38.463117
 30
0.0
 10
52.516194
 20
38.590117
 30
0.0
 10
51.542528
 20
38.166787
 30
0.0
 10
51.584858
 20
38.039787
 30
0.0
 10
51.542528
 20
38.166787
 30
0.0
 10
50.526528
 20
37.912787
 30
0.0
 10
50.568858
 20
37.785787
 30
0.0
 10
50.568858
 20
37.912787
 30
0.0
 10
49.510525
 20
37.828087
 30
0.0
 10
48.452192
 20
37.912787
 30
0.0
 10
48.452192
 20
37.785787
 30
0.0
 10
48.452192
 20
37.912787
 30
0.0
 10
47.436192
 20
38.166787
 30
0.0
 10
47.436192
 20
38.039787
 30
0.0
 10
47.478522
 20
38.166787
 30
0.0
 10
46.504855
 20
38.590117
 30
0.0
 10
46.462525
 20
38.463117
 30
0.0
 10
46.504855
 20
38.547817
 30
0.0
 10
45.615855
 20
39.098147
 30
0.0
 10
44.811522
 20
39.775477
 30
0.0
 10
44.769192
 20
39.690777
 30
0.0
 10
44.853862
 20
39.733077
 30
0.0
 10
44.176529
 20
40.537407
 30
0.0
 10
44.091859
 20
40.495107
 30
0.0
 10
44.176529
 20
40.537407
 30
0.0
 10
43.626196
 20
41.426407
 30
0.0
 10
43.541526
 20
41.384107
 30
0.0
 10
43.668526
 20
41.426407
 30
0.0
 10
43.245193
 20
42.400077
 30
0.0
 10
43.118193
 20
42.357777
 30
0.0
 10
43.245193
 20
42.357777
 30
0.0
 10
43.033526
 20
43.373777
 30
0.0
 10
42.906526
 20
43.373777
 30
0.0
 10
43.033526
 20
43.373777
 30
0.0
 10
42.948856
 20
44.432107
 30
0.0
 10
43.033526
 20
45.490437
 30
0.0
 10
42.906526
 20
45.490437
 30
0.0
 10
43.033526
 20
45.448137
 30
0.0
 10
43.245193
 20
46.464137
 30
0.0
 10
43.118193
 20
46.506437
 30
0.0
 10
43.245193
 20
46.464137
 30
0.0
 10
43.668526
 20
47.437797
 30
0.0
 10
43.541526
 20
47.480097
 30
0.0
 10
43.626196
 20
47.437797
 30
0.0
 10
44.176529
 20
48.326797
 30
0.0
 10
44.091859
 20
48.369097
 30
0.0
 10
44.176529
 20
48.284397
 30
0.0
 10
44.853862
 20
49.088727
 30
0.0
 10
44.769192
 20
49.173427
 30
0.0
 10
44.811522
 20
49.046427
 30
0.0
 10
45.615855
 20
49.723757
 30
0.0
 10
46.504855
 20
50.274097
 30
0.0
 10
46.462525
 20
50.401097
 30
0.0
 10
46.504855
 20
50.274097
 30
0.0
 10
47.478522
 20
50.697427
 30
0.0
 10
47.436192
 20
50.824427
 30
0.0
 10
47.436192
 20
50.697427
 30
0.0
 10
48.452192
 20
50.951427
 30
0.0
 10
48.452192
 20
51.078427
 30
0.0
 10
48.452192
 20
50.951427
 30
0.0
 10
49.510525
 20
51.036127
 30
0.0
 10
50.568858
 20
50.951427
 30
0.0
 10
50.568858
 20
51.078427
 30
0.0
 10
50.526528
 20
50.951427
 30
0.0
 10
51.542528
 20
50.697427
 30
0.0
 10
51.584858
 20
50.824427
 30
0.0
 10
51.542528
 20
50.697427
 30
0.0
 10
52.516194
 20
50.274097
 30
0.0
 10
52.558524
 20
50.401097
 30
0.0
 10
52.516194
 20
50.274097
 30
0.0
 10
53.447528
 20
49.723757
 30
0.0
 10
53.489858
 20
49.850757
 30
0.0
 10
53.405188
 20
49.723757
 30
0.0
 10
54.209522
 20
49.046427
 30
0.0
 10
54.294192
 20
49.173427
 30
0.0
 10
54.167192
 20
49.088727
 30
0.0
 10
54.844526
 20
48.284397
 30
0.0
 10
54.971526
 20
48.369097
 30
0.0
 10
54.844526
 20
48.326797
 30
0.0
 10
55.394859
 20
47.437797
 30
0.0
 10
55.521859
 20
47.480097
 30
0.0
 10
55.394859
 20
47.437797
 30
0.0
 10
55.775859
 20
46.464137
 30
0.0
 10
55.902859
 20
46.506437
 30
0.0
 10
55.775859
 20
46.464137
 30
0.0
 10
56.029859
 20
45.448137
 30
0.0
 10
56.156859
 20
45.490437
 30
0.0
 10
56.029859
 20
45.490437
 30
0.0
  0
LWPOLYLINE
  5
1f2
100
AcDbEntity
  8
DIMENSIONS
 62
7
100
AcDbPolyline
 90
194
 70
1
 10
109.581528
 20
55.057767
 30
0.0
 10
109.835528
 20
55.057767
 30
0.0
 10
109.750858
 20
56.370107
 30
0.0
 10
109.750858
 20
56.370107
 30
0.0
 10
109.496858
 20
57.597767
 30
0.0
 10
109.073525
 20
58.825437
 30
0.0
 10
109.073525
 20
58.867737
 30
0.0
 10
108.523191
 20
60.010737
 30
0.0
 10
108.480861
 20
60.010737
 30
0.0
 10
107.761194
 20
61.069077
 30
0.0
 10
106.914528
 20
62.042737
 30
0.0
 10
106.914528
 20
62.085037
 30
0.0
 10
105.940861
 20
62.931697
 30
0.0
 10
105.898531
 20
62.931697
 30
0.0
 10
104.840197
 20
63.651367
 30
0.0
 10
104.840197
 20
63.651367
 30
0.0
 10
103.697197
 20
64.201697
 30
0.0
 10
103.654867
 20
64.243997
 30
0.0
 10
102.427200
 20
64.667327
 30
0.0
 10
101.199534
 20
64.921327
 30
0.0
 10
101.199534
 20
64.921327
 30
0.0
 10
99.887200
 20
65.006027
 30
0.0
 10
98.617200
 20
64.921327
 30
0.0
 10
98.574870
 20
64.921327
 30
0.0
 10
97.304870
 20
64.667327
 30
0.0
 10
96.119537
 20
64.243997
 30
0.0
 10
96.119537
 20
64.201697
 30
0.0
 10
94.976537
 20
63.651367
 30
0.0
 10
94.934207
 20
63.651367
 30
0.0
 10
93.875873
 20
62.931697
 30
0.0
 10
93.875873
 20
62.931697
 30
0.0
 10
92.902207
 20
62.085037
 30
0.0
 10
92.859877
 20
62.042737
 30
0.0
 10
92.013211
 20
61.069077
 30
0.0
 10
91.293544
 20
60.010737
 30
0.0
 10
91.293544
 20
60.010737
 30
0.0
 10
90.743211
 20
58.867737
 30
0.0
 10
90.743211
 20
58.825437
 30
0.0
 10
90.319877
 20
57.597767
 30
0.0
 10
90.065877
 20
56.370107
 30
0.0
 10
90.065877
 20
56.370107
 30
0.0
 10
89.981207
 20
55.057767
 30
0.0
 10
90.065877
 20
53.787767
 30
0.0
 10
90.065877
 20
53.745467
 30
0.0
 10
90.319877
 20
52.475467
 30
0.0
 10
90.743211
 20
51.290137
 30
0.0
 10
90.743211
 20
51.290137
 30
0.0
 10
91.293544
 20
50.147137
 30
0.0
 10
91.293544
 20
50.104837
 30
0.0
 10
92.013211
 20
49.004177
 30
0.0
 10
92.055541
 20
49.004177
 30
0.0
 10
92.902208
 20
48.072837
 30
0.0
 10
93.875874
 20
47.226177
 30
0.0
 10
93.875874
 20
47.183877
 30
0.0
 10
94.934208
 20
46.464217
 30
0.0
 10
94.976538
 20
46.464217
 30
0.0
 10
96.119538
 20
45.913877
 30
0.0
 10
96.119538
 20
45.913877
 30
0.0
 10
97.304871
 20
45.490547
 30
0.0
 10
98.574871
 20
45.236547
 30
0.0
 10
98.617201
 20
45.236547
 30
0.0
 10
99.887201
 20
45.151847
 30
0.0
 10
101.199535
 20
45.236547
 30
0.0
 10
101.199535
 20
45.236547
 30
0.0
 10
102.427201
 20
45.490547
 30
0.0
 10
103.654868
 20
45.913877
 30
0.0
 10
103.697198
 20
45.913877
 30
0.0
 10
104.840198
 20
46.464217
 30
0.0
 10
104.840198
 20
46.464217
 30
0.0
 10
105.898532
 20
47.183877
 30
0.0
 10
105.940862
 20
47.226177
 30
0.0
 10
106.914529
 20
48.072837
 30
0.0
 10
107.761195
 20
49.004177
 30
0.0
 10
107.761195
 20
49.004177
 30
0.0
 10
108.480862
 20
50.104837
 30
0.0
 10
108.523192
 20
50.147137
 30
0.0
 10
109.073526
 20
51.290137
 30
0.0
 10
109.073526
 20
51.290137
 30
0.0
 10
109.496859
 20
52.475467
 30
0.0
 10
109.750859
 20
53.745467
 30
0.0
 10
109.750859
 20
53.787767
 30
0.0
 10
109.835529
 20
55.057767
 30
0.0
 10
109.581529
 20
55.057767
 30
0.0
 10
109.496859
 20
53.787767
 30
0.0
 10
109.623859
 20
53.787767
 30
0.0
 10
109.496859
 20
53.787767
 30
0.0
 10
109.242859
 20
52.517767
 30
0.0
 10
108.819526
 20
51.332437
 30
0.0
 10
108.946526
 20
51.332437
 30
0.0
 10
108.819526
 20
51.374737
 30
0.0
 10
108.269192
 20
50.231737
 30
0.0
 10
108.396192
 20
50.189437
 30
0.0
 10
108.269192
 20
50.231737
 30
0.0
 10
107.549526
 20
49.131077
 30
0.0
 10
107.676526
 20
49.088777
 30
0.0
 10
107.591856
 20
49.173477
 30
0.0
 10
106.745189
 20
48.242147
 30
0.0
 10
105.771523
 20
47.395477
 30
0.0
 10
105.856193
 20
47.310777
 30
0.0
 10
105.771523
 20
47.395477
 30
0.0
 10
104.713189
 20
46.675807
 30
0.0
 10
104.797859
 20
46.591107
 30
0.0
 10
104.755529
 20
46.675807
 30
0.0
 10
103.612529
 20
46.125477
 30
0.0
 10
103.654859
 20
46.040777
 30
0.0
 10
103.612529
 20
46.167777
 30
0.0
 10
102.384862
 20
45.744447
 30
0.0
 10
101.157195
 20
45.490447
 30
0.0
 10
101.199525
 20
45.363447
 30
0.0
 10
101.199525
 20
45.490447
 30
0.0
 10
99.887191
 20
45.405747
 30
0.0
 10
98.617191
 20
45.490447
 30
0.0
 10
98.617191
 20
45.363447
 30
0.0
 10
98.617191
 20
45.490447
 30
0.0
 10
97.347191
 20
45.744447
 30
0.0
 10
96.161858
 20
46.167777
 30
0.0
 10
96.161858
 20
46.040777
 30
0.0
 10
96.204188
 20
46.125477
 30
0.0
 10
95.061188
 20
46.675807
 30
0.0
 10
95.018858
 20
46.591107
 30
0.0
 10
95.061188
 20
46.675807
 30
0.0
 10
94.002854
 20
47.395477
 30
0.0
 10
93.960524
 20
47.310777
 30
0.0
 10
94.045194
 20
47.395477
 30
0.0
 10
93.071527
 20
48.242147
 30
0.0
 10
92.224860
 20
49.173477
 30
0.0
 10
92.140190
 20
49.088777
 30
0.0
 10
92.224860
 20
49.131077
 30
0.0
 10
91.505194
 20
50.231737
 30
0.0
 10
91.420524
 20
50.189437
 30
0.0
 10
91.547524
 20
50.231737
 30
0.0
 10
90.997191
 20
51.374737
 30
0.0
 10
90.870191
 20
51.332437
 30
0.0
 10
90.997191
 20
51.332437
 30
0.0
 10
90.573857
 20
52.517767
 30
0.0
 10
90.319857
 20
53.787767
 30
0.0
 10
90.192857
 20
53.787767
 30
0.0
 10
90.319857
 20
53.787767
 30
0.0
 10
90.235187
 20
55.057767
 30
0.0
 10
90.319857
 20
56.370107
 30
0.0
 10
90.192857
 20
56.370107
 30
0.0
 10
90.319857
 20
56.327807
 30
0.0
 10
90.573857
 20
57.555477
 30
0.0
 10
90.997191
 20
58.783147
 30
0.0
 10
90.870191
 20
58.825447
 30
0.0
 10
90.997191
 20
58.783147
 30
0.0
 10
91.547524
 20
59.926147
 30
0.0
 10
91.420524
 20
59.968447
 30
0.0
 10
91.505194
 20
59.883747
 30
0.0
 10
92.224860
 20
60.942087
 30
0.0
 10
93.071527
 20
61.915747
 30
0.0
 10
92.986857
 20
62.000447
 30
0.0
 10
93.071527
 20
61.915747
 30
0.0
 10
94.045194
 20
62.762417
 30
0.0
 10
93.960524
 20
62.847117
 30
0.0
 10
94.002854
 20
62.720117
 30
0.0
 10
95.061188
 20
63.439777
 30
0.0
 10
95.018858
 20
63.566777
 30
0.0
 10
95.061188
 20
63.439777
 30
0.0
 10
96.204188
 20
63.990117
 30
0.0
 10
96.161858
 20
64.117117
 30
0.0
 10
96.161858
 20
63.990117
 30
0.0
 10
97.347191
 20
64.413447
 30
0.0
 10
98.617191
 20
64.667447
 30
0.0
 10
98.617191
 20
64.794447
 30
0.0
 10
98.617191
 20
64.667447
 30
0.0
 10
99.887191
 20
64.752147
 30
0.0
 10
101.199525
 20
64.667447
 30
0.0
 10
101.199525
 20
64.794447
 30
0.0
 10
101.157195
 20
64.667447
 30
0.0
 10
102.384862
 20
64.413447
 30
0.0
 10
103.612529
 20
63.990117
 30
0.0
 10
103.654859
 20
64.117117
 30
0.0
 10
103.612529
 20
63.990117
 30
0.0
 10
104.755529
 20
63.439777
 30
0.0
 10
104.797859
 20
63.566777
 30
0.0
 10
104.713189
 20
63.439777
 30
0.0
 10
105.771523
 20
62.720117
 30
0.0
 10
105.856193
 20
62.847117
 30
0.0
 10
105.771523
 20
62.762417
 30
0.0
 10
106.745189
 20
61.915747
 30
0.0
 10
106.829859
 20
62.000447
 30
0.0
 10
106.702859
 20
61.915747
 30
0.0
 10
107.549526
 20
60.942087
 30
0.0
 10
108.269192
 20
59.883747
 30
0.0
 10
108.396192
 20
59.968447
 30
0.0
 10
108.269192
 20
59.926147
 30
0.0
 10
108.819526
 20
58.783147
 30
0.0
 10
108.946526
 20
58.825447
 30
0.0
 10
108.819526
 20
58.783147
 30
0.0
 10
109.242859
 20
57.555477
 30
0.0
 10
109.496859
 20
56.327807
 30
0.0
 10
109.623859
 20
56.370107
 30
0.0
 10
109.496859
 20
56.370107
 30
0.0
  0
LWPOLYLINE
  5
1f3
100
AcDbEntity
  8
DIMENSIONS
 62
7
100
AcDbPolyline
 90
194
 70
1
 10
137.563860
 20
55.057767
 30
0.0
 10
137.817860
 20
55.057767
 30
0.0
 10
137.733190
 20
56.370107
 30
0.0
 10
137.733190
 20
56.370107
 30
0.0
 10
137.479190
 20
57.597767
 30
0.0
 10
137.055856
 20
58.825437
 30
0.0
 10
137.055856
 20
58.867737
 30
0.0
 10
136.505523
 20
60.010737
 30
0.0
 10
136.463193
 20
60.010737
 30
0.0
 10
135.743526
 20
61.069077
 30
0.0
 10
134.896859
 20
62.042737
 30
0.0
 10
134.896859
 20
62.085037
 30
0.0
 10
133.923193
 20
62.931697
 30
0.0
 10
133.880863
 20
62.931697
 30
0.0
 10
132.822530
 20
63.651367
 30
0.0
 10
132.822530
 20
63.651367
 30
0.0
 10
131.679530
 20
64.201697
 30
0.0
 10
131.637200
 20
64.243997
 30
0.0
 10
130.409533
 20
64.667327
 30
0.0
 10
129.181866
 20
64.921327
 30
0.0
 10
129.181866
 20
64.921327
 30
0.0
 10
127.911866
 20
65.006027
 30
0.0
 10
126.599533
 20
64.921327
 30
0.0
 10
126.557203
 20
64.921327
 30
0.0
 10
125.329536
 20
64.667327
 30
0.0
 10
124.101870
 20
64.243997
 30
0.0
 10
124.101870
 20
64.201697
 30
0.0
 10
122.958870
 20
63.651367
 30
0.0
 10
122.916540
 20
63.651367
 30
0.0
 10
121.858207
 20
62.931697
 30
0.0
 10
121.858207
 20
62.931697
 30
0.0
 10
120.884540
 20
62.085037
 30
0.0
 10
120.842210
 20
62.042737
 30
0.0
 10
119.995543
 20
61.069077
 30
0.0
 10
119.275877
 20
60.010737
 30
0.0
 10
119.275877
 20
60.010737
 30
0.0
 10
118.725543
 20
58.867737
 30
0.0
 10
118.725543
 20
58.825437
 30
0.0
 10
118.302210
 20
57.597767
 30
0.0
 10
118.048210
 20
56.370107
 30
0.0
 10
118.048210
 20
56.370107
 30
0.0
 10
117.963540
 20
55.057767
 30
0.0
 10
118.048210
 20
53.787767
 30
0.0
 10
118.048210
 20
53.745467
 30
0.0
 10
118.302210
 20
52.475467
 30
0.0
 10
118.725543
 20
51.290137
 30
0.0
 10
118.725543
 20
51.290137
 30
0.0
 10
119.275877
 20
50.147137
 30
0.0
 10
119.275877
 20
50.104837
 30
0.0
 10
119.995543
 20
49.004177
 30
0.0
 10
120.037873
 20
49.004177
 30
0.0
 10
120.884539
 20
48.072837
 30
0.0
 10
121.858206
 20
47.226177
 30
0.0
 10
121.858206
 20
47.183877
 30
0.0
 10
122.916539
 20
46.464217
 30
0.0
 10
122.958869
 20
46.464217
 30
0.0
 10
124.101869
 20
45.913877
 30
0.0
 10
124.101869
 20
45.913877
 30
0.0
 10
125.329535
 20
45.490547
 30
0.0
 10
126.557202
 20
45.236547
 30
0.0
 10
126.599532
 20
45.236547
 30
0.0
 10
127.911865
 20
45.151847
 30
0.0
 10
129.181865
 20
45.236547
 30
0.0
 10
129.181865
 20
45.236547
 30
0.0
 10
130.409532
 20
45.490547
 30
0.0
 10
131.637199
 20
45.913877
 30
0.0
 10
131.679529
 20
45.913877
 30
0.0
 10
132.822529
 20
46.464217
 30
0.0
 10
132.822529
 20
46.464217
 30
0.0
 10
133.880862
 20
47.183877
 30
0.0
 10
133.923192
 20
47.226177
 30
0.0
 10
134.896858
 20
48.072837
 30
0.0
 10
135.743525
 20
49.004177
 30
0.0
 10
135.743525
 20
49.004177
 30
0.0
 10
136.463192
 20
50.104837
 30
0.0
 10
136.505522
 20
50.147137
 30
0.0
 10
137.055855
 20
51.290137
 30
0.0
 10
137.055855
 20
51.290137
 30
0.0
 10
137.479189
 20
52.475467
 30
0.0
 10
137.733189
 20
53.745467
 30
0.0
 10
137.733189
 20
53.787767
 30
0.0
 10
137.817859
 20
55.057767
 30
0.0
 10
137.563859
 20
55.057767
 30
0.0
 10
137.479189
 20
53.787767
 30
0.0
 10
137.606189
 20
53.787767
 30
0.0
 10
137.479189
 20
53.787767
 30
0.0
 10
137.225189
 20
52.517767
 30
0.0
 10
136.801855
 20
51.332437
 30
0.0
 10
136.928855
 20
51.332437
 30
0.0
 10
136.801855
 20
51.374737
 30
0.0
 10
136.251522
 20
50.231737
 30
0.0
 10
136.378522
 20
50.189437
 30
0.0
 10
136.251522
 20
50.231737
 30
0.0
 10
135.531855
 20
49.131077
 30
0.0
 10
135.658855
 20
49.088777
 30
0.0
 10
135.574185
 20
49.173477
 30
0.0
 10
134.727518
 20
48.242147
 30
0.0
 10
133.753851
 20
47.395477
 30
0.0
 10
133.838521
 20
47.310777
 30
0.0
 10
133.753851
 20
47.395477
 30
0.0
 10
132.695518
 20
46.675807
 30
0.0
 10
132.780188
 20
46.591107
 30
0.0
 10
132.737858
 20
46.675807
 30
0.0
 10
131.594858
 20
46.125477
 30
0.0
 10
131.637188
 20
46.040777
 30
0.0
 10
131.594858
 20
46.167777
 30
0.0
 10
130.367192
 20
45.744447
 30
0.0
 10
129.139525
 20
45.490447
 30
0.0
 10
129.181855
 20
45.363447
 30
0.0
 10
129.181855
 20
45.490447
 30
0.0
 10
127.911855
 20
45.405747
 30
0.0
 10
126.599522
 20
45.490447
 30
0.0
 10
126.599522
 20
45.363447
 30
0.0
 10
126.599522
 20
45.490447
 30
0.0
 10
125.371856
 20
45.744447
 30
0.0
 10
124.144189
 20
46.167777
 30
0.0
 10
124.144189
 20
46.040777
 30
0.0
 10
124.186519
 20
46.125477
 30
0.0
 10
123.043519
 20
46.675807
 30
0.0
 10
123.001189
 20
46.591107
 30
0.0
 10
123.043519
 20
46.675807
 30
0.0
 10
121.985186
 20
47.395477
 30
0.0
 10
121.942856
 20
47.310777
 30
0.0
 10
122.027526
 20
47.395477
 30
0.0
 10
121.053860
 20
48.242147
 30
0.0
 10
120.207193
 20
49.173477
 30
0.0
 10
120.122523
 20
49.088777
 30
0.0
 10
120.207193
 20
49.131077
 30
0.0
 10
119.487526
 20
50.231737
 30
0.0
 10
119.402856
 20
50.189437
 30
0.0
 10
119.529856
 20
50.231737
 30
0.0
 10
118.979522
 20
51.374737
 30
0.0
 10
118.852522
 20
51.332437
 30
0.0
 10
118.979522
 20
51.332437
 30
0.0
 10
118.556189
 20
52.517767
 30
0.0
 10
118.302189
 20
53.787767
 30
0.0
 10
118.175189
 20
53.787767
 30
0.0
 10
118.302189
 20
53.787767
 30
0.0
 10
118.217519
 20
55.057767
 30
0.0
 10
118.302189
 20
56.370107
 30
0.0
 10
118.175189
 20
56.370107
 30
0.0
 10
118.302189
 20
56.327807
 30
0.0
 10
118.556189
 20
57.555477
 30
0.0
 10
118.979522
 20
58.783147
 30
0.0
 10
118.852522
 20
58.825447
 30
0.0
 10
118.979522
 20
58.783147
 30
0.0
 10
119.529856
 20
59.926147
 30
0.0
 10
119.402856
 20
59.968447
 30
0.0
 10
119.487526
 20
59.883747
 30
0.0
 10
120.207193
 20
60.942087
 30
0.0
 10
121.053860
 20
61.915747
 30
0.0
 10
120.969190
 20
62.000447
 30
0.0
 10
121.053860
 20
61.915747
 30
0.0
 10
122.027526
 20
62.762417
 30
0.0
 10
121.942856
 20
62.847117
 30
0.0
 10
121.985186
 20
62.720117
 30
0.0
 10
123.043519
 20
63.439777
 30
0.0
 10
123.001189
 20
63.566777
 30
0.0
 10
123.043519
 20
63.439777
 30
0.0
 10
124.186519
 20
63.990117
 30
0.0
 10
124.144189
 20
64.117117
 30
0.0
 10
124.144189
 20
63.990117
 30
0.0
 10
125.371856
 20
64.413447
 30
0.0
 10
126.599522
 20
64.667447
 30
0.0
 10
126.599522
 20
64.794447
 30
0.0
 10
126.599522
 20
64.667447
 30
0.0
 10
127.911855
 20
64.752147
 30
0.0
 10
129.181855
 20
64.667447
 30
0.0
 10
129.181855
 20
64.794447
 30
0.0
 10
129.139525
 20
64.667447
 30
0.0
 10
130.367192
 20
64.413447
 30
0.0
 10
131.594858
 20
63.990117
 30
0.0
 10
131.637188
 20
64.117117
 30
0.0
 10
131.594858
 20
63.990117
 30
0.0
 10
132.737858
 20
63.439777
 30
0.0
 10
132.780188
 20
63.566777
 30
0.0
 10
132.695518
 20
63.439777
 30
0.0
 10
133.753851
 20
62.720117
 30
0.0
 10
133.838521
 20
62.847117
 30
0.0
 10
133.753851
 20
62.762417
 30
0.0
 10
134.727518
 20
61.915747
 30
0.0
 10
134.812188
 20
62.000447
 30
0.0
 10
134.685188
 20
61.915747
 30
0.0
 10
135.531854
 20
60.942087
 30
0.0
 10
136.251521
 20
59.883747
 30
0.0
 10
136.378521
 20
59.968447
 30
0.0
 10
136.251521
 20
59.926147
 30
0.0
 10
136.801854
 20
58.783147
 30
0.0
 10
136.928854
 20
58.825447
 30
0.0
 10
136.801854
 20
58.783147
 30
0.0
 10
137.225188
 20
57.555477
 30
0.0
 10
137.479188
 20
56.327807
 30
0.0
 10
137.606188
 20
56.370107
 30
0.0
 10
137.479188
 20
56.370107
 30
0.0
  0
LWPOLYLINE
  5
1f4
100
AcDbEntity
  8
DIMENSIONS
 62
7
100
AcDbPolyline
 90
194
 70
1
 10
165.546193
 20
55.057767
 30
0.0
 10
165.800193
 20
55.057767
 30
0.0
 10
165.715523
 20
56.370107
 30
0.0
 10
165.715523
 20
56.370107
 30
0.0
 10
165.461523
 20
57.597767
 30
0.0
 10
165.038190
 20
58.825437
 30
0.0
 10
165.038190
 20
58.867737
 30
0.0
 10
164.487857
 20
60.010737
 30
0.0
 10
164.445527
 20
60.010737
 30
0.0
 10
163.725861
 20
61.069077
 30
0.0
 10
162.879194
 20
62.042737
 30
0.0
 10
162.879194
 20
62.085037
 30
0.0
 10
161.947861
 20
62.931697
 30
0.0
 10
161.905531
 20
62.931697
 30
0.0
 10
160.804865
 20
63.651367
 30
0.0
 10
160.804865
 20
63.651367
 30
0.0
 10
159.661865
 20
64.201697
 30
0.0
 10
159.619535
 20
64.243997
 30
0.0
 10
158.434202
 20
64.667327
 30
0.0
 10
157.164202
 20
64.921327
 30
0.0
 10
157.164202
 20
64.921327
 30
0.0
 10
155.894202
 20
65.006027
 30
0.0
 10
154.581869
 20
64.921327
 30
0.0
 10
154.539539
 20
64.921327
 30
0.0
 10
153.311872
 20
64.667327
 30
0.0
 10
152.084205
 20
64.243997
 30
0.0
 10
152.084205
 20
64.201697
 30
0.0
 10
150.941205
 20
63.651367
 30
0.0
 10
150.898875
 20
63.651367
 30
0.0
 10
149.840542
 20
62.931697
 30
0.0
 10
149.840542
 20
62.931697
 30
0.0
 10
148.866875
 20
62.085037
 30
0.0
 10
148.824545
 20
62.042737
 30
0.0
 10
147.977878
 20
61.069077
 30
0.0
 10
147.258211
 20
60.010737
 30
0.0
 10
147.258211
 20
60.010737
 30
0.0
 10
146.707878
 20
58.867737
 30
0.0
 10
146.707878
 20
58.825437
 30
0.0
 10
146.284545
 20
57.597767
 30
0.0
 10
146.030545
 20
56.370107
 30
0.0
 10
146.030545
 20
56.370107
 30
0.0
 10
145.945875
 20
55.057767
 30
0.0
 10
146.030545
 20
53.787767
 30
0.0
 10
146.030545
 20
53.745467
 30
0.0
 10
146.284545
 20
52.475467
 30
0.0
 10
146.707878
 20
51.290137
 30
0.0
 10
146.707878
 20
51.290137
 30
0.0
 10
147.258211
 20
50.147137
 30
0.0
 10
147.258211
 20
50.104837
 30
0.0
 10
147.977878
 20
49.004177
 30
0.0
 10
148.020208
 20
49.004177
 30
0.0
 10
148.866875
 20
48.072837
 30
0.0
 10
149.840542
 20
47.226177
 30
0.0
 10
149.840542
 20
47.183877
 30
0.0
 10
150.898875
 20
46.464217
 30
0.0
 10
150.941205
 20
46.464217
 30
0.0
 10
152.084205
 20
45.913877
 30
0.0
 10
152.084205
 20
45.913877
 30
0.0
 10
153.311872
 20
45.490547
 30
0.0
 10
154.539539
 20
45.236547
 30
0.0
 10
154.581869
 20
45.236547
 30
0.0
 10
155.894202
 20
45.151847
 30
0.0
 10
157.164202
 20
45.236547
 30
0.0
 10
157.164202
 20
45.236547
 30
0.0
 10
158.434202
 20
45.490547
 30
0.0
 10
159.619535
 20
45.913877
 30
0.0
 10
159.661865
 20
45.913877
 30
0.0
 10
160.804865
 20
46.464217
 30
0.0
 10
160.804865
 20
46.464217
 30
0.0
 10
161.905531
 20
47.183877
 30
0.0
 10
161.947861
 20
47.226177
 30
0.0
 10
162.879194
 20
48.072837
 30
0.0
 10
163.725861
 20
49.004177
 30
0.0
 10
163.725861
 20
49.004177
 30
0.0
 10
164.445527
 20
50.104837
 30
0.0
 10
164.487857
 20
50.147137
 30
0.0
 10
165.038190
 20
51.290137
 30
0.0
 10
165.038190
 20
51.290137
 30
0.0
 10
165.461523
 20
52.475467
 30
0.0
 10
165.715523
 20
53.745467
 30
0.0
 10
165.715523
 20
53.787767
 30
0.0
 10
165.800193
 20
55.057767
 30
0.0
 10
165.546193
 20
55.057767
 30
0.0
 10
165.461523
 20
53.787767
 30
0.0
 10
165.588523
 20
53.787767
 30
0.0
 10
165.461523
 20
53.787767
 30
0.0
 10
165.207523
 20
52.517767
 30
0.0
 10
164.784190
 20
51.332437
 30
0.0
 10
164.911190
 20
51.332437
 30
0.0
 10
164.784190
 20
51.374737
 30
0.0
 10
164.233857
 20
50.231737
 30
0.0
 10
164.360857
 20
50.189437
 30
0.0
 10
164.233857
 20
50.231737
 30
0.0
 10
163.514190
 20
49.131077
 30
0.0
 10
163.641190
 20
49.088777
 30
0.0
 10
163.556520
 20
49.173477
 30
0.0
 10
162.709854
 20
48.242147
 30
0.0
 10
161.778520
 20
47.395477
 30
0.0
 10
161.863190
 20
47.310777
 30
0.0
 10
161.778520
 20
47.395477
 30
0.0
 10
160.677854
 20
46.675807
 30
0.0
 10
160.762524
 20
46.591107
 30
0.0
 10
160.720194
 20
46.675807
 30
0.0
 10
159.577194
 20
46.125477
 30
0.0
 10
159.619524
 20
46.040777
 30
0.0
 10
159.577194
 20
46.167777
 30
0.0
 10
158.391861
 20
45.744447
 30
0.0
 10
157.121861
 20
45.490447
 30
0.0
 10
157.164191
 20
45.363447
 30
0.0
 10
157.164191
 20
45.490447
 30
0.0
 10
155.894191
 20
45.405747
 30
0.0
 10
154.581858
 20
45.490447
 30
0.0
 10
154.581858
 20
45.363447
 30
0.0
 10
154.581858
 20
45.490447
 30
0.0
 10
153.354191
 20
45.744447
 30
0.0
 10
152.126525
 20
46.167777
 30
0.0
 10
152.126525
 20
46.040777
 30
0.0
 10
152.168855
 20
46.125477
 30
0.0
 10
151.025855
 20
46.675807
 30
0.0
 10
150.983525
 20
46.591107
 30
0.0
 10
151.025855
 20
46.675807
 30
0.0
 10
149.967522
 20
47.395477
 30
0.0
 10
149.925192
 20
47.310777
 30
0.0
 10
150.009862
 20
47.395477
 30
0.0
 10
149.036195
 20
48.242147
 30
0.0
 10
148.189529
 20
49.173477
 30
0.0
 10
148.104859
 20
49.088777
 30
0.0
 10
148.189529
 20
49.131077
 30
0.0
 10
147.469862
 20
50.231737
 30
0.0
 10
147.385192
 20
50.189437
 30
0.0
 10
147.512192
 20
50.231737
 30
0.0
 10
146.961859
 20
51.374737
 30
0.0
 10
146.834859
 20
51.332437
 30
0.0
 10
146.961859
 20
51.332437
 30
0.0
 10
146.538526
 20
52.517767
 30
0.0
 10
146.284526
 20
53.787767
 30
0.0
 10
146.157526
 20
53.787767
 30
0.0
 10
146.284526
 20
53.787767
 30
0.0
 10
146.199856
 20
55.057767
 30
0.0
 10
146.284526
 20
56.370107
 30
0.0
 10
146.157526
 20
56.370107
 30
0.0
 10
146.284526
 20
56.327807
 30
0.0
 10
146.538526
 20
57.555477
 30
0.0
 10
146.961859
 20
58.783147
 30
0.0
 10
146.834859
 20
58.825447
 30
0.0
 10
146.961859
 20
58.783147
 30
0.0
 10
147.512192
 20
59.926147
 30
0.0
 10
147.385192
 20
59.968447
 30
0.0
 10
147.469862
 20
59.883747
 30
0.0
 10
148.189529
 20
60.942087
 30
0.0
 10
149.036195
 20
61.915747
 30
0.0
 10
148.951525
 20
62.000447
 30
0.0
 10
149.036195
 20
61.915747
 30
0.0
 10
150.009862
 20
62.762417
 30
0.0
 10
149.925192
 20
62.847117
 30
0.0
 10
149.967522
 20
62.720117
 30
0.0
 10
151.025855
 20
63.439777
 30
0.0
 10
150.983525
 20
63.566777
 30
0.0
 10
151.025855
 20
63.439777
 30
0.0
 10
152.168855
 20
63.990117
 30
0.0
 10
152.126525
 20
64.117117
 30
0.0
 10
152.126525
 20
63.990117
 30
0.0
 10
153.354191
 20
64.413447
 30
0.0
 10
154.581858
 20
64.667447
 30
0.0
 10
154.581858
 20
64.794447
 30
0.0
 10
154.581858
 20
64.667447
 30
0.0
 10
155.894191
 20
64.752147
 30
0.0
 10
157.164191
 20
64.667447
 30
0.0
 10
157.164191
 20
64.794447
 30
0.0
 10
157.121861
 20
64.667447
 30
0.0
 10
158.391861
 20
64.413447
 30
0.0
 10
159.577194
 20
63.990117
 30
0.0
 10
159.619524
 20
64.117117
 30
0.0
 10
159.577194
 20
63.990117
 30
0.0
 10
160.720194
 20
63.439777
 30
0.0
 10
160.762524
 20
63.566777
 30
0.0
 10
160.677854
 20
63.439777
 30
0.0
 10
161.778520
 20
62.720117
 30
0.0
 10
161.863190
 20
62.847117
 30
0.0
 10
161.778520
 20
62.762417
 30
0.0
 10
162.709854
 20
61.915747
 30
0.0
 10
162.794524
 20
62.000447
 30
0.0
 10
162.667524
 20
61.915747
 30
0.0
 10
163.514191
 20
60.942087
 30
0.0
 10
164.233858
 20
59.883747
 30
0.0
 10
164.360858
 20
59.968447
 30
0.0
 10
164.233858
 20
59.926147
 30
0.0
 10
164.784191
 20
58.783147
 30
0.0
 10
164.911191
 20
58.825447
 30
0.0
 10
164.784191
 20
58.783147
 30
0.0
 10
165.207524
 20
57.555477
 30
0.0
 10
165.461524
 20
56.327807
 30
0.0
 10
165.588524
 20
56.370107
 30
0.0
 10
165.461524
 20
56.370107
 30
0.0
  0
LWPOLYLINE
  5
1f5
100
AcDbEntity
  8
DIMENSIONS
 62
7
100
AcDbPolyline
 90
150
 70
1
 10
44.557529
 20
65.006107
 30
0.0
 10
44.345862
 20
64.921407
 30
0.0
 10
44.853862
 20
64.074737
 30
0.0
 10
44.853862
 20
64.032437
 30
0.0
 10
45.488862
 20
63.270437
 30
0.0
 10
45.531192
 20
63.228137
 30
0.0
 10
46.293192
 20
62.635467
 30
0.0
 10
46.335522
 20
62.635467
 30
0.0
 10
47.182189
 20
62.169797
 30
0.0
 10
47.182189
 20
62.169797
 30
0.0
 10
48.071189
 20
61.831137
 30
0.0
 10
48.071189
 20
61.831137
 30
0.0
 10
49.044855
 20
61.661797
 30
0.0
 10
49.087185
 20
61.661797
 30
0.0
 10
50.060851
 20
61.704097
 30
0.0
 10
50.060851
 20
61.704097
 30
0.0
 10
50.992185
 20
61.873427
 30
0.0
 10
51.034515
 20
61.873427
 30
0.0
 10
51.965848
 20
62.212097
 30
0.0
 10
51.965848
 20
62.212097
 30
0.0
 10
52.812515
 20
62.677757
 30
0.0
 10
52.854845
 20
62.720057
 30
0.0
 10
53.574512
 20
63.355057
 30
0.0
 10
53.574512
 20
63.355057
 30
0.0
 10
54.209512
 20
64.117057
 30
0.0
 10
54.209512
 20
64.159357
 30
0.0
 10
54.675178
 20
65.006027
 30
0.0
 10
54.717508
 20
65.006027
 30
0.0
 10
55.056174
 20
65.895027
 30
0.0
 10
55.225508
 20
66.868687
 30
0.0
 10
55.225508
 20
66.910987
 30
0.0
 10
55.225508
 20
67.884647
 30
0.0
 10
55.225508
 20
67.884647
 30
0.0
 10
55.056174
 20
68.815987
 30
0.0
 10
54.717508
 20
69.747317
 30
0.0
 10
54.675178
 20
69.789617
 30
0.0
 10
54.209512
 20
70.636287
 30
0.0
 10
54.209512
 20
70.636287
 30
0.0
 10
53.574512
 20
71.355957
 30
0.0
 10
53.574512
 20
71.398257
 30
0.0
 10
52.854845
 20
72.033257
 30
0.0
 10
52.812515
 20
72.033257
 30
0.0
 10
51.965848
 20
72.541257
 30
0.0
 10
51.965848
 20
72.583557
 30
0.0
 10
51.034515
 20
72.922227
 30
0.0
 10
50.992185
 20
72.922227
 30
0.0
 10
50.060851
 20
73.091557
 30
0.0
 10
50.060851
 20
73.091557
 30
0.0
 10
49.087185
 20
73.091557
 30
0.0
 10
49.044855
 20
73.091557
 30
0.0
 10
48.071189
 20
72.922227
 30
0.0
 10
47.182189
 20
72.625897
 30
0.0
 10
47.182189
 20
72.583597
 30
0.0
 10
46.335522
 20
72.075597
 30
0.0
 10
46.293192
 20
72.075597
 30
0.0
 10
45.531192
 20
71.482937
 30
0.0
 10
45.488862
 20
71.440637
 30
0.0
 10
44.853862
 20
70.678637
 30
0.0
 10
44.853862
 20
70.678637
 30
0.0
 10
44.345862
 20
69.874307
 30
0.0
 10
44.345862
 20
69.832007
 30
0.0
 10
44.345862
 20
64.963667
 30
0.0
 10
44.599862
 20
64.963667
 30
0.0
 10
44.599862
 20
69.832007
 30
0.0
 10
44.472862
 20
69.832007
 30
0.0
 10
44.557532
 20
69.789707
 30
0.0
 10
45.065532
 20
70.594047
 30
0.0
 10
44.980862
 20
70.636347
 30
0.0
 10
45.065532
 20
70.551647
 30
0.0
 10
45.700532
 20
71.313647
 30
0.0
 10
45.615862
 20
71.398347
 30
0.0
 10
45.658192
 20
71.271347
 30
0.0
 10
46.420192
 20
71.864017
 30
0.0
 10
46.377862
 20
71.991017
 30
0.0
 10
46.420192
 20
71.864017
 30
0.0
 10
47.266858
 20
72.372017
 30
0.0
 10
47.224528
 20
72.499017
 30
0.0
 10
47.224528
 20
72.372017
 30
0.0
 10
48.113528
 20
72.668347
 30
0.0
 10
49.087195
 20
72.837677
 30
0.0
 10
49.087195
 20
72.964677
 30
0.0
 10
49.087195
 20
72.837677
 30
0.0
 10
50.060861
 20
72.837677
 30
0.0
 10
50.060861
 20
72.964677
 30
0.0
 10
50.018531
 20
72.837677
 30
0.0
 10
50.949864
 20
72.668347
 30
0.0
 10
50.992194
 20
72.795347
 30
0.0
 10
50.949864
 20
72.668347
 30
0.0
 10
51.881197
 20
72.329677
 30
0.0
 10
51.923527
 20
72.456677
 30
0.0
 10
51.881197
 20
72.329677
 30
0.0
 10
52.727864
 20
71.821677
 30
0.0
 10
52.770194
 20
71.948677
 30
0.0
 10
52.685524
 20
71.863977
 30
0.0
 10
53.405190
 20
71.228977
 30
0.0
 10
53.489860
 20
71.313677
 30
0.0
 10
53.362860
 20
71.228977
 30
0.0
 10
53.997860
 20
70.509307
 30
0.0
 10
54.124860
 20
70.594007
 30
0.0
 10
53.997860
 20
70.551707
 30
0.0
 10
54.463527
 20
69.705047
 30
0.0
 10
54.590527
 20
69.747347
 30
0.0
 10
54.463527
 20
69.705047
 30
0.0
 10
54.802193
 20
68.773707
 30
0.0
 10
54.971527
 20
67.842377
 30
0.0
 10
55.098527
 20
67.884677
 30
0.0
 10
54.971527
 20
67.884677
 30
0.0
 10
54.971527
 20
66.911017
 30
0.0
 10
55.098527
 20
66.911017
 30
0.0
 10
54.971527
 20
66.911017
 30
0.0
 10
54.802193
 20
65.937347
 30
0.0
 10
54.463527
 20
65.048347
 30
0.0
 10
54.590527
 20
65.048347
 30
0.0
 10
54.463527
 20
65.090647
 30
0.0
 10
53.997860
 20
64.243987
 30
0.0
 10
54.124860
 20
64.201687
 30
0.0
 10
53.997860
 20
64.243987
 30
0.0
 10
53.362860
 20
63.481987
 30
0.0
 10
53.489860
 20
63.439687
 30
0.0
 10
53.405190
 20
63.524387
 30
0.0
 10
52.685524
 20
62.889387
 30
0.0
 10
52.770194
 20
62.804687
 30
0.0
 10
52.727864
 20
62.889387
 30
0.0
 10
51.881197
 20
62.423717
 30
0.0
 10
51.923527
 20
62.339017
 30
0.0
 10
51.881197
 20
62.466017
 30
0.0
 10
50.949864
 20
62.127347
 30
0.0
 10
50.992194
 20
62.000347
 30
0.0
 10
50.949864
 20
62.127347
 30
0.0
 10
50.018531
 20
61.958017
 30
0.0
 10
50.060861
 20
61.831017
 30
0.0
 10
50.060861
 20
61.958017
 30
0.0
 10
49.087195
 20
61.915717
 30
0.0
 10
49.087195
 20
61.788717
 30
0.0
 10
49.087195
 20
61.915717
 30
0.0
 10
48.113528
 20
62.085057
 30
0.0
 10
48.113528
 20
61.958057
 30
0.0
 10
48.155858
 20
62.085057
 30
0.0
 10
47.266858
 20
62.423717
 30
0.0
 10
47.224528
 20
62.296717
 30
0.0
 10
47.266858
 20
62.381417
 30
0.0
 10
46.420192
 20
62.847087
 30
0.0
 10
46.377862
 20
62.762387
 30
0.0
 10
46.420192
 20
62.847087
 30
0.0
 10
45.658192
 20
63.439747
 30
0.0
 10
45.615862
 20
63.355047
 30
0.0
 10
45.700532
 20
63.397347
 30
0.0
 10
45.065532
 20
64.159347
 30
0.0
 10
44.980862
 20
64.117047
 30
0.0
 10
45.065532
 20
64.159347
 30
0.0
  0
LWPOLYLINE
  5
1f6
100
AcDbEntity
  8
DIMENSIONS
 62
7
100
AcDbPolyline
 90
79
 70
1
 10
45.277196
 20
51.374767
 30
0.0
 10
45.531196
 20
51.417067
 30
0.0
 10
45.446526
 20
51.840397
 30
0.0
 10
45.404196
 20
51.882697
 30
0.0
 10
45.150196
 20
52.263697
 30
0.0
 10
45.107866
 20
52.305997
 30
0.0
 10
44.769200
 20
52.559997
 30
0.0
 10
44.726870
 20
52.602297
 30
0.0
 10
44.303537
 20
52.686997
 30
0.0
 10
44.261207
 20
52.686997
 30
0.0
 10
43.795540
 20
52.602297
 30
0.0
 10
43.753210
 20
52.559997
 30
0.0
 10
43.414543
 20
52.305997
 30
0.0
 10
43.372213
 20
52.263697
 30
0.0
 10
43.118213
 20
51.882697
 30
0.0
 10
43.118213
 20
51.840397
 30
0.0
 10
43.033543
 20
51.417067
 30
0.0
 10
43.033543
 20
51.374767
 30
0.0
 10
43.118213
 20
50.951437
 30
0.0
 10
43.118213
 20
50.909137
 30
0.0
 10
43.372213
 20
50.528137
 30
0.0
 10
43.414543
 20
50.485837
 30
0.0
 10
43.753210
 20
50.274177
 30
0.0
 10
43.795540
 20
50.274177
 30
0.0
 10
44.261207
 20
50.189477
 30
0.0
 10
44.303537
 20
50.189477
 30
0.0
 10
44.726870
 20
50.274177
 30
0.0
 10
44.769200
 20
50.274177
 30
0.0
 10
45.107866
 20
50.485837
 30
0.0
 10
45.150196
 20
50.528137
 30
0.0
 10
45.404196
 20
50.909137
 30
0.0
 10
45.446526
 20
50.951437
 30
0.0
 10
45.531196
 20
51.374767
 30
0.0
 10
45.277196
 20
51.417067
 30
0.0
 10
45.192526
 20
50.993727
 30
0.0
 10
45.319526
 20
50.993727
 30
0.0
 10
45.192526
 20
51.036027
 30
0.0
 10
44.938526
 20
50.655027
 30
0.0
 10
45.065526
 20
50.612727
 30
0.0
 10
44.980856
 20
50.697427
 30
0.0
 10
44.642190
 20
50.485757
 30
0.0
 10
44.726860
 20
50.401057
 30
0.0
 10
44.684530
 20
50.528057
 30
0.0
 10
44.261197
 20
50.443357
 30
0.0
 10
44.303527
 20
50.316357
 30
0.0
 10
44.303527
 20
50.443357
 30
0.0
 10
43.837860
 20
50.528057
 30
0.0
 10
43.837860
 20
50.401057
 30
0.0
 10
43.880190
 20
50.485757
 30
0.0
 10
43.541523
 20
50.697427
 30
0.0
 10
43.499193
 20
50.612727
 30
0.0
 10
43.583863
 20
50.655027
 30
0.0
 10
43.329863
 20
51.036027
 30
0.0
 10
43.245193
 20
50.993727
 30
0.0
 10
43.372193
 20
50.993727
 30
0.0
 10
43.287523
 20
51.417067
 30
0.0
 10
43.160523
 20
51.417067
 30
0.0
 10
43.287523
 20
51.374767
 30
0.0
 10
43.372193
 20
51.798107
 30
0.0
 10
43.245193
 20
51.840407
 30
0.0
 10
43.329863
 20
51.755707
 30
0.0
 10
43.583863
 20
52.136707
 30
0.0
 10
43.499193
 20
52.221407
 30
0.0
 10
43.541523
 20
52.094407
 30
0.0
 10
43.880190
 20
52.348407
 30
0.0
 10
43.837860
 20
52.475407
 30
0.0
 10
43.837860
 20
52.348407
 30
0.0
 10
44.303527
 20
52.433107
 30
0.0
 10
44.303527
 20
52.560107
 30
0.0
 10
44.261197
 20
52.433107
 30
0.0
 10
44.684530
 20
52.348407
 30
0.0
 10
44.726860
 20
52.475407
 30
0.0
 10
44.642190
 20
52.348407
 30
0.0
 10
44.980856
 20
52.094407
 30
0.0
 10
45.065526
 20
52.221407
 30
0.0
 10
44.938526
 20
52.136707
 30
0.0
 10
45.192526
 20
51.755707
 30
0.0
 10
45.319526
 20
51.840407
 30
0.0
 10
45.192526
 20
51.798107
 30
0.0
  0
LWPOLYLINE
  5
1f7
100
AcDbEntity
  8
DIMENSIONS
 62
7
100
AcDbPolyline
 90
79
 70
1
 10
55.733529
 20
37.404777
 30
0.0
 10
55.987529
 20
37.447077
 30
0.0
 10
55.902859
 20
37.870407
 30
0.0
 10
55.860529
 20
37.912707
 30
0.0
 10
55.648862
 20
38.293707
 30
0.0
 10
55.606532
 20
38.336007
 30
0.0
 10
55.225532
 20
38.590007
 30
0.0
 10
55.183202
 20
38.632307
 30
0.0
 10
54.759869
 20
38.717007
 30
0.0
 10
54.717539
 20
38.717007
 30
0.0
 10
54.294205
 20
38.632307
 30
0.0
 10
54.251875
 20
38.590007
 30
0.0
 10
53.870875
 20
38.336007
 30
0.0
 10
53.828545
 20
38.293707
 30
0.0
 10
53.616878
 20
37.912707
 30
0.0
 10
53.616878
 20
37.870407
 30
0.0
 10
53.532208
 20
37.447077
 30
0.0
 10
53.532208
 20
37.404777
 30
0.0
 10
53.616878
 20
36.981437
 30
0.0
 10
53.616878
 20
36.981437
 30
0.0
 10
53.828545
 20
36.600437
 30
0.0
 10
53.913215
 20
36.515737
 30
0.0
 10
54.294215
 20
36.304067
 30
0.0
 10
54.294215
 20
36.304067
 30
0.0
 10
54.717549
 20
36.219367
 30
0.0
 10
54.759879
 20
36.219367
 30
0.0
 10
55.183212
 20
36.304067
 30
0.0
 10
55.225542
 20
36.304067
 30
0.0
 10
55.606542
 20
36.515737
 30
0.0
 10
55.648872
 20
36.600437
 30
0.0
 10
55.860539
 20
36.981437
 30
0.0
 10
55.902869
 20
36.981437
 30
0.0
 10
55.987539
 20
37.404777
 30
0.0
 10
55.733539
 20
37.447077
 30
0.0
 10
55.648869
 20
37.023747
 30
0.0
 10
55.775869
 20
37.023747
 30
0.0
 10
55.648869
 20
37.066047
 30
0.0
 10
55.437202
 20
36.685047
 30
0.0
 10
55.564202
 20
36.642747
 30
0.0
 10
55.521872
 20
36.727447
 30
0.0
 10
55.140872
 20
36.515787
 30
0.0
 10
55.183202
 20
36.431087
 30
0.0
 10
55.140872
 20
36.558087
 30
0.0
 10
54.717539
 20
36.473387
 30
0.0
 10
54.759869
 20
36.346387
 30
0.0
 10
54.759869
 20
36.473387
 30
0.0
 10
54.336536
 20
36.558087
 30
0.0
 10
54.336536
 20
36.431087
 30
0.0
 10
54.378866
 20
36.515787
 30
0.0
 10
53.997866
 20
36.727447
 30
0.0
 10
53.955536
 20
36.642747
 30
0.0
 10
54.040206
 20
36.685047
 30
0.0
 10
53.828540
 20
37.066047
 30
0.0
 10
53.743870
 20
37.023747
 30
0.0
 10
53.870870
 20
37.023747
 30
0.0
 10
53.786200
 20
37.447077
 30
0.0
 10
53.659200
 20
37.447077
 30
0.0
 10
53.786200
 20
37.404777
 30
0.0
 10
53.870870
 20
37.828107
 30
0.0
 10
53.743870
 20
37.870407
 30
0.0
 10
53.828540
 20
37.828107
 30
0.0
 10
54.040206
 20
38.209107
 30
0.0
 10
53.955536
 20
38.251407
 30
0.0
 10
53.997866
 20
38.124407
 30
0.0
 10
54.378866
 20
38.378407
 30
0.0
 10
54.336536
 20
38.505407
 30
0.0
 10
54.336536
 20
38.378407
 30
0.0
 10
54.759869
 20
38.463107
 30
0.0
 10
54.759869
 20
38.590107
 30
0.0
 10
54.717539
 20
38.463107
 30
0.0
 10
55.140872
 20
38.378407
 30
0.0
 10
55.183202
 20
38.505407
 30
0.0
 10
55.098532
 20
38.378407
 30
0.0
 10
55.479532
 20
38.124407
 30
0.0
 10
55.564202
 20
38.251407
 30
0.0
 10
55.437202
 20
38.209107
 30
0.0
 10
55.648869
 20
37.828107
 30
0.0
 10
55.775869
 20
37.870407
 30
0.0
 10
55.648869
 20
37.828107
 30
0.0
  0
ENDSEC
  0
SECTION
  2
OBJECTS
  0
DICTIONARY
  5
C
330
0
100
AcDbDictionary
  3
ACAD_GROUP
350
D
  3
ACAD_MLINESTYLE
350
17
  0
DICTIONARY
  5
D
330
C
100
AcDbDictionary
  0
DICTIONARY
  5
1A
330
C
100
AcDbDictionary
  0
DICTIONARY
  5
17
330
C
100
AcDbDictionary
  3
STANDARD
350
18
  0
DICTIONARY
  5
19
330
C
100
AcDbDictionary
  0
ENDSEC
  0
EOF
