  0
SECTION
  2
HEADER
  9
$ACADVER
  1
AC1006
  9
$DWGCODEPAGE
  3
ansi_1252
  9
$INSBASE
 10
0.0
 20
0.0
 30
0.0
  9
$EXTMIN
 10
-1.048874326056414
 20
0.073980659463237
  9
$EXTMAX
 10
71.63284472589623
 20
43.73546655336902
  9
$LIMMIN
 10
0.0
 20
0.0
  9
$LIMMAX
 10
420.0
 20
297.0
  9
$ORTHOMODE
 70
     0
  9
$REGENMODE
 70
     1
  9
$FILLMODE
 70
     1
  9
$QTEXTMODE
 70
     0
  9
$MIRRTEXT
 70
     0
  9
$DRAGMODE
 70
     2
  9
$LTSCALE
 40
1.0
  9
$OSMODE
 70
    37
  9
$ATTMODE
 70
     1
  9
$TEXTSIZE
 40
2.5
  9
$TRACEWID
 40
1.0
  9
$TEXTSTYLE
  7
STANDARD
  9
$CLAYER
  8
0
  9
$CELTYPE
  6
BYLAYER
  9
$CECOLOR
 62
   256
  9
$DIMSCALE
 40
1.0
  9
$DIMASZ
 40
2.5
  9
$DIMEXO
 40
0.625
  9
$DIMDLI
 40
3.75
  9
$DIMRND
 40
0.0
  9
$DIMDLE
 40
0.0
  9
$DIMEXE
 40
1.25
  9
$DIMTP
 40
0.0
  9
$DIMTM
 40
0.0
  9
$DIMTXT
 40
2.5
  9
$DIMCEN
 40
2.5
  9
$DIMTSZ
 40
0.0
  9
$DIMTOL
 70
     0
  9
$DIMLIM
 70
     0
  9
$DIMTIH
 70
     0
  9
$DIMTOH
 70
     0
  9
$DIMSE1
 70
     0
  9
$DIMSE2
 70
     0
  9
$DIMTAD
 70
     1
  9
$DIMZIN
 70
     8
  9
$DIMBLK
  1

  9
$DIMASO
 70
     1
  9
$DIMSHO
 70
     1
  9
$DIMPOST
  1

  9
$DIMAPOST
  1

  9
$DIMALT
 70
     0
  9
$DIMALTD
 70
     3
  9
$DIMALTF
 40
0.03937007874016
  9
$DIMLFAC
 40
1.0
  9
$DIMTOFL
 70
     1
  9
$DIMTVP
 40
0.0
  9
$DIMTIX
 70
     0
  9
$DIMSOXD
 70
     0
  9
$DIMSAH
 70
     0
  9
$DIMBLK1
  1

  9
$DIMBLK2
  1

  9
$LUNITS
 70
     2
  9
$LUPREC
 70
     4
  9
$SKETCHINC
 40
1.0
  9
$FILLETRAD
 40
0.0
  9
$AUNITS
 70
     0
  9
$AUPREC
 70
     0
  9
$MENU
  1
.
  9
$ELEVATION
 40
0.0
  9
$THICKNESS
 40
0.0
  9
$LIMCHECK
 70
     0
  9
$CHAMFERA
 40
0.0
  9
$CHAMFERB
 40
0.0
  9
$SKPOLY
 70
     0
  9
$TDCREATE
 40
2453353.508792488
  9
$TDUPDATE
 40
4909571.848902222
  9
$TDINDWG
 40
9791572.06217926
  9
$TDUSRTIMER
 40
9791572.06217926
  9
$USRTIMER
 70
     1
  9
$ANGBASE
 50
0.0
  9
$ANGDIR
 70
     0
  9
$PDMODE
 70
     0
  9
$PDSIZE
 40
0.0
  9
$PLINEWID
 40
0.0
  9
$COORDS
 70
     1
  9
$SPLFRAME
 70
     0
  9
$SPLINETYPE
 70
     6
  9
$SPLINESEGS
 70
     8
  9
$ATTDIA
 70
     0
  9
$ATTREQ
 70
     1
  9
$HANDLING
 70
     1
  9
$HANDSEED
  5
E8
  9
$SURFTAB1
 70
     6
  9
$SURFTAB2
 70
     6
  9
$SURFTYPE
 70
     6
  9
$SURFU
 70
     6
  9
$SURFV
 70
     6
  9
$UCSNAME
  2

  9
$UCSORG
 10
0.0
 20
0.0
 30
0.0
  9
$UCSXDIR
 10
1.0
 20
0.0
 30
0.0
  9
$UCSYDIR
 10
0.0
 20
1.0
 30
0.0
  9
$USERI1
 70
     0
  9
$USERI2
 70
     0
  9
$USERI3
 70
     0
  9
$USERI4
 70
     0
  9
$USERI5
 70
     0
  9
$USERR1
 40
0.0
  9
$USERR2
 40
0.0
  9
$USERR3
 40
0.0
  9
$USERR4
 40
0.0
  9
$USERR5
 40
0.0
  9
$WORLDVIEW
 70
     1
  0
ENDSEC
  0
SECTION
  2
TABLES
  0
TABLE
  2
VPORT
 70
     1
  0
VPORT
  2
*ACTIVE
 70
     0
 10
0.0
 20
0.0
 11
1.0
 21
1.0
 12
29.37968140981273
 22
20.3957401591049
 13
0.0
 23
0.0
 14
10.0
 24
10.0
 15
10.0
 25
10.0
 16
0.0
 26
0.0
 36
1.0
 17
0.0
 27
0.0
 37
0.0
 40
49.19475443229722
 41
1.664827586206897
 42
50.0
 43
0.0
 44
0.0
 50
0.0
 51
0.0
 71
    16
 72
  1000
 73
     1
 74
     1
 75
     0
 76
     0
 77
     0
 78
     0
  0
ENDTAB
  0
TABLE
  2
LTYPE
 70
     1
  0
LTYPE
  2
CONTINUOUS
 70
     0
  3
Solid line
 72
    65
 73
     0
 40
0.0
  0
ENDTAB
  0
TABLE
  2
LAYER
 70
     1
  0
LAYER
  2
0
 70
     0
 62
     7
  6
CONTINUOUS
  0
ENDTAB
  0
TABLE
  2
STYLE
 70
     1
  0
STYLE
  2
STANDARD
 70
     0
 40
0.0
 41
1.0
 50
0.0
 71
     0
 42
2.5
  3
txt
  4

  0
ENDTAB
  0
TABLE
  2
VIEW
 70
     0
  0
ENDTAB
  0
TABLE
  2
UCS
 70
     0
  0
ENDTAB
  0
ENDSEC
  0
SECTION
  2
BLOCKS
  0
ENDSEC
  0
SECTION
  2
ENTITIES
  0
ARC
  5
31
  8
0
 62
     1
 10
43.22075022085817
 20
20.5690588850334
 30
0.0
 40
22.80743037555522
 50
93.53656986990988
 51
144.2854197735282
  0
ARC
  5
33
  8
0
 62
     1
 10
35.02253325047351
 20
53.19004566669327
 30
0.0
 40
25.37725721448393
 50
248.6021456970152
 51
291.4229641333895
  0
ARC
  5
35
  8
0
 62
     1
 10
21.90815576102889
 20
29.10014178412819
 30
0.0
 40
5.489513468591031
 50
60.4962396061982
 51
129.2327892693229
  0
ARC
  5
36
  8
0
 62
     1
 10
21.83733339451975
 20
32.43842223966979
 30
0.0
 40
3.659264466614401
 50
238.434426235183
 51
324.1854387128577
  0
ARC
  5
37
  8
0
 62
     1
 10
5.588731655406724
 20
18.98569043791586
 30
0.0
 40
19.14431203950282
 50
48.19501873550335
 51
103.5285572417304
  0
ARC
  5
38
  8
0
 62
     1
 10
16.55249366570012
 20
31.60170906436839
 30
0.0
 40
16.565823696445
 50
158.7759001239268
 51
210.8617397954022
  0
ARC
  5
39
  8
0
 62
     1
 10
3.026152402365009
 20
51.8258804428305
 30
0.0
 40
28.73029187260724
 50
268.6160690308469
 51
304.2246310392559
  0
ARC
  5
40
  8
0
 62
     1
 10
-15.33804106353464
 20
45.78904857282711
 30
0.0
 40
38.80461401541727
 50
295.0792854179655
 51
332.8315683875962
  0
ARC
  5
41
  8
0
 62
     1
 10
14.15934885644292
 20
13.67762563008854
 30
0.0
 40
13.39744338007685
 50
193.0922091298934
 51
265.3319404929664
  0
ARC
  5
42
  8
0
 62
     1
 10
-40.63954696563427
 20
34.06467550041023
 30
0.0
 40
63.42713905832435
 50
327.8627114334462
 51
353.8574805038211
  0
ARC
  5
43
  8
0
 62
     1
 10
51.12645174119952
 20
31.43194401715308
 30
0.0
 40
29.00205359527372
 50
188.2350586073874
 51
266.3058407339427
  0
ARC
  5
44
  8
0
 62
     1
 10
62.68388320470223
 20
7.493604277998257
 30
0.0
 40
14.32806261473634
 50
145.9305172912188
 51
200.438791124505
  0
ARC
  5
45
  8
0
 62
     1
 10
55.01438773254665
 20
52.37895208282589
 30
0.0
 40
37.09723619425294
 50
217.9560254663179
 51
263.5003803248102
  0
ARC
  5
4D
  8
0
 62
     1
 10
26.35832504813834
 20
33.44500109277857
 30
0.0
 40
18.34794771187175
 50
347.7951791917647
 51
32.61006871911005
  0
ARC
  5
56
  8
0
 62
     1
 10
42.0440376562219
 20
18.55972669871169
 30
0.0
 40
21.59937115775404
 50
93.70794473493574
 51
137.7322762043776
  0
ARC
  5
57
  8
0
 62
     1
 10
5.543589784207993
 20
48.93098839371652
 30
0.0
 40
22.92854196087054
 50
267.2166591224768
 51
302.5813319995528
  0
ARC
  5
D3
  8
0
 62
     1
 10
50.86022915297279
 20
39.02889892533007
 30
0.0
 40
28.80336964388521
 50
204.1135345428324
 51
253.9262334362894
  0
ARC
  5
D4
  8
0
 62
     1
 10
-32.15427078973229
 20
45.01136725948041
 30
0.0
 40
55.81787453654487
 50
318.5997644132982
 51
341.1133714883383
  0
ARC
  5
D8
  8
0
 62
     1
 10
6.464792662269354
 20
16.97422697567445
 30
0.0
 40
18.4149288493217
 50
54.11099692637222
 51
98.55322583206639
  0
ARC
  5
D9
  8
0
 62
     1
 10
33.02281628483596
 20
55.58977624403039
 30
0.0
 40
25.32876988268361
 50
255.9659060219864
 51
291.1367150992651
  0
ENDSEC
  0
EOF
