  0
SECTION
  2
HEADER
  9
$ACADVER
  1
AC1009
  9
$DWGCODEPAGE
  3
ansi_1252
  9
$INSBASE
 10
0.0
 20
0.0
 30
0.0
  9
$EXTMIN
 10
-231.4161578260903
 20
-140.0
 30
0.0
  9
$EXTMAX
 10
231.4161578260904
 20
140.0
 30
0.0
  9
$LIMMIN
 10
0.0
 20
0.0
  9
$LIMMAX
 10
12.0
 20
9.0
  9
$ORTHOMODE
 70
     0
  9
$REGENMODE
 70
     1
  9
$FILLMODE
 70
     1
  9
$QTEXTMODE
 70
     0
  9
$MIRRTEXT
 70
     1
  9
$DRAGMODE
 70
     2
  9
$LTSCALE
 40
1.0
  9
$OSMODE
 70
    37
  9
$ATTMODE
 70
     1
  9
$TEXTSIZE
 40
0.2
  9
$TRACEWID
 40
0.05
  9
$TEXTSTYLE
  7
STANDARD
  9
$CLAYER
  8
0
  9
$CELTYPE
  6
BYLAYER
  9
$CECOLOR
 62
   256
  9
$DIMSCALE
 40
1.0
  9
$DIMASZ
 40
0.18
  9
$DIMEXO
 40
0.0625
  9
$DIMDLI
 40
0.38
  9
$DIMRND
 40
0.0
  9
$DIMDLE
 40
0.0
  9
$DIMEXE
 40
0.18
  9
$DIMTP
 40
0.0
  9
$DIMTM
 40
0.0
  9
$DIMTXT
 40
0.18
  9
$DIMCEN
 40
0.09
  9
$DIMTSZ
 40
0.0
  9
$DIMTOL
 70
     0
  9
$DIMLIM
 70
     0
  9
$DIMTIH
 70
     1
  9
$DIMTOH
 70
     1
  9
$DIMSE1
 70
     0
  9
$DIMSE2
 70
     0
  9
$DIMTAD
 70
     0
  9
$DIMZIN
 70
     0
  9
$DIMBLK
  1

  9
$DIMASO
 70
     1
  9
$DIMSHO
 70
     1
  9
$DIMPOST
  1

  9
$DIMAPOST
  1

  9
$DIMALT
 70
     0
  9
$DIMALTD
 70
     2
  9
$DIMALTF
 40
25.4
  9
$DIMLFAC
 40
1.0
  9
$DIMTOFL
 70
     0
  9
$DIMTVP
 40
0.0
  9
$DIMTIX
 70
     0
  9
$DIMSOXD
 70
     0
  9
$DIMSAH
 70
     0
  9
$DIMBLK1
  1

  9
$DIMBLK2
  1

  9
$DIMSTYLE
  2
STANDARD
  9
$DIMCLRD
 70
     0
  9
$DIMCLRE
 70
     0
  9
$DIMCLRT
 70
     0
  9
$DIMTFAC
 40
1.0
  9
$DIMGAP
 40
0.09
  9
$LUNITS
 70
     2
  9
$LUPREC
 70
     4
  9
$SKETCHINC
 40
0.1
  9
$FILLETRAD
 40
0.5
  9
$AUNITS
 70
     0
  9
$AUPREC
 70
     0
  9
$MENU
  1
.
  9
$ELEVATION
 40
0.0
  9
$PELEVATION
 40
0.0
  9
$THICKNESS
 40
0.0
  9
$LIMCHECK
 70
     0
  9
$CHAMFERA
 40
0.0
  9
$CHAMFERB
 40
0.0
  9
$SKPOLY
 70
     0
  9
$TDCREATE
 40
2454910.5
  9
$TDUPDATE
 40
2459372.471259004
  9
$TDINDWG
 40
0.0000000116
  9
$TDUSRTIMER
 40
0.0000000116
  9
$USRTIMER
 70
     1
  9
$ANGBASE
 50
0.0
  9
$ANGDIR
 70
     0
  9
$PDMODE
 70
     0
  9
$PDSIZE
 40
0.0
  9
$PLINEWID
 40
0.0
  9
$COORDS
 70
     1
  9
$SPLFRAME
 70
     0
  9
$SPLINETYPE
 70
     6
  9
$SPLINESEGS
 70
     8
  9
$ATTDIA
 70
     0
  9
$ATTREQ
 70
     1
  9
$HANDLING
 70
     1
  9
$HANDSEED
  5
12F
  9
$SURFTAB1
 70
     6
  9
$SURFTAB2
 70
     6
  9
$SURFTYPE
 70
     6
  9
$SURFU
 70
     6
  9
$SURFV
 70
     6
  9
$UCSNAME
  2

  9
$UCSORG
 10
0.0
 20
0.0
 30
0.0
  9
$UCSXDIR
 10
1.0
 20
0.0
 30
0.0
  9
$UCSYDIR
 10
0.0
 20
1.0
 30
0.0
  9
$PUCSNAME
  2

  9
$PUCSORG
 10
0.0
 20
0.0
 30
0.0
  9
$PUCSXDIR
 10
1.0
 20
0.0
 30
0.0
  9
$PUCSYDIR
 10
0.0
 20
1.0
 30
0.0
  9
$USERI1
 70
     0
  9
$USERI2
 70
     0
  9
$USERI3
 70
     0
  9
$USERI4
 70
     0
  9
$USERI5
 70
     0
  9
$USERR1
 40
0.0
  9
$USERR2
 40
0.0
  9
$USERR3
 40
0.0
  9
$USERR4
 40
0.0
  9
$USERR5
 40
0.0
  9
$WORLDVIEW
 70
     1
  9
$SHADEDGE
 70
     3
  9
$SHADEDIF
 70
    70
  9
$TILEMODE
 70
     1
  9
$MAXACTVP
 70
    64
  9
$PLIMCHECK
 70
     0
  9
$PEXTMIN
 10
1.000000000000000E+20
 20
1.000000000000000E+20
 30
1.000000000000000E+20
  9
$PEXTMAX
 10
-1.000000000000000E+20
 20
-1.000000000000000E+20
 30
-1.000000000000000E+20
  9
$PLIMMIN
 10
0.0
 20
0.0
  9
$PLIMMAX
 10
12.0
 20
9.0
  9
$UNITMODE
 70
     0
  9
$VISRETAIN
 70
     1
  9
$PLINEGEN
 70
     0
  9
$PSLTSCALE
 70
     1
  0
ENDSEC
  0
SECTION
  2
TABLES
  0
TABLE
  2
VPORT
 70
     1
  0
VPORT
  2
*ACTIVE
 70
     0
 10
0.0
 20
0.0
 11
1.0
 21
1.0
 12
10.42990654205607
 22
4.5
 13
0.0
 23
0.0
 14
0.5
 24
0.5
 15
0.5
 25
0.5
 16
0.0
 26
0.0
 36
1.0
 17
0.0
 27
0.0
 37
0.0
 40
9.0
 41
1.972972972850329
 42
50.0
 43
0.0
 44
0.0
 50
0.0
 51
0.0
 71
     0
 72
   100
 73
     1
 74
     3
 75
     0
 76
     0
 77
     0
 78
     0
  0
ENDTAB
  0
TABLE
  2
LTYPE
 70
     2
  0
LTYPE
  2
CONTINUOUS
 70
     0
  3
Solid line
 72
    65
 73
     0
 40
0.0
  0
LTYPE
  2
CONTINUOUS2
 70
     0
  3
Solid Line
 72
    65
 73
     0
 40
0.0
  0
ENDTAB
  0
TABLE
  2
LAYER
 70
     2
  0
LAYER
  2
0
 70
     0
 62
     7
  6
CONTINUOUS
  0
LAYER
  2
LAYER_1
 70
     0
 62
     7
  6
CONTINUOUS
  0
ENDTAB
  0
TABLE
  2
STYLE
 70
     1
  0
STYLE
  2
STANDARD
 70
     0
 40
0.0
 41
1.0
 50
0.0
 71
     0
 42
0.2
  3
txt
  4

  0
ENDTAB
  0
TABLE
  2
VIEW
 70
     0
  0
ENDTAB
  0
TABLE
  2
UCS
 70
     0
  0
ENDTAB
  0
TABLE
  2
APPID
 70
     1
  0
APPID
  2
ACAD
 70
     0
  0
ENDTAB
  0
TABLE
  2
DIMSTYLE
 70
     1
  0
DIMSTYLE
  2
STANDARD
 70
     0
  3

  4

  5

  6

  7

 40
1.0
 41
0.18
 42
0.0625
 43
0.38
 44
0.18
 45
0.0
 46
0.0
 47
0.0
 48
0.0
140
0.18
141
0.09
142
0.0
143
25.4
144
1.0
145
0.0
146
1.0
147
0.09
 71
     0
 72
     0
 73
     1
 74
     1
 75
     0
 76
     0
 77
     0
 78
     0
170
     0
171
     2
172
     0
173
     0
174
     0
175
     0
176
     0
177
     0
178
     0
  0
ENDTAB
  0
ENDSEC
  0
SECTION
  2
BLOCKS
  0
BLOCK
  8
0
  2
$MODEL_SPACE
 70
     0
 10
0.0
 20
0.0
 30
0.0
  3
$MODEL_SPACE
  1

  0
ENDBLK
  5
21
  8
0
  0
BLOCK
 67
     1
  8
0
  2
$PAPER_SPACE
 70
     0
 10
0.0
 20
0.0
 30
0.0
  3
$PAPER_SPACE
  1

  0
ENDBLK
  5
1D
 67
     1
  8
0
  0
ENDSEC
  0
SECTION
  2
ENTITIES
  0
POLYLINE
  5
70
  8
LAYER_1
 66
     1
 10
0.0
 20
0.0
 30
0.0
 70
     1
  0
VERTEX
  5
81
  8
LAYER_1
 10
135.0
 20
140.0
 30
0.0
 42
-0.4142135623730945
  0
VERTEX
  5
82
  8
LAYER_1
 10
175.0
 20
100.0
 30
0.0
  0
VERTEX
  5
83
  8
LAYER_1
 10
175.0
 20
99.66691269514982
 30
0.0
  0
VERTEX
  5
84
  8
LAYER_1
 10
218.6645308879556
 20
51.74415033874196
 30
0.0
 42
-0.1967741658918215
  0
VERTEX
  5
85
  8
LAYER_1
 10
226.4161578260903
 20
32.81005055894626
 30
0.0
  0
VERTEX
  5
86
  8
LAYER_1
 10
226.4161578260904
 20
0.0
 30
0.0
  0
VERTEX
  5
87
  8
LAYER_1
 10
226.4161578260904
 20
-32.81005055894626
 30
0.0
 42
-0.1967741658918227
  0
VERTEX
  5
88
  8
LAYER_1
 10
218.6645308879556
 20
-51.74415033874196
 30
0.0
  0
VERTEX
  5
89
  8
LAYER_1
 10
175.0
 20
-99.66691269514982
 30
0.0
  0
VERTEX
  5
8A
  8
LAYER_1
 10
175.0
 20
-100.0
 30
0.0
 42
-0.4142135623730954
  0
VERTEX
  5
8B
  8
LAYER_1
 10
135.0
 20
-140.0
 30
0.0
  0
VERTEX
  5
8C
  8
LAYER_1
 10
-135.0
 20
-140.0
 30
0.0
 42
-0.4142135623730945
  0
VERTEX
  5
8D
  8
LAYER_1
 10
-175.0
 20
-100.0
 30
0.0
  0
VERTEX
  5
8E
  8
LAYER_1
 10
-175.0
 20
-99.66691269514985
 30
0.0
  0
VERTEX
  5
8F
  8
LAYER_1
 10
-218.6645308879556
 20
-51.74415033874196
 30
0.0
 42
-0.1967741658918227
  0
VERTEX
  5
90
  8
LAYER_1
 10
-226.4161578260904
 20
-32.81005055894626
 30
0.0
  0
VERTEX
  5
91
  8
LAYER_1
 10
-226.4161578260904
 20
0.0
 30
0.0
  0
VERTEX
  5
92
  8
LAYER_1
 10
-226.4161578260903
 20
32.81005055894626
 30
0.0
 42
-0.1967741658918215
  0
VERTEX
  5
93
  8
LAYER_1
 10
-218.6645308879556
 20
51.74415033874196
 30
0.0
  0
VERTEX
  5
94
  8
LAYER_1
 10
-175.0
 20
99.66691269514985
 30
0.0
  0
VERTEX
  5
95
  8
LAYER_1
 10
-175.0
 20
100.0
 30
0.0
 42
-0.4142135623730954
  0
VERTEX
  5
96
  8
LAYER_1
 10
-135.0
 20
140.0
 30
0.0
  0
SEQEND
  5
125
  8
LAYER_1
  0
POLYLINE
  5
71
  8
LAYER_1
 66
     1
 10
0.0
 20
0.0
 30
0.0
 70
     1
  0
VERTEX
  5
97
  8
LAYER_1
 10
135.0
 20
127.0
 30
0.0
 42
-0.4142135623730943
  0
VERTEX
  5
98
  8
LAYER_1
 10
162.0
 20
100.0
 30
0.0
  0
VERTEX
  5
99
  8
LAYER_1
 10
162.0
 20
35.00000000000001
 30
0.0
 42
-0.414213562373095
  0
VERTEX
  5
9A
  8
LAYER_1
 10
132.0
 20
5.0
 30
0.0
  0
VERTEX
  5
9B
  8
LAYER_1
 10
66.74578638386097
 20
5.0
 30
0.0
 42
-0.358931033779958
  0
VERTEX
  5
9C
  8
LAYER_1
 10
58.89334092693616
 20
11.47058823529412
 30
0.0
 42
0.3055260135228088
  0
VERTEX
  5
9D
  8
LAYER_1
 10
11.47058823529412
 20
58.89334092693616
 30
0.0
 42
-0.3589310337799572
  0
VERTEX
  5
9E
  8
LAYER_1
 10
5.0
 20
66.74578638386097
 30
0.0
  0
VERTEX
  5
9F
  8
LAYER_1
 10
5.000000000000004
 20
97.0
 30
0.0
 42
-0.414213562373095
  0
VERTEX
  5
A0
  8
LAYER_1
 10
35.0
 20
127.0
 30
0.0
  0
SEQEND
  5
126
  8
LAYER_1
  0
POLYLINE
  5
72
  8
LAYER_1
 66
     1
 10
0.0
 20
0.0
 30
0.0
 70
     1
  0
VERTEX
  5
A1
  8
LAYER_1
 10
-161.9999999999999
 20
100.0
 30
0.0
 42
-0.4142135623730954
  0
VERTEX
  5
A2
  8
LAYER_1
 10
-135.0
 20
127.0
 30
0.0
  0
VERTEX
  5
A3
  8
LAYER_1
 10
-34.99999999999999
 20
127.0
 30
0.0
 42
-0.4142135623730957
  0
VERTEX
  5
A4
  8
LAYER_1
 10
-4.999999999999996
 20
97.0
 30
0.0
  0
VERTEX
  5
A5
  8
LAYER_1
 10
-4.999999999999996
 20
66.74578638386095
 30
0.0
 42
-0.358931033779958
  0
VERTEX
  5
A6
  8
LAYER_1
 10
-11.47058823529412
 20
58.89334092693613
 30
0.0
 42
0.3055260135228088
  0
VERTEX
  5
A7
  8
LAYER_1
 10
-58.89334092693615
 20
11.47058823529412
 30
0.0
 42
-0.3589310337799572
  0
VERTEX
  5
A8
  8
LAYER_1
 10
-66.74578638386097
 20
5.0
 30
0.0
  0
VERTEX
  5
A9
  8
LAYER_1
 10
-132.0
 20
5.0
 30
0.0
 42
-0.4142135623730954
  0
VERTEX
  5
AA
  8
LAYER_1
 10
-161.9999999999999
 20
34.99999999999999
 30
0.0
  0
SEQEND
  5
127
  8
LAYER_1
  0
POLYLINE
  5
73
  8
LAYER_1
 66
     1
 10
0.0
 20
0.0
 30
0.0
 70
     1
  0
VERTEX
  5
AB
  8
LAYER_1
 10
-135.0
 20
-127.0
 30
0.0
 42
-0.4142135623730943
  0
VERTEX
  5
AC
  8
LAYER_1
 10
-161.9999999999999
 20
-100.0
 30
0.0
  0
VERTEX
  5
AD
  8
LAYER_1
 10
-161.9999999999999
 20
-35.00000000000001
 30
0.0
 42
-0.414213562373095
  0
VERTEX
  5
AE
  8
LAYER_1
 10
-131.9999999999999
 20
-5.0
 30
0.0
  0
VERTEX
  5
AF
  8
LAYER_1
 10
-66.7457863838554
 20
-5.000000000006746
 30
0.0
 42
-0.3589310337800431
  0
VERTEX
  5
B0
  8
LAYER_1
 10
-58.89334092693674
 20
-11.4705882352978
 30
0.0
 42
0.3055260135227779
  0
VERTEX
  5
B1
  8
LAYER_1
 10
-11.47058823529654
 20
-58.89334092693144
 30
0.0
 42
-0.358931033780044
  0
VERTEX
  5
B2
  8
LAYER_1
 10
-5.0
 20
-66.74578638385672
 30
0.0
  0
VERTEX
  5
B3
  8
LAYER_1
 10
-5.000000000000009
 20
-97.0
 30
0.0
 42
-0.4142135623730949
  0
VERTEX
  5
B4
  8
LAYER_1
 10
-35.0
 20
-127.0
 30
0.0
  0
SEQEND
  5
128
  8
LAYER_1
  0
POLYLINE
  5
74
  8
LAYER_1
 66
     1
 10
0.0
 20
0.0
 30
0.0
 70
     1
  0
VERTEX
  5
B5
  8
LAYER_1
 10
161.9999999999999
 20
-100.0
 30
0.0
 42
-0.4142135623730954
  0
VERTEX
  5
B6
  8
LAYER_1
 10
135.0
 20
-127.0
 30
0.0
  0
VERTEX
  5
B7
  8
LAYER_1
 10
35.00000000000001
 20
-127.0
 30
0.0
 42
-0.4142135623730954
  0
VERTEX
  5
B8
  8
LAYER_1
 10
5.000000000000013
 20
-97.00000000000001
 30
0.0
  0
VERTEX
  5
B9
  8
LAYER_1
 10
5.000000000000004
 20
-66.74578638386097
 30
0.0
 42
-0.3589310337799587
  0
VERTEX
  5
BA
  8
LAYER_1
 10
11.47058823529415
 20
-58.89334092693616
 30
0.0
 42
0.3055260135228087
  0
VERTEX
  5
BB
  8
LAYER_1
 10
58.89334092693616
 20
-11.47058823529412
 30
0.0
 42
-0.3589310337799587
  0
VERTEX
  5
BC
  8
LAYER_1
 10
66.74578638386097
 20
-5.0
 30
0.0
  0
VERTEX
  5
BD
  8
LAYER_1
 10
132.0
 20
-5.000000000000009
 30
0.0
 42
-0.414213562373095
  0
VERTEX
  5
BE
  8
LAYER_1
 10
162.0
 20
-35.0
 30
0.0
  0
SEQEND
  5
129
  8
LAYER_1
  0
POLYLINE
  5
75
  8
LAYER_1
 66
     1
 10
0.0
 20
0.0
 30
0.0
 70
     1
  0
VERTEX
  5
BF
  8
LAYER_1
 10
0.0
 20
50.0
 30
0.0
 42
0.4142135623730951
  0
VERTEX
  5
C0
  8
LAYER_1
 10
-50.0
 20
0.0
 30
0.0
 42
0.4142135623730951
  0
VERTEX
  5
C1
  8
LAYER_1
 10
0.0
 20
-50.0
 30
0.0
 42
0.4142135623730951
  0
VERTEX
  5
C2
  8
LAYER_1
 10
50.0
 20
0.0
 30
0.0
 42
0.4142135623730951
  0
SEQEND
  5
12A
  8
LAYER_1
  0
POLYLINE
  5
76
  8
LAYER_1
 66
     1
 10
0.0
 20
0.0
 30
0.0
 70
     1
  0
VERTEX
  5
C3
  8
LAYER_1
 10
182.4161578260904
 20
0.0
 30
0.0
  0
VERTEX
  5
C4
  8
LAYER_1
 10
182.4161578260904
 20
32.81005055894624
 30
0.0
 42
-0.4142135623730963
  0
VERTEX
  5
C5
  8
LAYER_1
 10
192.4161578260904
 20
42.81005055894628
 30
0.0
  0
VERTEX
  5
C6
  8
LAYER_1
 10
199.4161578260903
 20
42.81005055894628
 30
0.0
 42
-0.414213562373093
  0
VERTEX
  5
C7
  8
LAYER_1
 10
209.4161578260904
 20
32.81005055894626
 30
0.0
  0
VERTEX
  5
C8
  8
LAYER_1
 10
209.4161578260904
 20
0.0
 30
0.0
  0
VERTEX
  5
C9
  8
LAYER_1
 10
209.4161578260904
 20
-32.81005055894626
 30
0.0
 42
-0.4142135623730956
  0
VERTEX
  5
CA
  8
LAYER_1
 10
199.4161578260903
 20
-42.81005055894629
 30
0.0
  0
VERTEX
  5
CB
  8
LAYER_1
 10
192.4161578260904
 20
-42.81005055894628
 30
0.0
 42
-0.4142135623730963
  0
VERTEX
  5
CC
  8
LAYER_1
 10
182.4161578260904
 20
-32.81005055894624
 30
0.0
  0
SEQEND
  5
12B
  8
LAYER_1
  0
POLYLINE
  5
77
  8
LAYER_1
 66
     1
 10
0.0
 20
0.0
 30
0.0
 70
     1
  0
VERTEX
  5
CD
  8
LAYER_1
 10
174.9999429113323
 20
104.676805761583
 30
0.0
  0
VERTEX
  5
CE
  8
LAYER_1
 10
174.9999429127297
 20
-104.6768057616059
 30
0.0
  0
VERTEX
  5
CF
  8
LAYER_1
 10
175.2462011095206
 20
-104.6727427568932
 30
0.0
  0
VERTEX
  5
D0
  8
LAYER_1
 10
175.492613545684
 20
-104.6563824958008
 30
0.0
  0
VERTEX
  5
D1
  8
LAYER_1
 10
175.7387111830665
 20
-104.6275433745788
 30
0.0
  0
VERTEX
  5
D2
  8
LAYER_1
 10
175.9840249835149
 20
-104.5860437894772
 30
0.0
  0
VERTEX
  5
D3
  8
LAYER_1
 10
176.2280859088759
 20
-104.5317021367459
 30
0.0
  0
VERTEX
  5
D4
  8
LAYER_1
 10
176.4704249209962
 20
-104.464336812635
 30
0.0
  0
VERTEX
  5
D5
  8
LAYER_1
 10
176.7105729817224
 20
-104.3837662133945
 30
0.0
  0
VERTEX
  5
D6
  8
LAYER_1
 10
176.9480610529014
 20
-104.2898087352742
 30
0.0
  0
VERTEX
  5
D7
  8
LAYER_1
 10
177.1824200963798
 20
-104.1822827745242
 30
0.0
  0
VERTEX
  5
D8
  8
LAYER_1
 10
177.4131810740042
 20
-104.0610067273946
 30
0.0
  0
VERTEX
  5
D9
  8
LAYER_1
 10
177.6398749476215
 20
-103.9257989901351
 30
0.0
  0
VERTEX
  5
DA
  8
LAYER_1
 10
177.8620326790783
 20
-103.776477958996
 30
0.0
  0
VERTEX
  5
DB
  8
LAYER_1
 10
178.0791852302214
 20
-103.612862030227
 30
0.0
  0
VERTEX
  5
DC
  8
LAYER_1
 10
178.2908635628974
 20
-103.4347696000784
 30
0.0
  0
VERTEX
  5
DD
  8
LAYER_1
 10
178.4965986389531
 20
-103.2420190647999
 30
0.0
  0
VERTEX
  5
DE
  8
LAYER_1
 10
178.6959214202351
 20
-103.0344288206416
 30
0.0
  0
VERTEX
  5
DF
  8
LAYER_1
 10
222.2988087601603
 20
-55.17932158483146
 30
0.0
 42
0.1959657007958339
  0
VERTEX
  5
E0
  8
LAYER_1
 10
231.4161578260904
 20
-32.81005008210914
 30
0.0
  0
VERTEX
  5
E1
  8
LAYER_1
 10
231.4161578260904
 20
0.0
 30
0.0
  0
VERTEX
  5
E2
  8
LAYER_1
 10
231.4161578260903
 20
32.81005055894634
 30
0.0
 42
0.1959656969274813
  0
VERTEX
  5
E3
  8
LAYER_1
 10
222.2988087601604
 20
55.17932158483143
 30
0.0
  0
VERTEX
  5
E4
  8
LAYER_1
 10
178.6959214202351
 20
103.0344288206416
 30
0.0
  0
VERTEX
  5
E5
  8
LAYER_1
 10
178.4965986388096
 20
103.242019064942
 30
0.0
  0
VERTEX
  5
E6
  8
LAYER_1
 10
178.2908635626037
 20
103.4347696003416
 30
0.0
  0
VERTEX
  5
E7
  8
LAYER_1
 10
178.0791852297738
 20
103.6128620305909
 30
0.0
  0
VERTEX
  5
E8
  8
LAYER_1
 10
177.8620326784762
 20
103.7764779594403
 30
0.0
  0
VERTEX
  5
E9
  8
LAYER_1
 10
177.6398749468672
 20
103.92579899064
 30
0.0
  0
VERTEX
  5
EA
  8
LAYER_1
 10
177.4131810731032
 20
104.0610067279407
 30
0.0
  0
VERTEX
  5
EB
  8
LAYER_1
 10
177.1824200953406
 20
104.1822827750926
 30
0.0
  0
VERTEX
  5
EC
  8
LAYER_1
 10
176.9480610517356
 20
104.2898087358462
 30
0.0
  0
VERTEX
  5
ED
  8
LAYER_1
 10
176.7105729804447
 20
104.3837662139519
 30
0.0
  0
VERTEX
  5
EE
  8
LAYER_1
 10
176.470424919624
 20
104.46433681316
 30
0.0
  0
VERTEX
  5
EF
  8
LAYER_1
 10
176.2280859074301
 20
104.531702137221
 30
0.0
  0
VERTEX
  5
F0
  8
LAYER_1
 10
175.9840249820191
 20
104.5860437898852
 30
0.0
  0
VERTEX
  5
F1
  8
LAYER_1
 10
175.7387111815476
 20
104.6275433749032
 30
0.0
  0
VERTEX
  5
F2
  8
LAYER_1
 10
175.4926135441716
 20
104.6563824960251
 30
0.0
  0
VERTEX
  5
F3
  8
LAYER_1
 10
175.2462011080478
 20
104.6727427570016
 30
0.0
  0
SEQEND
  5
12C
  8
LAYER_1
  0
POLYLINE
  5
78
  8
LAYER_1
 66
     1
 10
0.0
 20
0.0
 30
0.0
 70
     1
  0
VERTEX
  5
F4
  8
LAYER_1
 10
-174.9999429113323
 20
104.676805761583
 30
0.0
  0
VERTEX
  5
F5
  8
LAYER_1
 10
-174.9999429127297
 20
-104.6768057616059
 30
0.0
  0
VERTEX
  5
F6
  8
LAYER_1
 10
-175.2462011095206
 20
-104.6727427568932
 30
0.0
  0
VERTEX
  5
F7
  8
LAYER_1
 10
-175.492613545684
 20
-104.6563824958008
 30
0.0
  0
VERTEX
  5
F8
  8
LAYER_1
 10
-175.7387111830665
 20
-104.6275433745788
 30
0.0
  0
VERTEX
  5
F9
  8
LAYER_1
 10
-175.9840249835149
 20
-104.5860437894772
 30
0.0
  0
VERTEX
  5
FA
  8
LAYER_1
 10
-176.2280859088759
 20
-104.5317021367459
 30
0.0
  0
VERTEX
  5
FB
  8
LAYER_1
 10
-176.4704249209962
 20
-104.464336812635
 30
0.0
  0
VERTEX
  5
FC
  8
LAYER_1
 10
-176.7105729817224
 20
-104.3837662133945
 30
0.0
  0
VERTEX
  5
FD
  8
LAYER_1
 10
-176.9480610529014
 20
-104.2898087352742
 30
0.0
  0
VERTEX
  5
FE
  8
LAYER_1
 10
-177.1824200963797
 20
-104.1822827745242
 30
0.0
  0
VERTEX
  5
FF
  8
LAYER_1
 10
-177.4131810740042
 20
-104.0610067273946
 30
0.0
  0
VERTEX
  5
100
  8
LAYER_1
 10
-177.6398749476215
 20
-103.9257989901351
 30
0.0
  0
VERTEX
  5
101
  8
LAYER_1
 10
-177.8620326790783
 20
-103.776477958996
 30
0.0
  0
VERTEX
  5
102
  8
LAYER_1
 10
-178.0791852302214
 20
-103.612862030227
 30
0.0
  0
VERTEX
  5
103
  8
LAYER_1
 10
-178.2908635628974
 20
-103.4347696000784
 30
0.0
  0
VERTEX
  5
104
  8
LAYER_1
 10
-178.4965986389531
 20
-103.2420190647999
 30
0.0
  0
VERTEX
  5
105
  8
LAYER_1
 10
-178.6959214202351
 20
-103.0344288206416
 30
0.0
  0
VERTEX
  5
106
  8
LAYER_1
 10
-222.2988087601603
 20
-55.17932158483146
 30
0.0
 42
-0.1959657007958339
  0
VERTEX
  5
107
  8
LAYER_1
 10
-231.4161578260903
 20
-32.81005008210914
 30
0.0
  0
VERTEX
  5
108
  8
LAYER_1
 10
-231.4161578260903
 20
0.0
 30
0.0
  0
VERTEX
  5
109
  8
LAYER_1
 10
-231.4161578260903
 20
32.81005055894634
 30
0.0
 42
-0.1959656969274813
  0
VERTEX
  5
10A
  8
LAYER_1
 10
-222.2988087601604
 20
55.17932158483143
 30
0.0
  0
VERTEX
  5
10B
  8
LAYER_1
 10
-178.6959214202351
 20
103.0344288206416
 30
0.0
  0
VERTEX
  5
10C
  8
LAYER_1
 10
-178.4965986388096
 20
103.242019064942
 30
0.0
  0
VERTEX
  5
10D
  8
LAYER_1
 10
-178.2908635626037
 20
103.4347696003416
 30
0.0
  0
VERTEX
  5
10E
  8
LAYER_1
 10
-178.0791852297738
 20
103.6128620305909
 30
0.0
  0
VERTEX
  5
10F
  8
LAYER_1
 10
-177.8620326784762
 20
103.7764779594403
 30
0.0
  0
VERTEX
  5
110
  8
LAYER_1
 10
-177.6398749468672
 20
103.92579899064
 30
0.0
  0
VERTEX
  5
111
  8
LAYER_1
 10
-177.4131810731032
 20
104.0610067279407
 30
0.0
  0
VERTEX
  5
112
  8
LAYER_1
 10
-177.1824200953406
 20
104.1822827750926
 30
0.0
  0
VERTEX
  5
113
  8
LAYER_1
 10
-176.9480610517356
 20
104.2898087358462
 30
0.0
  0
VERTEX
  5
114
  8
LAYER_1
 10
-176.7105729804446
 20
104.3837662139519
 30
0.0
  0
VERTEX
  5
115
  8
LAYER_1
 10
-176.470424919624
 20
104.46433681316
 30
0.0
  0
VERTEX
  5
116
  8
LAYER_1
 10
-176.2280859074301
 20
104.531702137221
 30
0.0
  0
VERTEX
  5
117
  8
LAYER_1
 10
-175.9840249820191
 20
104.5860437898852
 30
0.0
  0
VERTEX
  5
118
  8
LAYER_1
 10
-175.7387111815476
 20
104.6275433749032
 30
0.0
  0
VERTEX
  5
119
  8
LAYER_1
 10
-175.4926135441717
 20
104.6563824960251
 30
0.0
  0
VERTEX
  5
11A
  8
LAYER_1
 10
-175.2462011080478
 20
104.6727427570016
 30
0.0
  0
SEQEND
  5
12D
  8
LAYER_1
  0
POLYLINE
  5
79
  8
LAYER_1
 66
     1
 10
0.0
 20
0.0
 30
0.0
 70
     1
  0
VERTEX
  5
11B
  8
LAYER_1
 10
-182.4161578260904
 20
0.0
 30
0.0
  0
VERTEX
  5
11C
  8
LAYER_1
 10
-182.4161578260904
 20
32.81005055894624
 30
0.0
 42
0.4142135623730963
  0
VERTEX
  5
11D
  8
LAYER_1
 10
-192.4161578260904
 20
42.81005055894629
 30
0.0
  0
VERTEX
  5
11E
  8
LAYER_1
 10
-199.4161578260904
 20
42.81005055894629
 30
0.0
 42
0.414213562373093
  0
VERTEX
  5
11F
  8
LAYER_1
 10
-209.4161578260904
 20
32.81005055894626
 30
0.0
  0
VERTEX
  5
120
  8
LAYER_1
 10
-209.4161578260904
 20
0.0
 30
0.0
  0
VERTEX
  5
121
  8
LAYER_1
 10
-209.4161578260904
 20
-32.81005055894626
 30
0.0
 42
0.4142135623730956
  0
VERTEX
  5
122
  8
LAYER_1
 10
-199.4161578260904
 20
-42.81005055894629
 30
0.0
  0
VERTEX
  5
123
  8
LAYER_1
 10
-192.4161578260904
 20
-42.81005055894627
 30
0.0
 42
0.4142135623730963
  0
VERTEX
  5
124
  8
LAYER_1
 10
-182.4161578260904
 20
-32.81005055894624
 30
0.0
  0
SEQEND
  5
12E
  8
LAYER_1
  0
ENDSEC
  0
EOF
