  0
SECTION
  2
HEADER
  9
$ACADVER
  1
AC1014
  9
$HANDSEED
  5
FFFF
  9
$MEASUREMENT
 70
     1
  0
ENDSEC
  0
SECTION
  2
TABLES
  0
TABLE
  2
VPORT
  5
8
330
0
100
AcDbSymbolTable
 70
     4
  0
VPORT
  5
2E
330
8
100
AcDbSymbolTableRecord
100
AcDbViewportTableRecord
  2
*ACTIVE
 70
     0
 10
0.0
 20
0.0
 11
1.0
 21
1.0
 12
210.0
 22
148.5
 13
0.0
 23
0.0
 14
10.0
 24
10.0
 15
10.0
 25
10.0
 16
0.0
 26
0.0
 36
1.0
 17
0.0
 27
0.0
 37
0.0
 40
341.0
 41
1.24
 42
50.0
 43
0.0
 44
0.0
 50
0.0
 51
0.0
 71
     0
 72
   100
 73
     1
 74
     3
 75
     0
 76
     0
 77
     0
 78
     0
  0
ENDTAB
  0
TABLE
  2
LTYPE
  5
5
330
0
100
AcDbSymbolTable
 70
     1
  0
LTYPE
  5
14
330
5
100
AcDbSymbolTableRecord
100
AcDbLinetypeTableRecord
  2
BYBLOCK
 70
     0
  3

 72
    65
 73
     0
 40
0.0
  0
LTYPE
  5
15
330
5
100
AcDbSymbolTableRecord
100
AcDbLinetypeTableRecord
  2
BYLAYER
 70
     0
  3

 72
    65
 73
     0
 40
0.0
  0
LTYPE
  5
16
330
5
100
AcDbSymbolTableRecord
100
AcDbLinetypeTableRecord
  2
CONTINUOUS
 70
     0
  3
Solid line
 72
    65
 73
     0
 40
0.0
  0
ENDTAB
  0
TABLE
  2
LAYER
  5
2
100
AcDbSymbolTable
 70
4
  0
LAYER
  5
50
100
AcDbSymbolTableRecord
100
AcDbLayerTableRecord
  2
0
 70
0
  6
CONTINUOUS
  0
LAYER
  5
51
100
AcDbSymbolTableRecord
100
AcDbLayerTableRecord
  2
Layer_1
 70
0
  6
CONTINUOUS
  0
LAYER
  5
52
100
AcDbSymbolTableRecord
100
AcDbLayerTableRecord
  2
DIMENSIONS
 70
0
  6
CONTINUOUS
  0
LAYER
  5
53
100
AcDbSymbolTableRecord
100
AcDbLayerTableRecord
  2
Dimensions
 70
0
  6
CONTINUOUS
  0
ENDTAB
  0
TABLE
  2
STYLE
  5
3
330
0
100
AcDbSymbolTable
 70
     1
  0
STYLE
  5
11
330
3
100
AcDbSymbolTableRecord
100
AcDbTextStyleTableRecord
  2
STANDARD
 70
     0
 40
0.0
 41
1.0
 50
0.0
 71
     0
 42
2.5
  3
txt
  4

  0
ENDTAB
  0
TABLE
  2
VIEW
  5
6
330
0
100
AcDbSymbolTable
 70
     0
  0
ENDTAB
  0
TABLE
  2
UCS
  5
7
330
0
100
AcDbSymbolTable
 70
     0
  0
ENDTAB
  0
TABLE
  2
APPID
  5
9
330
0
100
AcDbSymbolTable
 70
     2
  0
APPID
  5
12
330
9
100
AcDbSymbolTableRecord
100
AcDbRegAppTableRecord
  2
ACAD
 70
     0
  0
ENDTAB
  0
TABLE
  2
DIMSTYLE
  5
A
330
0
100
AcDbSymbolTable
 70
     1
  0
DIMSTYLE
105
27
330
A
100
AcDbSymbolTableRecord
100
AcDbDimStyleTableRecord
  2
ISO-25
 70
     0
  3

  4

  5

  6

  7

 40
1.0
 41
2.5
 42
0.625
 43
3.75
 44
1.25
 45
0.0
 46
0.0
 47
0.0
 48
0.0
140
2.5
141
2.5
142
0.0
143
0.03937007874016
144
1.0
145
0.0
146
1.0
147
0.625
 71
     0
 72
     0
 73
     0
 74
     0
 75
     0
 76
     0
 77
     1
 78
     8
170
     0
171
     3
172
     1
173
     0
174
     0
175
     0
176
     0
177
     0
178
     0
270
     2
271
     2
272
     2
273
     2
274
     3
340
11
275
     0
280
     0
281
     0
282
     0
283
     0
284
     8
285
     0
286
     0
287
     3
288
     0
  0
ENDTAB
  0
TABLE
  2
BLOCK_RECORD
  5
1
330
0
100
AcDbSymbolTable
 70
     1
  0
BLOCK_RECORD
  5
1F
330
1
100
AcDbSymbolTableRecord
100
AcDbBlockTableRecord
  2
*MODEL_SPACE
  0
BLOCK_RECORD
  5
1B
330
1
100
AcDbSymbolTableRecord
100
AcDbBlockTableRecord
  2
*PAPER_SPACE
  0
ENDTAB
  0
ENDSEC
  0
SECTION
  2
BLOCKS
  0
BLOCK
  5
20
330
1F
100
AcDbEntity
  8
0
100
AcDbBlockBegin
  2
*MODEL_SPACE
 70
     0
 10
0.0
 20
0.0
 30
0.0
  3
*MODEL_SPACE
  1

  0
ENDBLK
  5
21
330
1F
100
AcDbEntity
  8
0
100
AcDbBlockEnd
  0
BLOCK
  5
1C
330
1B
100
AcDbEntity
 67
     1
  8
0
100
AcDbBlockBegin
  2
*PAPER_SPACE
  1

  0
ENDBLK
  5
1D
330
1B
100
AcDbEntity
 67
     1
  8
0
100
AcDbBlockEnd
  0
ENDSEC
  0
SECTION
  2
ENTITIES
  0
LWPOLYLINE
  5
100
100
AcDbEntity
  8
Layer_1
 62
7
100
AcDbPolyline
 90
39
 70
1
 10
29.486863
 20
146.413103
 30
0.0
 10
29.486863
 20
146.159103
 30
0.0
 10
35.074863
 20
146.159103
 30
0.0
 10
35.159533
 20
146.201433
 30
0.0
 10
37.022200
 20
148.064100
 30
0.0
 10
37.022200
 20
148.233433
 30
0.0
 10
35.159533
 20
150.096100
 30
0.0
 10
35.074863
 20
150.138430
 30
0.0
 10
31.349529
 20
150.138430
 30
0.0
 10
31.264859
 20
150.096100
 30
0.0
 10
29.402192
 20
148.233433
 30
0.0
 10
29.359862
 20
148.148763
 30
0.0
 10
29.359862
 20
144.423429
 30
0.0
 10
29.402192
 20
144.338759
 30
0.0
 10
31.264859
 20
142.476092
 30
0.0
 10
31.349529
 20
142.433762
 30
0.0
 10
35.074863
 20
142.433762
 30
0.0
 10
35.074863
 20
142.687762
 30
0.0
 10
31.349529
 20
142.687762
 30
0.0
 10
31.349529
 20
142.560762
 30
0.0
 10
31.434199
 20
142.645432
 30
0.0
 10
29.571532
 20
144.508098
 30
0.0
 10
29.486862
 20
144.423428
 30
0.0
 10
29.613862
 20
144.423428
 30
0.0
 10
29.613862
 20
148.148762
 30
0.0
 10
29.486862
 20
148.148762
 30
0.0
 10
29.571532
 20
148.064092
 30
0.0
 10
31.434199
 20
149.926759
 30
0.0
 10
31.349529
 20
150.011429
 30
0.0
 10
31.349529
 20
149.884429
 30
0.0
 10
35.074863
 20
149.884429
 30
0.0
 10
35.074863
 20
150.011429
 30
0.0
 10
34.990193
 20
149.926759
 30
0.0
 10
36.852859
 20
148.064092
 30
0.0
 10
36.937529
 20
148.148762
 30
0.0
 10
36.852859
 20
148.233432
 30
0.0
 10
34.990193
 20
146.370766
 30
0.0
 10
35.074863
 20
146.286096
 30
0.0
 10
35.074863
 20
146.413096
 30
0.0
  0
LWPOLYLINE
  5
101
100
AcDbEntity
  8
Layer_1
 62
7
100
AcDbPolyline
 90
34
 70
1
 10
40.662862
 20
142.687770
 30
0.0
 10
40.662862
 20
142.433770
 30
0.0
 10
46.250862
 20
142.433770
 30
0.0
 10
46.335532
 20
142.476100
 30
0.0
 10
48.198199
 20
144.338767
 30
0.0
 10
48.198199
 20
144.508100
 30
0.0
 10
46.335532
 20
146.370767
 30
0.0
 10
46.250862
 20
146.413097
 30
0.0
 10
42.525529
 20
146.413097
 30
0.0
 10
42.525529
 20
146.286097
 30
0.0
 10
42.610199
 20
146.370767
 30
0.0
 10
40.747532
 20
148.233433
 30
0.0
 10
40.662862
 20
148.148763
 30
0.0
 10
40.747532
 20
148.064093
 30
0.0
 10
42.610199
 20
149.926760
 30
0.0
 10
42.525529
 20
150.011430
 30
0.0
 10
42.525529
 20
149.884430
 30
0.0
 10
48.113529
 20
149.884430
 30
0.0
 10
48.113529
 20
150.138430
 30
0.0
 10
42.525529
 20
150.138430
 30
0.0
 10
42.440859
 20
150.096100
 30
0.0
 10
40.578193
 20
148.233433
 30
0.0
 10
40.578193
 20
148.064100
 30
0.0
 10
42.440859
 20
146.201433
 30
0.0
 10
42.525529
 20
146.159103
 30
0.0
 10
46.250862
 20
146.159103
 30
0.0
 10
46.250862
 20
146.286103
 30
0.0
 10
46.166192
 20
146.201433
 30
0.0
 10
48.028858
 20
144.338767
 30
0.0
 10
48.113528
 20
144.423437
 30
0.0
 10
48.028858
 20
144.508107
 30
0.0
 10
46.166192
 20
142.645441
 30
0.0
 10
46.250862
 20
142.560771
 30
0.0
 10
46.250862
 20
142.687771
 30
0.0
  0
LWPOLYLINE
  5
102
100
AcDbEntity
  8
Layer_1
 62
7
100
AcDbPolyline
 90
24
 70
1
 10
59.331862
 20
149.884436
 30
0.0
 10
59.331862
 20
150.138436
 30
0.0
 10
53.743862
 20
150.138436
 30
0.0
 10
53.659192
 20
150.096106
 30
0.0
 10
51.796526
 20
148.233439
 30
0.0
 10
51.754196
 20
148.148769
 30
0.0
 10
51.754196
 20
144.423435
 30
0.0
 10
51.796526
 20
144.338765
 30
0.0
 10
53.659192
 20
142.476098
 30
0.0
 10
53.743862
 20
142.433768
 30
0.0
 10
59.331862
 20
142.433768
 30
0.0
 10
59.331862
 20
142.687768
 30
0.0
 10
53.743862
 20
142.687768
 30
0.0
 10
53.743862
 20
142.560768
 30
0.0
 10
53.828532
 20
142.645438
 30
0.0
 10
51.965865
 20
144.508104
 30
0.0
 10
51.881195
 20
144.423434
 30
0.0
 10
52.008195
 20
144.423434
 30
0.0
 10
52.008195
 20
148.148768
 30
0.0
 10
51.881195
 20
148.148768
 30
0.0
 10
51.965865
 20
148.064098
 30
0.0
 10
53.828532
 20
149.926765
 30
0.0
 10
53.743862
 20
150.011435
 30
0.0
 10
53.743862
 20
149.884435
 30
0.0
  0
LWPOLYLINE
  5
103
100
AcDbEntity
  8
Layer_1
 62
7
100
AcDbPolyline
 90
19
 70
1
 10
63.184195
 20
150.011436
 30
0.0
 10
62.930195
 20
150.011436
 30
0.0
 10
62.930195
 20
144.423436
 30
0.0
 10
62.972528
 20
144.338766
 30
0.0
 10
64.835195
 20
142.476099
 30
0.0
 10
64.919862
 20
142.433769
 30
0.0
 10
66.782529
 20
142.433769
 30
0.0
 10
66.867195
 20
142.476099
 30
0.0
 10
70.592528
 20
146.201432
 30
0.0
 10
70.423195
 20
146.370766
 30
0.0
 10
66.697862
 20
142.645433
 30
0.0
 10
66.782529
 20
142.560763
 30
0.0
 10
66.782529
 20
142.687763
 30
0.0
 10
64.919862
 20
142.687763
 30
0.0
 10
64.919862
 20
142.560763
 30
0.0
 10
65.004529
 20
142.645433
 30
0.0
 10
63.141862
 20
144.508099
 30
0.0
 10
63.057195
 20
144.423429
 30
0.0
 10
63.184195
 20
144.423429
 30
0.0
  0
LWPOLYLINE
  5
104
100
AcDbEntity
  8
Layer_1
 62
7
100
AcDbPolyline
 90
4
 70
1
 10
70.634862
 20
150.011436
 30
0.0
 10
70.380862
 20
150.011436
 30
0.0
 10
70.380862
 20
142.560770
 30
0.0
 10
70.634862
 20
142.560770
 30
0.0
  0
LWPOLYLINE
  5
105
100
AcDbEntity
  8
Layer_1
 62
7
100
AcDbPolyline
 90
4
 70
1
 10
74.275528
 20
150.138436
 30
0.0
 10
74.275528
 20
149.884436
 30
0.0
 10
81.726195
 20
149.884436
 30
0.0
 10
81.726195
 20
150.138436
 30
0.0
  0
LWPOLYLINE
  5
106
100
AcDbEntity
  8
Layer_1
 62
7
100
AcDbPolyline
 90
14
 70
1
 10
78.127862
 20
153.736770
 30
0.0
 10
77.873862
 20
153.736770
 30
0.0
 10
77.873862
 20
144.423436
 30
0.0
 10
77.916192
 20
144.338766
 30
0.0
 10
79.778859
 20
142.476099
 30
0.0
 10
79.948192
 20
142.476099
 30
0.0
 10
81.810859
 20
144.338766
 30
0.0
 10
81.641525
 20
144.508099
 30
0.0
 10
79.778859
 20
142.645433
 30
0.0
 10
79.863529
 20
142.560763
 30
0.0
 10
79.948199
 20
142.645433
 30
0.0
 10
78.085532
 20
144.508099
 30
0.0
 10
78.000862
 20
144.423429
 30
0.0
 10
78.127862
 20
144.423429
 30
0.0
  0
LWPOLYLINE
  5
107
100
AcDbEntity
  8
Layer_1
 62
7
100
AcDbPolyline
 90
24
 70
1
 10
92.902195
 20
149.884436
 30
0.0
 10
92.902195
 20
150.138436
 30
0.0
 10
87.314195
 20
150.138436
 30
0.0
 10
87.229525
 20
150.096106
 30
0.0
 10
85.366858
 20
148.233439
 30
0.0
 10
85.324528
 20
148.148769
 30
0.0
 10
85.324528
 20
144.423435
 30
0.0
 10
85.366858
 20
144.338765
 30
0.0
 10
87.229525
 20
142.476098
 30
0.0
 10
87.314195
 20
142.433768
 30
0.0
 10
92.902195
 20
142.433768
 30
0.0
 10
92.902195
 20
142.687768
 30
0.0
 10
87.314195
 20
142.687768
 30
0.0
 10
87.314195
 20
142.560768
 30
0.0
 10
87.398865
 20
142.645438
 30
0.0
 10
85.536199
 20
144.508104
 30
0.0
 10
85.451529
 20
144.423434
 30
0.0
 10
85.578529
 20
144.423434
 30
0.0
 10
85.578529
 20
148.148768
 30
0.0
 10
85.451529
 20
148.148768
 30
0.0
 10
85.536199
 20
148.064098
 30
0.0
 10
87.398865
 20
149.926765
 30
0.0
 10
87.314195
 20
150.011435
 30
0.0
 10
87.314195
 20
149.884435
 30
0.0
  0
LWPOLYLINE
  5
108
100
AcDbEntity
  8
Layer_1
 62
7
100
AcDbPolyline
 90
4
 70
1
 10
96.500528
 20
142.560770
 30
0.0
 10
96.754528
 20
142.560770
 30
0.0
 10
96.754528
 20
153.736770
 30
0.0
 10
96.500528
 20
153.736770
 30
0.0
  0
LWPOLYLINE
  5
109
100
AcDbEntity
  8
Layer_1
 62
7
100
AcDbPolyline
 90
19
 70
1
 10
96.542858
 20
146.370770
 30
0.0
 10
96.712192
 20
146.201436
 30
0.0
 10
100.479858
 20
149.926770
 30
0.0
 10
100.395188
 20
150.011440
 30
0.0
 10
100.395188
 20
149.884440
 30
0.0
 10
102.257855
 20
149.884440
 30
0.0
 10
102.257855
 20
150.011440
 30
0.0
 10
102.173185
 20
149.926770
 30
0.0
 10
104.035852
 20
148.064103
 30
0.0
 10
104.120522
 20
148.148773
 30
0.0
 10
103.993522
 20
148.148773
 30
0.0
 10
103.993522
 20
142.560773
 30
0.0
 10
104.247522
 20
142.560773
 30
0.0
 10
104.247522
 20
148.148773
 30
0.0
 10
104.205192
 20
148.233443
 30
0.0
 10
102.342526
 20
150.096110
 30
0.0
 10
102.257856
 20
150.138440
 30
0.0
 10
100.395194
 20
150.138440
 30
0.0
 10
100.310524
 20
150.096110
 30
0.0
  0
LWPOLYLINE
  5
10a
100
AcDbEntity
  8
Layer_1
 62
7
100
AcDbPolyline
 90
39
 70
1
 10
107.845858
 20
146.413100
 30
0.0
 10
107.845858
 20
146.159100
 30
0.0
 10
113.433858
 20
146.159100
 30
0.0
 10
113.518528
 20
146.201430
 30
0.0
 10
115.381195
 20
148.064097
 30
0.0
 10
115.381195
 20
148.233430
 30
0.0
 10
113.518528
 20
150.096097
 30
0.0
 10
113.433858
 20
150.138427
 30
0.0
 10
109.708525
 20
150.138427
 30
0.0
 10
109.623855
 20
150.096097
 30
0.0
 10
107.761188
 20
148.233430
 30
0.0
 10
107.718858
 20
148.148760
 30
0.0
 10
107.718858
 20
144.423426
 30
0.0
 10
107.761188
 20
144.338756
 30
0.0
 10
109.623855
 20
142.476089
 30
0.0
 10
109.708525
 20
142.433759
 30
0.0
 10
113.433858
 20
142.433759
 30
0.0
 10
113.433858
 20
142.687759
 30
0.0
 10
109.708525
 20
142.687759
 30
0.0
 10
109.708525
 20
142.560759
 30
0.0
 10
109.793195
 20
142.645429
 30
0.0
 10
107.930529
 20
144.508095
 30
0.0
 10
107.845859
 20
144.423425
 30
0.0
 10
107.972859
 20
144.423425
 30
0.0
 10
107.972859
 20
148.148759
 30
0.0
 10
107.845859
 20
148.148759
 30
0.0
 10
107.930529
 20
148.064089
 30
0.0
 10
109.793195
 20
149.926756
 30
0.0
 10
109.708525
 20
150.011426
 30
0.0
 10
109.708525
 20
149.884426
 30
0.0
 10
113.433858
 20
149.884426
 30
0.0
 10
113.433858
 20
150.011426
 30
0.0
 10
113.349188
 20
149.926756
 30
0.0
 10
115.211855
 20
148.064089
 30
0.0
 10
115.296525
 20
148.148759
 30
0.0
 10
115.211855
 20
148.233429
 30
0.0
 10
113.349188
 20
146.370763
 30
0.0
 10
113.433858
 20
146.286093
 30
0.0
 10
113.433858
 20
146.413093
 30
0.0
  0
LWPOLYLINE
  5
10b
100
AcDbEntity
  8
Layer_1
 62
7
100
AcDbPolyline
 90
39
 70
1
 10
124.652191
 20
142.433767
 30
0.0
 10
124.652191
 20
142.687767
 30
0.0
 10
120.884524
 20
142.687767
 30
0.0
 10
120.884524
 20
142.560767
 30
0.0
 10
120.969194
 20
142.645437
 30
0.0
 10
119.106527
 20
144.508103
 30
0.0
 10
119.021857
 20
144.423433
 30
0.0
 10
119.148857
 20
144.423433
 30
0.0
 10
119.148857
 20
148.148767
 30
0.0
 10
119.021857
 20
148.148767
 30
0.0
 10
119.106527
 20
148.064097
 30
0.0
 10
120.969194
 20
149.926764
 30
0.0
 10
120.884524
 20
150.011434
 30
0.0
 10
120.884524
 20
149.884434
 30
0.0
 10
124.652191
 20
149.884434
 30
0.0
 10
124.652191
 20
150.011434
 30
0.0
 10
124.567521
 20
149.926764
 30
0.0
 10
126.430188
 20
148.064097
 30
0.0
 10
126.514858
 20
148.148767
 30
0.0
 10
126.387858
 20
148.148767
 30
0.0
 10
126.387858
 20
144.423433
 30
0.0
 10
126.514858
 20
144.423433
 30
0.0
 10
126.430188
 20
144.508103
 30
0.0
 10
124.567521
 20
142.645437
 30
0.0
 10
124.736855
 20
142.476103
 30
0.0
 10
126.599521
 20
144.338770
 30
0.0
 10
126.641851
 20
144.423440
 30
0.0
 10
126.641851
 20
148.148774
 30
0.0
 10
126.599521
 20
148.233444
 30
0.0
 10
124.736855
 20
150.096111
 30
0.0
 10
124.652185
 20
150.138441
 30
0.0
 10
120.884518
 20
150.138441
 30
0.0
 10
120.799848
 20
150.096111
 30
0.0
 10
118.937181
 20
148.233444
 30
0.0
 10
118.894851
 20
148.148774
 30
0.0
 10
118.894851
 20
144.423440
 30
0.0
 10
118.937181
 20
144.338770
 30
0.0
 10
120.799848
 20
142.476103
 30
0.0
 10
120.884518
 20
142.433773
 30
0.0
  0
LWPOLYLINE
  5
10c
100
AcDbEntity
  8
Layer_1
 62
7
100
AcDbPolyline
 90
4
 70
1
 10
130.113191
 20
142.560767
 30
0.0
 10
130.367191
 20
142.560767
 30
0.0
 10
130.367191
 20
150.011433
 30
0.0
 10
130.113191
 20
150.011433
 30
0.0
  0
LWPOLYLINE
  5
10d
100
AcDbEntity
  8
Layer_1
 62
7
100
AcDbPolyline
 90
19
 70
1
 10
130.155521
 20
146.370767
 30
0.0
 10
130.324854
 20
146.201433
 30
0.0
 10
134.050188
 20
149.926767
 30
0.0
 10
133.965518
 20
150.011437
 30
0.0
 10
133.965518
 20
149.884437
 30
0.0
 10
135.828185
 20
149.884437
 30
0.0
 10
135.828185
 20
150.011437
 30
0.0
 10
135.743515
 20
149.926767
 30
0.0
 10
137.606182
 20
148.064100
 30
0.0
 10
137.690852
 20
148.148770
 30
0.0
 10
137.563852
 20
148.148770
 30
0.0
 10
137.563852
 20
142.560770
 30
0.0
 10
137.817852
 20
142.560770
 30
0.0
 10
137.817852
 20
148.148770
 30
0.0
 10
137.775522
 20
148.233440
 30
0.0
 10
135.912855
 20
150.096107
 30
0.0
 10
135.828185
 20
150.138437
 30
0.0
 10
133.965518
 20
150.138437
 30
0.0
 10
133.880848
 20
150.096107
 30
0.0
  0
LWPOLYLINE
  5
10e
100
AcDbEntity
  8
Layer_1
 62
7
100
AcDbPolyline
 90
4
 70
1
 10
152.507521
 20
138.835434
 30
0.0
 10
152.761521
 20
138.835434
 30
0.0
 10
152.761521
 20
150.011436
 30
0.0
 10
152.507521
 20
150.011436
 30
0.0
  0
LWPOLYLINE
  5
10f
100
AcDbEntity
  8
Layer_1
 62
7
100
AcDbPolyline
 90
29
 70
1
 10
152.549851
 20
148.233433
 30
0.0
 10
152.719184
 20
148.064100
 30
0.0
 10
154.581851
 20
149.926767
 30
0.0
 10
154.497181
 20
150.011437
 30
0.0
 10
154.497181
 20
149.884437
 30
0.0
 10
158.222514
 20
149.884437
 30
0.0
 10
158.222514
 20
150.011437
 30
0.0
 10
158.137844
 20
149.926767
 30
0.0
 10
160.000510
 20
148.064100
 30
0.0
 10
160.085180
 20
148.148770
 30
0.0
 10
159.958180
 20
148.148770
 30
0.0
 10
159.958180
 20
144.423436
 30
0.0
 10
160.085180
 20
144.423436
 30
0.0
 10
160.000510
 20
144.508106
 30
0.0
 10
158.137844
 20
142.645440
 30
0.0
 10
158.222514
 20
142.560770
 30
0.0
 10
158.222514
 20
142.687770
 30
0.0
 10
152.634515
 20
142.687770
 30
0.0
 10
152.634515
 20
142.433770
 30
0.0
 10
158.222514
 20
142.433770
 30
0.0
 10
158.307184
 20
142.476100
 30
0.0
 10
160.169851
 20
144.338767
 30
0.0
 10
160.212181
 20
144.423437
 30
0.0
 10
160.212181
 20
148.148771
 30
0.0
 10
160.169851
 20
148.233441
 30
0.0
 10
158.307184
 20
150.096108
 30
0.0
 10
158.222514
 20
150.138438
 30
0.0
 10
154.497181
 20
150.138438
 30
0.0
 10
154.412511
 20
150.096108
 30
0.0
  0
LWPOLYLINE
  5
110
100
AcDbEntity
  8
Layer_1
 62
7
100
AcDbPolyline
 90
9
 70
1
 10
163.937517
 20
153.736767
 30
0.0
 10
163.683517
 20
153.736767
 30
0.0
 10
163.683517
 20
144.423433
 30
0.0
 10
163.725847
 20
144.338763
 30
0.0
 10
165.588513
 20
142.476096
 30
0.0
 10
165.757847
 20
142.645430
 30
0.0
 10
163.895180
 20
144.508096
 30
0.0
 10
163.810510
 20
144.423426
 30
0.0
 10
163.937510
 20
144.423426
 30
0.0
  0
LWPOLYLINE
  5
111
100
AcDbEntity
  8
Layer_1
 62
7
100
AcDbPolyline
 90
39
 70
1
 10
173.166184
 20
142.433767
 30
0.0
 10
173.166184
 20
142.687767
 30
0.0
 10
171.303514
 20
142.687767
 30
0.0
 10
171.303514
 20
142.560767
 30
0.0
 10
171.388214
 20
142.645437
 30
0.0
 10
169.483214
 20
144.508103
 30
0.0
 10
169.398514
 20
144.423433
 30
0.0
 10
169.525514
 20
144.423433
 30
0.0
 10
169.525514
 20
148.148767
 30
0.0
 10
169.398514
 20
148.148767
 30
0.0
 10
169.483214
 20
148.064097
 30
0.0
 10
171.388214
 20
149.926764
 30
0.0
 10
171.303514
 20
150.011434
 30
0.0
 10
171.303514
 20
149.884434
 30
0.0
 10
173.166184
 20
149.884434
 30
0.0
 10
173.166184
 20
150.011434
 30
0.0
 10
173.081484
 20
149.926764
 30
0.0
 10
174.944154
 20
148.064097
 30
0.0
 10
175.028854
 20
148.148767
 30
0.0
 10
174.901854
 20
148.148767
 30
0.0
 10
174.901854
 20
144.423433
 30
0.0
 10
175.028854
 20
144.423433
 30
0.0
 10
174.944154
 20
144.508103
 30
0.0
 10
173.081484
 20
142.645437
 30
0.0
 10
173.250824
 20
142.476103
 30
0.0
 10
175.113484
 20
144.338770
 30
0.0
 10
175.155784
 20
144.423440
 30
0.0
 10
175.155784
 20
148.148774
 30
0.0
 10
175.113484
 20
148.233444
 30
0.0
 10
173.250824
 20
150.096111
 30
0.0
 10
173.166124
 20
150.138441
 30
0.0
 10
171.303454
 20
150.138441
 30
0.0
 10
171.218754
 20
150.096111
 30
0.0
 10
169.313754
 20
148.233444
 30
0.0
 10
169.271454
 20
148.148774
 30
0.0
 10
169.271454
 20
144.423440
 30
0.0
 10
169.313754
 20
144.338770
 30
0.0
 10
171.218754
 20
142.476103
 30
0.0
 10
171.303454
 20
142.433773
 30
0.0
  0
LWPOLYLINE
  5
112
100
AcDbEntity
  8
Layer_1
 62
7
100
AcDbPolyline
 90
4
 70
1
 10
175.113514
 20
144.508100
 30
0.0
 10
174.944184
 20
144.338767
 30
0.0
 10
176.806854
 20
142.476100
 30
0.0
 10
176.976184
 20
142.645434
 30
0.0
  0
LWPOLYLINE
  5
113
100
AcDbEntity
  8
Layer_1
 62
7
100
AcDbPolyline
 90
4
 70
1
 10
180.616854
 20
150.138433
 30
0.0
 10
180.616854
 20
149.884433
 30
0.0
 10
188.067514
 20
149.884433
 30
0.0
 10
188.067514
 20
150.138433
 30
0.0
  0
LWPOLYLINE
  5
114
100
AcDbEntity
  8
Layer_1
 62
7
100
AcDbPolyline
 90
14
 70
1
 10
184.469184
 20
153.736767
 30
0.0
 10
184.215184
 20
153.736767
 30
0.0
 10
184.215184
 20
144.423433
 30
0.0
 10
184.257484
 20
144.338763
 30
0.0
 10
186.120154
 20
142.476096
 30
0.0
 10
186.289484
 20
142.476096
 30
0.0
 10
188.152154
 20
144.338763
 30
0.0
 10
187.982824
 20
144.508096
 30
0.0
 10
186.120154
 20
142.645430
 30
0.0
 10
186.204854
 20
142.560760
 30
0.0
 10
186.289554
 20
142.645430
 30
0.0
 10
184.426894
 20
144.508096
 30
0.0
 10
184.342194
 20
144.423426
 30
0.0
 10
184.469194
 20
144.423426
 30
0.0
  0
LWPOLYLINE
  5
115
100
AcDbEntity
  8
Layer_1
 62
7
100
AcDbPolyline
 90
39
 70
1
 10
191.792854
 20
146.413100
 30
0.0
 10
191.792854
 20
146.159100
 30
0.0
 10
197.423184
 20
146.159100
 30
0.0
 10
197.507884
 20
146.201430
 30
0.0
 10
199.370554
 20
148.064097
 30
0.0
 10
199.370554
 20
148.233430
 30
0.0
 10
197.507884
 20
150.096097
 30
0.0
 10
197.423184
 20
150.138427
 30
0.0
 10
193.655514
 20
150.138427
 30
0.0
 10
193.570814
 20
150.096097
 30
0.0
 10
191.708144
 20
148.233430
 30
0.0
 10
191.665844
 20
148.148760
 30
0.0
 10
191.665844
 20
144.423426
 30
0.0
 10
191.708144
 20
144.338756
 30
0.0
 10
193.570814
 20
142.476089
 30
0.0
 10
193.655514
 20
142.433759
 30
0.0
 10
197.423184
 20
142.433759
 30
0.0
 10
197.423184
 20
142.687759
 30
0.0
 10
193.655514
 20
142.687759
 30
0.0
 10
193.655514
 20
142.560759
 30
0.0
 10
193.740214
 20
142.645429
 30
0.0
 10
191.877544
 20
144.508095
 30
0.0
 10
191.792844
 20
144.423425
 30
0.0
 10
191.919844
 20
144.423425
 30
0.0
 10
191.919844
 20
148.148759
 30
0.0
 10
191.792844
 20
148.148759
 30
0.0
 10
191.877544
 20
148.064089
 30
0.0
 10
193.740214
 20
149.926756
 30
0.0
 10
193.655514
 20
150.011426
 30
0.0
 10
193.655514
 20
149.884426
 30
0.0
 10
197.423184
 20
149.884426
 30
0.0
 10
197.423184
 20
150.011426
 30
0.0
 10
197.338484
 20
149.926756
 30
0.0
 10
199.201154
 20
148.064089
 30
0.0
 10
199.285854
 20
148.148759
 30
0.0
 10
199.201154
 20
148.233429
 30
0.0
 10
197.338484
 20
146.370763
 30
0.0
 10
197.423184
 20
146.286093
 30
0.0
 10
197.423184
 20
146.413093
 30
0.0
  0
LWPOLYLINE
  5
116
100
AcDbEntity
  8
Layer_1
 62
7
100
AcDbPolyline
 90
9
 70
1
 10
29.402187
 20
133.332100
 30
0.0
 10
29.571520
 20
133.162767
 30
0.0
 10
31.434187
 20
135.025434
 30
0.0
 10
31.349517
 20
135.110104
 30
0.0
 10
31.222517
 20
135.110104
 30
0.0
 10
31.222517
 20
123.891767
 30
0.0
 10
31.476517
 20
123.891767
 30
0.0
 10
31.476517
 20
135.110103
 30
0.0
 10
31.264851
 20
135.194773
 30
0.0
  0
LWPOLYLINE
  5
117
100
AcDbEntity
  8
Layer_1
 62
7
100
AcDbPolyline
 90
4
 70
1
 10
29.486857
 20
124.018767
 30
0.0
 10
29.486857
 20
123.764767
 30
0.0
 10
33.212190
 20
123.764767
 30
0.0
 10
33.212190
 20
124.018767
 30
0.0
  0
LWPOLYLINE
  5
118
100
AcDbEntity
  8
Layer_1
 62
7
100
AcDbPolyline
 90
9
 70
1
 10
36.852856
 20
133.332100
 30
0.0
 10
37.022190
 20
133.162767
 30
0.0
 10
38.884856
 20
135.025434
 30
0.0
 10
38.800186
 20
135.110104
 30
0.0
 10
38.673186
 20
135.110104
 30
0.0
 10
38.673186
 20
123.891767
 30
0.0
 10
38.927186
 20
123.891767
 30
0.0
 10
38.927186
 20
135.110103
 30
0.0
 10
38.715519
 20
135.194773
 30
0.0
  0
LWPOLYLINE
  5
119
100
AcDbEntity
  8
Layer_1
 62
7
100
AcDbPolyline
 90
4
 70
1
 10
36.937526
 20
124.018767
 30
0.0
 10
36.937526
 20
123.764767
 30
0.0
 10
40.662859
 20
123.764767
 30
0.0
 10
40.662859
 20
124.018767
 30
0.0
  0
LWPOLYLINE
  5
11a
100
AcDbEntity
  8
Layer_1
 62
7
100
AcDbPolyline
 90
39
 70
1
 10
46.166193
 20
123.807107
 30
0.0
 10
46.335526
 20
123.976437
 30
0.0
 10
44.472859
 20
125.881434
 30
0.0
 10
44.388189
 20
125.796764
 30
0.0
 10
44.515189
 20
125.796764
 30
0.0
 10
44.515189
 20
133.247437
 30
0.0
 10
44.388189
 20
133.247437
 30
0.0
 10
44.472859
 20
133.162767
 30
0.0
 10
46.335526
 20
135.025434
 30
0.0
 10
46.250856
 20
135.110104
 30
0.0
 10
46.250856
 20
134.983104
 30
0.0
 10
48.113523
 20
134.983104
 30
0.0
 10
48.113523
 20
135.110104
 30
0.0
 10
48.028853
 20
135.025434
 30
0.0
 10
49.933853
 20
133.162767
 30
0.0
 10
50.018523
 20
133.247437
 30
0.0
 10
49.891523
 20
133.247437
 30
0.0
 10
49.891523
 20
125.796770
 30
0.0
 10
50.018523
 20
125.796770
 30
0.0
 10
49.933853
 20
125.881440
 30
0.0
 10
48.028853
 20
123.976437
 30
0.0
 10
48.113523
 20
123.891737
 30
0.0
 10
48.113523
 20
124.018737
 30
0.0
 10
46.250856
 20
124.018737
 30
0.0
 10
46.250856
 20
123.764737
 30
0.0
 10
48.113523
 20
123.764737
 30
0.0
 10
48.198193
 20
123.807037
 30
0.0
 10
50.103193
 20
125.712037
 30
0.0
 10
50.145523
 20
125.796707
 30
0.0
 10
50.145523
 20
133.247437
 30
0.0
 10
50.103193
 20
133.332107
 30
0.0
 10
48.198193
 20
135.194774
 30
0.0
 10
48.113523
 20
135.237104
 30
0.0
 10
46.250856
 20
135.237104
 30
0.0
 10
46.166186
 20
135.194774
 30
0.0
 10
44.303519
 20
133.332107
 30
0.0
 10
44.261189
 20
133.247437
 30
0.0
 10
44.261189
 20
125.796770
 30
0.0
 10
44.303519
 20
125.712100
 30
0.0
  0
LWPOLYLINE
  5
11b
100
AcDbEntity
  8
Layer_1
 62
7
100
AcDbPolyline
 90
4
 70
1
 10
64.835192
 20
123.976437
 30
0.0
 10
65.004526
 20
123.807107
 30
0.0
 10
72.455195
 20
131.300103
 30
0.0
 10
72.285862
 20
131.469437
 30
0.0
  0
LWPOLYLINE
  5
11c
100
AcDbEntity
  8
Layer_1
 62
7
100
AcDbPolyline
 90
4
 70
1
 10
65.004526
 20
131.469434
 30
0.0
 10
64.835192
 20
131.300100
 30
0.0
 10
72.285859
 20
123.807107
 30
0.0
 10
72.455192
 20
123.976437
 30
0.0
  0
LWPOLYLINE
  5
11d
100
AcDbEntity
  8
Layer_1
 62
7
100
AcDbPolyline
 90
44
 70
1
 10
87.229525
 20
133.332100
 30
0.0
 10
87.398858
 20
133.162767
 30
0.0
 10
89.261525
 20
135.025434
 30
0.0
 10
89.176855
 20
135.110104
 30
0.0
 10
89.176855
 20
134.983104
 30
0.0
 10
92.902189
 20
134.983104
 30
0.0
 10
92.902189
 20
135.110104
 30
0.0
 10
92.817519
 20
135.025434
 30
0.0
 10
94.680186
 20
133.162767
 30
0.0
 10
94.764856
 20
133.247437
 30
0.0
 10
94.637856
 20
133.247437
 30
0.0
 10
94.637856
 20
131.384770
 30
0.0
 10
94.764856
 20
131.384770
 30
0.0
 10
94.680186
 20
131.469440
 30
0.0
 10
92.817519
 20
129.606773
 30
0.0
 10
92.902189
 20
129.522103
 30
0.0
 10
92.902189
 20
129.649103
 30
0.0
 10
89.176855
 20
129.649103
 30
0.0
 10
89.092185
 20
129.606773
 30
0.0
 10
87.229518
 20
127.744107
 30
0.0
 10
87.187188
 20
127.659437
 30
0.0
 10
87.187188
 20
123.891767
 30
0.0
 10
87.314188
 20
123.764767
 30
0.0
 10
94.764854
 20
123.764767
 30
0.0
 10
94.764854
 20
124.018767
 30
0.0
 10
87.314188
 20
124.018767
 30
0.0
 10
87.314188
 20
123.891767
 30
0.0
 10
87.441188
 20
123.891767
 30
0.0
 10
87.441188
 20
127.659437
 30
0.0
 10
87.314188
 20
127.659437
 30
0.0
 10
87.398858
 20
127.574767
 30
0.0
 10
89.261525
 20
129.437434
 30
0.0
 10
89.176855
 20
129.522104
 30
0.0
 10
89.176855
 20
129.395104
 30
0.0
 10
92.902189
 20
129.395104
 30
0.0
 10
92.986859
 20
129.437434
 30
0.0
 10
94.849526
 20
131.300100
 30
0.0
 10
94.891856
 20
131.384770
 30
0.0
 10
94.891856
 20
133.247437
 30
0.0
 10
94.849526
 20
133.332107
 30
0.0
 10
92.986859
 20
135.194774
 30
0.0
 10
92.902189
 20
135.237104
 30
0.0
 10
89.176855
 20
135.237104
 30
0.0
 10
89.092185
 20
135.194774
 30
0.0
  0
LWPOLYLINE
  5
11e
100
AcDbEntity
  8
Layer_1
 62
7
100
AcDbPolyline
 90
44
 70
1
 10
98.532525
 20
129.649100
 30
0.0
 10
98.532525
 20
129.395100
 30
0.0
 10
104.120525
 20
129.395100
 30
0.0
 10
104.120525
 20
129.522100
 30
0.0
 10
104.035855
 20
129.437430
 30
0.0
 10
105.898522
 20
127.574763
 30
0.0
 10
105.983192
 20
127.659433
 30
0.0
 10
105.856192
 20
127.659433
 30
0.0
 10
105.856192
 20
125.796766
 30
0.0
 10
105.983192
 20
125.796766
 30
0.0
 10
105.898522
 20
125.881436
 30
0.0
 10
104.035855
 20
123.976437
 30
0.0
 10
104.120525
 20
123.891737
 30
0.0
 10
104.120525
 20
124.018737
 30
0.0
 10
100.395194
 20
124.018737
 30
0.0
 10
100.395194
 20
123.891737
 30
0.0
 10
100.479864
 20
123.976437
 30
0.0
 10
98.617197
 20
125.881436
 30
0.0
 10
98.532527
 20
125.796766
 30
0.0
 10
98.659527
 20
125.796766
 30
0.0
 10
98.659527
 20
131.384766
 30
0.0
 10
98.532527
 20
131.384766
 30
0.0
 10
98.617197
 20
131.300096
 30
0.0
 10
102.342531
 20
135.025430
 30
0.0
 10
102.257861
 20
135.110100
 30
0.0
 10
102.257861
 20
134.983100
 30
0.0
 10
104.120528
 20
134.983100
 30
0.0
 10
104.120528
 20
135.237100
 30
0.0
 10
102.257861
 20
135.237100
 30
0.0
 10
102.173191
 20
135.194770
 30
0.0
 10
98.447858
 20
131.469437
 30
0.0
 10
98.405528
 20
131.384767
 30
0.0
 10
98.405528
 20
125.796767
 30
0.0
 10
98.447858
 20
125.712097
 30
0.0
 10
100.310525
 20
123.807097
 30
0.0
 10
100.395195
 20
123.764797
 30
0.0
 10
104.120529
 20
123.764797
 30
0.0
 10
104.205199
 20
123.807097
 30
0.0
 10
106.067866
 20
125.712097
 30
0.0
 10
106.110196
 20
125.796767
 30
0.0
 10
106.110196
 20
127.659437
 30
0.0
 10
106.067866
 20
127.744107
 30
0.0
 10
104.205199
 20
129.606773
 30
0.0
 10
104.120529
 20
129.649103
 30
0.0
  0
LWPOLYLINE
  5
11f
100
AcDbEntity
  8
Layer_1
 62
7
100
AcDbPolyline
 90
39
 70
1
 10
111.486525
 20
123.807107
 30
0.0
 10
111.655858
 20
123.976437
 30
0.0
 10
109.793191
 20
125.881434
 30
0.0
 10
109.708521
 20
125.796764
 30
0.0
 10
109.835521
 20
125.796764
 30
0.0
 10
109.835521
 20
133.247437
 30
0.0
 10
109.708521
 20
133.247437
 30
0.0
 10
109.793191
 20
133.162767
 30
0.0
 10
111.655858
 20
135.025434
 30
0.0
 10
111.571188
 20
135.110104
 30
0.0
 10
111.571188
 20
134.983104
 30
0.0
 10
113.433855
 20
134.983104
 30
0.0
 10
113.433855
 20
135.110104
 30
0.0
 10
113.349185
 20
135.025434
 30
0.0
 10
115.211852
 20
133.162767
 30
0.0
 10
115.296522
 20
133.247437
 30
0.0
 10
115.169522
 20
133.247437
 30
0.0
 10
115.169522
 20
125.796770
 30
0.0
 10
115.296522
 20
125.796770
 30
0.0
 10
115.211852
 20
125.881440
 30
0.0
 10
113.349185
 20
123.976437
 30
0.0
 10
113.433855
 20
123.891737
 30
0.0
 10
113.433855
 20
124.018737
 30
0.0
 10
111.571194
 20
124.018737
 30
0.0
 10
111.571194
 20
123.764737
 30
0.0
 10
113.433861
 20
123.764737
 30
0.0
 10
113.518531
 20
123.807037
 30
0.0
 10
115.381198
 20
125.712037
 30
0.0
 10
115.423528
 20
125.796707
 30
0.0
 10
115.423528
 20
133.247437
 30
0.0
 10
115.381198
 20
133.332107
 30
0.0
 10
113.518531
 20
135.194774
 30
0.0
 10
113.433861
 20
135.237104
 30
0.0
 10
111.571194
 20
135.237104
 30
0.0
 10
111.486524
 20
135.194774
 30
0.0
 10
109.623857
 20
133.332107
 30
0.0
 10
109.581527
 20
133.247437
 30
0.0
 10
109.581527
 20
125.796770
 30
0.0
 10
109.623857
 20
125.712100
 30
0.0
  0
LWPOLYLINE
  5
120
100
AcDbEntity
  8
Layer_1
 62
7
100
AcDbPolyline
 90
19
 70
1
 10
32.746526
 20
24.408437
 30
0.0
 10
32.746526
 20
24.154437
 30
0.0
 10
178.288524
 20
24.154437
 30
0.0
 10
178.415524
 20
24.281437
 30
0.0
 10
178.415524
 20
85.834107
 30
0.0
 10
178.288524
 20
85.961107
 30
0.0
 10
32.746529
 20
85.961107
 30
0.0
 10
32.619529
 20
85.834107
 30
0.0
 10
32.619529
 20
24.281437
 30
0.0
 10
32.873529
 20
24.281437
 30
0.0
 10
32.873529
 20
85.834107
 30
0.0
 10
32.746529
 20
85.834107
 30
0.0
 10
32.746529
 20
85.707107
 30
0.0
 10
178.288524
 20
85.707107
 30
0.0
 10
178.288524
 20
85.834107
 30
0.0
 10
178.161524
 20
85.834107
 30
0.0
 10
178.161524
 20
24.281437
 30
0.0
 10
178.288524
 20
24.281437
 30
0.0
 10
178.288524
 20
24.408437
 30
0.0
  0
LWPOLYLINE
  5
121
100
AcDbEntity
  8
Layer_1
 62
7
100
AcDbPolyline
 90
194
 70
1
 10
81.599195
 20
55.057767
 30
0.0
 10
81.853195
 20
55.057767
 30
0.0
 10
81.768525
 20
56.370107
 30
0.0
 10
81.768525
 20
56.370107
 30
0.0
 10
81.514525
 20
57.597767
 30
0.0
 10
81.091192
 20
58.825437
 30
0.0
 10
81.091192
 20
58.867737
 30
0.0
 10
80.540859
 20
60.010737
 30
0.0
 10
80.498529
 20
60.010737
 30
0.0
 10
79.778863
 20
61.069077
 30
0.0
 10
78.932196
 20
62.042737
 30
0.0
 10
78.932196
 20
62.085037
 30
0.0
 10
77.958529
 20
62.931697
 30
0.0
 10
77.916199
 20
62.931697
 30
0.0
 10
76.857866
 20
63.651367
 30
0.0
 10
76.857866
 20
63.651367
 30
0.0
 10
75.714866
 20
64.201697
 30
0.0
 10
75.672533
 20
64.243997
 30
0.0
 10
74.444866
 20
64.667327
 30
0.0
 10
73.174866
 20
64.921327
 30
0.0
 10
73.174866
 20
64.921327
 30
0.0
 10
71.904866
 20
65.006027
 30
0.0
 10
70.634866
 20
64.921327
 30
0.0
 10
70.592533
 20
64.921327
 30
0.0
 10
69.322533
 20
64.667327
 30
0.0
 10
68.137200
 20
64.243997
 30
0.0
 10
68.137200
 20
64.201697
 30
0.0
 10
66.994200
 20
63.651367
 30
0.0
 10
66.951866
 20
63.651367
 30
0.0
 10
65.851200
 20
62.931697
 30
0.0
 10
65.851200
 20
62.931697
 30
0.0
 10
64.919867
 20
62.085037
 30
0.0
 10
64.877534
 20
62.042737
 30
0.0
 10
64.030867
 20
61.069077
 30
0.0
 10
63.311200
 20
60.010737
 30
0.0
 10
63.311200
 20
60.010737
 30
0.0
 10
62.718534
 20
58.867737
 30
0.0
 10
62.718534
 20
58.825437
 30
0.0
 10
62.337534
 20
57.597767
 30
0.0
 10
62.083534
 20
56.370107
 30
0.0
 10
62.083534
 20
56.370107
 30
0.0
 10
61.998867
 20
55.057767
 30
0.0
 10
62.083534
 20
53.787767
 30
0.0
 10
62.083534
 20
53.745467
 30
0.0
 10
62.337534
 20
52.475467
 30
0.0
 10
62.718534
 20
51.290137
 30
0.0
 10
62.718534
 20
51.290137
 30
0.0
 10
63.311200
 20
50.147137
 30
0.0
 10
63.311200
 20
50.104837
 30
0.0
 10
64.030867
 20
49.004177
 30
0.0
 10
64.073200
 20
49.004177
 30
0.0
 10
64.919867
 20
48.072837
 30
0.0
 10
65.851200
 20
47.226177
 30
0.0
 10
65.851200
 20
47.183877
 30
0.0
 10
66.951867
 20
46.464217
 30
0.0
 10
66.994200
 20
46.464217
 30
0.0
 10
68.137200
 20
45.913877
 30
0.0
 10
68.137200
 20
45.913877
 30
0.0
 10
69.322533
 20
45.490547
 30
0.0
 10
70.592533
 20
45.236547
 30
0.0
 10
70.634866
 20
45.236547
 30
0.0
 10
71.904866
 20
45.151847
 30
0.0
 10
73.174866
 20
45.236547
 30
0.0
 10
73.174866
 20
45.236547
 30
0.0
 10
74.444866
 20
45.490547
 30
0.0
 10
75.672533
 20
45.913877
 30
0.0
 10
75.714866
 20
45.913877
 30
0.0
 10
76.857866
 20
46.464217
 30
0.0
 10
76.857866
 20
46.464217
 30
0.0
 10
77.916199
 20
47.183877
 30
0.0
 10
77.958529
 20
47.226177
 30
0.0
 10
78.932196
 20
48.072837
 30
0.0
 10
79.778863
 20
49.004177
 30
0.0
 10
79.778863
 20
49.004177
 30
0.0
 10
80.498529
 20
50.104837
 30
0.0
 10
80.540859
 20
50.147137
 30
0.0
 10
81.091192
 20
51.290137
 30
0.0
 10
81.091192
 20
51.290137
 30
0.0
 10
81.514525
 20
52.475467
 30
0.0
 10
81.768525
 20
53.745467
 30
0.0
 10
81.768525
 20
53.787767
 30
0.0
 10
81.853195
 20
55.057767
 30
0.0
 10
81.599195
 20
55.057767
 30
0.0
 10
81.514525
 20
53.787767
 30
0.0
 10
81.641525
 20
53.787767
 30
0.0
 10
81.514525
 20
53.787767
 30
0.0
 10
81.260525
 20
52.517767
 30
0.0
 10
80.837192
 20
51.332437
 30
0.0
 10
80.964192
 20
51.332437
 30
0.0
 10
80.837192
 20
51.374737
 30
0.0
 10
80.286859
 20
50.231737
 30
0.0
 10
80.413859
 20
50.189437
 30
0.0
 10
80.286859
 20
50.231737
 30
0.0
 10
79.567192
 20
49.131077
 30
0.0
 10
79.694192
 20
49.088777
 30
0.0
 10
79.609522
 20
49.173477
 30
0.0
 10
78.762856
 20
48.242147
 30
0.0
 10
77.789189
 20
47.395477
 30
0.0
 10
77.873859
 20
47.310777
 30
0.0
 10
77.789189
 20
47.395477
 30
0.0
 10
76.730856
 20
46.675807
 30
0.0
 10
76.815526
 20
46.591107
 30
0.0
 10
76.773196
 20
46.675807
 30
0.0
 10
75.630196
 20
46.125477
 30
0.0
 10
75.672529
 20
46.040777
 30
0.0
 10
75.630196
 20
46.167777
 30
0.0
 10
74.402529
 20
45.744447
 30
0.0
 10
73.132530
 20
45.490447
 30
0.0
 10
73.174863
 20
45.363447
 30
0.0
 10
73.174863
 20
45.490447
 30
0.0
 10
71.904863
 20
45.405747
 30
0.0
 10
70.634863
 20
45.490447
 30
0.0
 10
70.634863
 20
45.363447
 30
0.0
 10
70.634863
 20
45.490447
 30
0.0
 10
69.364863
 20
45.744447
 30
0.0
 10
68.179529
 20
46.167777
 30
0.0
 10
68.179529
 20
46.040777
 30
0.0
 10
68.221862
 20
46.125477
 30
0.0
 10
67.078862
 20
46.675807
 30
0.0
 10
67.036529
 20
46.591107
 30
0.0
 10
67.078862
 20
46.675807
 30
0.0
 10
65.978196
 20
47.395477
 30
0.0
 10
65.935862
 20
47.310777
 30
0.0
 10
66.020529
 20
47.395477
 30
0.0
 10
65.089196
 20
48.242147
 30
0.0
 10
64.242529
 20
49.173477
 30
0.0
 10
64.157862
 20
49.088777
 30
0.0
 10
64.242529
 20
49.131077
 30
0.0
 10
63.522862
 20
50.231737
 30
0.0
 10
63.438195
 20
50.189437
 30
0.0
 10
63.565195
 20
50.231737
 30
0.0
 10
62.972529
 20
51.374737
 30
0.0
 10
62.845529
 20
51.332437
 30
0.0
 10
62.972529
 20
51.332437
 30
0.0
 10
62.591529
 20
52.517767
 30
0.0
 10
62.337529
 20
53.787767
 30
0.0
 10
62.210529
 20
53.787767
 30
0.0
 10
62.337529
 20
53.787767
 30
0.0
 10
62.252862
 20
55.057767
 30
0.0
 10
62.337529
 20
56.370107
 30
0.0
 10
62.210529
 20
56.370107
 30
0.0
 10
62.337529
 20
56.327807
 30
0.0
 10
62.591529
 20
57.555477
 30
0.0
 10
62.972529
 20
58.783147
 30
0.0
 10
62.845529
 20
58.825447
 30
0.0
 10
62.972529
 20
58.783147
 30
0.0
 10
63.565195
 20
59.926147
 30
0.0
 10
63.438195
 20
59.968447
 30
0.0
 10
63.522862
 20
59.883747
 30
0.0
 10
64.242529
 20
60.942087
 30
0.0
 10
65.089196
 20
61.915747
 30
0.0
 10
65.004529
 20
62.000447
 30
0.0
 10
65.089196
 20
61.915747
 30
0.0
 10
66.020529
 20
62.762417
 30
0.0
 10
65.935862
 20
62.847117
 30
0.0
 10
65.978196
 20
62.720117
 30
0.0
 10
67.078862
 20
63.439777
 30
0.0
 10
67.036529
 20
63.566777
 30
0.0
 10
67.078862
 20
63.439777
 30
0.0
 10
68.221862
 20
63.990117
 30
0.0
 10
68.179529
 20
64.117117
 30
0.0
 10
68.179529
 20
63.990117
 30
0.0
 10
69.364863
 20
64.413447
 30
0.0
 10
70.634863
 20
64.667447
 30
0.0
 10
70.634863
 20
64.794447
 30
0.0
 10
70.634863
 20
64.667447
 30
0.0
 10
71.904863
 20
64.752147
 30
0.0
 10
73.174863
 20
64.667447
 30
0.0
 10
73.174863
 20
64.794447
 30
0.0
 10
73.132530
 20
64.667447
 30
0.0
 10
74.402529
 20
64.413447
 30
0.0
 10
75.630196
 20
63.990117
 30
0.0
 10
75.672529
 20
64.117117
 30
0.0
 10
75.630196
 20
63.990117
 30
0.0
 10
76.773196
 20
63.439777
 30
0.0
 10
76.815526
 20
63.566777
 30
0.0
 10
76.730856
 20
63.439777
 30
0.0
 10
77.789189
 20
62.720117
 30
0.0
 10
77.873859
 20
62.847117
 30
0.0
 10
77.789189
 20
62.762417
 30
0.0
 10
78.762856
 20
61.915747
 30
0.0
 10
78.847526
 20
62.000447
 30
0.0
 10
78.720526
 20
61.915747
 30
0.0
 10
79.567193
 20
60.942087
 30
0.0
 10
80.286860
 20
59.883747
 30
0.0
 10
80.413860
 20
59.968447
 30
0.0
 10
80.286860
 20
59.926147
 30
0.0
 10
80.837193
 20
58.783147
 30
0.0
 10
80.964193
 20
58.825447
 30
0.0
 10
80.837193
 20
58.783147
 30
0.0
 10
81.260526
 20
57.555477
 30
0.0
 10
81.514526
 20
56.327807
 30
0.0
 10
81.641526
 20
56.370107
 30
0.0
 10
81.514526
 20
56.370107
 30
0.0
  0
LWPOLYLINE
  5
122
100
AcDbEntity
  8
Layer_1
 62
7
100
AcDbPolyline
 90
184
 70
1
 10
56.114529
 20
44.432107
 30
0.0
 10
56.368529
 20
44.432107
 30
0.0
 10
56.283862
 20
45.490437
 30
0.0
 10
56.283862
 20
45.490437
 30
0.0
 10
56.029862
 20
46.506437
 30
0.0
 10
56.029862
 20
46.548737
 30
0.0
 10
55.648862
 20
47.522407
 30
0.0
 10
55.606532
 20
47.522407
 30
0.0
 10
55.056198
 20
48.411407
 30
0.0
 10
55.056198
 20
48.411407
 30
0.0
 10
54.378865
 20
49.215737
 30
0.0
 10
54.336535
 20
49.258037
 30
0.0
 10
53.532201
 20
49.935367
 30
0.0
 10
53.532201
 20
49.935367
 30
0.0
 10
52.600868
 20
50.485697
 30
0.0
 10
52.600868
 20
50.527997
 30
0.0
 10
51.627202
 20
50.951327
 30
0.0
 10
51.584872
 20
50.951327
 30
0.0
 10
50.568872
 20
51.205327
 30
0.0
 10
50.568872
 20
51.205327
 30
0.0
 10
49.510539
 20
51.290027
 30
0.0
 10
48.452206
 20
51.205327
 30
0.0
 10
48.409876
 20
51.205327
 30
0.0
 10
47.393876
 20
50.951327
 30
0.0
 10
47.393876
 20
50.951327
 30
0.0
 10
46.420210
 20
50.527997
 30
0.0
 10
46.377880
 20
50.485697
 30
0.0
 10
45.488880
 20
49.935367
 30
0.0
 10
44.684547
 20
49.258037
 30
0.0
 10
44.642217
 20
49.215737
 30
0.0
 10
43.964883
 20
48.411407
 30
0.0
 10
43.964883
 20
48.411407
 30
0.0
 10
43.414550
 20
47.522407
 30
0.0
 10
43.414550
 20
47.522407
 30
0.0
 10
42.991217
 20
46.548737
 30
0.0
 10
42.991217
 20
46.506437
 30
0.0
 10
42.779550
 20
45.490437
 30
0.0
 10
42.779550
 20
45.490437
 30
0.0
 10
42.694880
 20
44.432107
 30
0.0
 10
42.779550
 20
43.373777
 30
0.0
 10
42.779550
 20
43.331477
 30
0.0
 10
42.991217
 20
42.315477
 30
0.0
 10
42.991217
 20
42.315477
 30
0.0
 10
43.414550
 20
41.341817
 30
0.0
 10
43.414550
 20
41.341817
 30
0.0
 10
43.964883
 20
40.452817
 30
0.0
 10
43.964883
 20
40.410517
 30
0.0
 10
44.642217
 20
39.606187
 30
0.0
 10
44.684547
 20
39.563887
 30
0.0
 10
45.488880
 20
38.886547
 30
0.0
 10
46.377880
 20
38.336217
 30
0.0
 10
46.420210
 20
38.336217
 30
0.0
 10
47.393876
 20
37.912887
 30
0.0
 10
47.393876
 20
37.912887
 30
0.0
 10
48.409876
 20
37.658887
 30
0.0
 10
48.452206
 20
37.658887
 30
0.0
 10
49.510539
 20
37.574187
 30
0.0
 10
50.568872
 20
37.658887
 30
0.0
 10
50.568872
 20
37.658887
 30
0.0
 10
51.584872
 20
37.912887
 30
0.0
 10
51.627202
 20
37.912887
 30
0.0
 10
52.600868
 20
38.336217
 30
0.0
 10
52.600868
 20
38.336217
 30
0.0
 10
53.532201
 20
38.886547
 30
0.0
 10
53.532201
 20
38.886547
 30
0.0
 10
54.336535
 20
39.563887
 30
0.0
 10
54.378865
 20
39.606187
 30
0.0
 10
55.056198
 20
40.410517
 30
0.0
 10
55.056198
 20
40.452817
 30
0.0
 10
55.606532
 20
41.341817
 30
0.0
 10
55.648862
 20
41.341817
 30
0.0
 10
56.029862
 20
42.315477
 30
0.0
 10
56.029862
 20
42.315477
 30
0.0
 10
56.283862
 20
43.331477
 30
0.0
 10
56.283862
 20
43.373777
 30
0.0
 10
56.368529
 20
44.432107
 30
0.0
 10
56.114529
 20
44.432107
 30
0.0
 10
56.029859
 20
43.373777
 30
0.0
 10
56.156859
 20
43.373777
 30
0.0
 10
56.029859
 20
43.373777
 30
0.0
 10
55.775859
 20
42.357777
 30
0.0
 10
55.902859
 20
42.357777
 30
0.0
 10
55.775859
 20
42.400077
 30
0.0
 10
55.394859
 20
41.426407
 30
0.0
 10
55.521859
 20
41.384107
 30
0.0
 10
55.394859
 20
41.426407
 30
0.0
 10
54.844526
 20
40.537407
 30
0.0
 10
54.971526
 20
40.495107
 30
0.0
 10
54.844526
 20
40.537407
 30
0.0
 10
54.167192
 20
39.733077
 30
0.0
 10
54.294192
 20
39.690777
 30
0.0
 10
54.209522
 20
39.775477
 30
0.0
 10
53.405188
 20
39.098147
 30
0.0
 10
53.489858
 20
39.013447
 30
0.0
 10
53.447528
 20
39.098147
 30
0.0
 10
52.516194
 20
38.547817
 30
0.0
 10
52.558524
 20
38.463117
 30
0.0
 10
52.516194
 20
38.590117
 30
0.0
 10
51.542528
 20
38.166787
 30
0.0
 10
51.584858
 20
38.039787
 30
0.0
 10
51.542528
 20
38.166787
 30
0.0
 10
50.526528
 20
37.912787
 30
0.0
 10
50.568858
 20
37.785787
 30
0.0
 10
50.568858
 20
37.912787
 30
0.0
 10
49.510525
 20
37.828087
 30
0.0
 10
48.452192
 20
37.912787
 30
0.0
 10
48.452192
 20
37.785787
 30
0.0
 10
48.452192
 20
37.912787
 30
0.0
 10
47.436192
 20
38.166787
 30
0.0
 10
47.436192
 20
38.039787
 30
0.0
 10
47.478522
 20
38.166787
 30
0.0
 10
46.504855
 20
38.590117
 30
0.0
 10
46.462525
 20
38.463117
 30
0.0
 10
46.504855
 20
38.547817
 30
0.0
 10
45.615855
 20
39.098147
 30
0.0
 10
44.811522
 20
39.775477
 30
0.0
 10
44.769192
 20
39.690777
 30
0.0
 10
44.853862
 20
39.733077
 30
0.0
 10
44.176529
 20
40.537407
 30
0.0
 10
44.091859
 20
40.495107
 30
0.0
 10
44.176529
 20
40.537407
 30
0.0
 10
43.626196
 20
41.426407
 30
0.0
 10
43.541526
 20
41.384107
 30
0.0
 10
43.668526
 20
41.426407
 30
0.0
 10
43.245193
 20
42.400077
 30
0.0
 10
43.118193
 20
42.357777
 30
0.0
 10
43.245193
 20
42.357777
 30
0.0
 10
43.033526
 20
43.373777
 30
0.0
 10
42.906526
 20
43.373777
 30
0.0
 10
43.033526
 20
43.373777
 30
0.0
 10
42.948856
 20
44.432107
 30
0.0
 10
43.033526
 20
45.490437
 30
0.0
 10
42.906526
 20
45.490437
 30
0.0
 10
43.033526
 20
45.448137
 30
0.0
 10
43.245193
 20
46.464137
 30
0.0
 10
43.118193
 20
46.506437
 30
0.0
 10
43.245193
 20
46.464137
 30
0.0
 10
43.668526
 20
47.437797
 30
0.0
 10
43.541526
 20
47.480097
 30
0.0
 10
43.626196
 20
47.437797
 30
0.0
 10
44.176529
 20
48.326797
 30
0.0
 10
44.091859
 20
48.369097
 30
0.0
 10
44.176529
 20
48.284397
 30
0.0
 10
44.853862
 20
49.088727
 30
0.0
 10
44.769192
 20
49.173427
 30
0.0
 10
44.811522
 20
49.046427
 30
0.0
 10
45.615855
 20
49.723757
 30
0.0
 10
46.504855
 20
50.274097
 30
0.0
 10
46.462525
 20
50.401097
 30
0.0
 10
46.504855
 20
50.274097
 30
0.0
 10
47.478522
 20
50.697427
 30
0.0
 10
47.436192
 20
50.824427
 30
0.0
 10
47.436192
 20
50.697427
 30
0.0
 10
48.452192
 20
50.951427
 30
0.0
 10
48.452192
 20
51.078427
 30
0.0
 10
48.452192
 20
50.951427
 30
0.0
 10
49.510525
 20
51.036127
 30
0.0
 10
50.568858
 20
50.951427
 30
0.0
 10
50.568858
 20
51.078427
 30
0.0
 10
50.526528
 20
50.951427
 30
0.0
 10
51.542528
 20
50.697427
 30
0.0
 10
51.584858
 20
50.824427
 30
0.0
 10
51.542528
 20
50.697427
 30
0.0
 10
52.516194
 20
50.274097
 30
0.0
 10
52.558524
 20
50.401097
 30
0.0
 10
52.516194
 20
50.274097
 30
0.0
 10
53.447528
 20
49.723757
 30
0.0
 10
53.489858
 20
49.850757
 30
0.0
 10
53.405188
 20
49.723757
 30
0.0
 10
54.209522
 20
49.046427
 30
0.0
 10
54.294192
 20
49.173427
 30
0.0
 10
54.167192
 20
49.088727
 30
0.0
 10
54.844526
 20
48.284397
 30
0.0
 10
54.971526
 20
48.369097
 30
0.0
 10
54.844526
 20
48.326797
 30
0.0
 10
55.394859
 20
47.437797
 30
0.0
 10
55.521859
 20
47.480097
 30
0.0
 10
55.394859
 20
47.437797
 30
0.0
 10
55.775859
 20
46.464137
 30
0.0
 10
55.902859
 20
46.506437
 30
0.0
 10
55.775859
 20
46.464137
 30
0.0
 10
56.029859
 20
45.448137
 30
0.0
 10
56.156859
 20
45.490437
 30
0.0
 10
56.029859
 20
45.490437
 30
0.0
  0
LWPOLYLINE
  5
123
100
AcDbEntity
  8
Layer_1
 62
7
100
AcDbPolyline
 90
194
 70
1
 10
109.581528
 20
55.057767
 30
0.0
 10
109.835528
 20
55.057767
 30
0.0
 10
109.750858
 20
56.370107
 30
0.0
 10
109.750858
 20
56.370107
 30
0.0
 10
109.496858
 20
57.597767
 30
0.0
 10
109.073525
 20
58.825437
 30
0.0
 10
109.073525
 20
58.867737
 30
0.0
 10
108.523191
 20
60.010737
 30
0.0
 10
108.480861
 20
60.010737
 30
0.0
 10
107.761194
 20
61.069077
 30
0.0
 10
106.914528
 20
62.042737
 30
0.0
 10
106.914528
 20
62.085037
 30
0.0
 10
105.940861
 20
62.931697
 30
0.0
 10
105.898531
 20
62.931697
 30
0.0
 10
104.840197
 20
63.651367
 30
0.0
 10
104.840197
 20
63.651367
 30
0.0
 10
103.697197
 20
64.201697
 30
0.0
 10
103.654867
 20
64.243997
 30
0.0
 10
102.427200
 20
64.667327
 30
0.0
 10
101.199534
 20
64.921327
 30
0.0
 10
101.199534
 20
64.921327
 30
0.0
 10
99.887200
 20
65.006027
 30
0.0
 10
98.617200
 20
64.921327
 30
0.0
 10
98.574870
 20
64.921327
 30
0.0
 10
97.304870
 20
64.667327
 30
0.0
 10
96.119537
 20
64.243997
 30
0.0
 10
96.119537
 20
64.201697
 30
0.0
 10
94.976537
 20
63.651367
 30
0.0
 10
94.934207
 20
63.651367
 30
0.0
 10
93.875873
 20
62.931697
 30
0.0
 10
93.875873
 20
62.931697
 30
0.0
 10
92.902207
 20
62.085037
 30
0.0
 10
92.859877
 20
62.042737
 30
0.0
 10
92.013211
 20
61.069077
 30
0.0
 10
91.293544
 20
60.010737
 30
0.0
 10
91.293544
 20
60.010737
 30
0.0
 10
90.743211
 20
58.867737
 30
0.0
 10
90.743211
 20
58.825437
 30
0.0
 10
90.319877
 20
57.597767
 30
0.0
 10
90.065877
 20
56.370107
 30
0.0
 10
90.065877
 20
56.370107
 30
0.0
 10
89.981207
 20
55.057767
 30
0.0
 10
90.065877
 20
53.787767
 30
0.0
 10
90.065877
 20
53.745467
 30
0.0
 10
90.319877
 20
52.475467
 30
0.0
 10
90.743211
 20
51.290137
 30
0.0
 10
90.743211
 20
51.290137
 30
0.0
 10
91.293544
 20
50.147137
 30
0.0
 10
91.293544
 20
50.104837
 30
0.0
 10
92.013211
 20
49.004177
 30
0.0
 10
92.055541
 20
49.004177
 30
0.0
 10
92.902208
 20
48.072837
 30
0.0
 10
93.875874
 20
47.226177
 30
0.0
 10
93.875874
 20
47.183877
 30
0.0
 10
94.934208
 20
46.464217
 30
0.0
 10
94.976538
 20
46.464217
 30
0.0
 10
96.119538
 20
45.913877
 30
0.0
 10
96.119538
 20
45.913877
 30
0.0
 10
97.304871
 20
45.490547
 30
0.0
 10
98.574871
 20
45.236547
 30
0.0
 10
98.617201
 20
45.236547
 30
0.0
 10
99.887201
 20
45.151847
 30
0.0
 10
101.199535
 20
45.236547
 30
0.0
 10
101.199535
 20
45.236547
 30
0.0
 10
102.427201
 20
45.490547
 30
0.0
 10
103.654868
 20
45.913877
 30
0.0
 10
103.697198
 20
45.913877
 30
0.0
 10
104.840198
 20
46.464217
 30
0.0
 10
104.840198
 20
46.464217
 30
0.0
 10
105.898532
 20
47.183877
 30
0.0
 10
105.940862
 20
47.226177
 30
0.0
 10
106.914529
 20
48.072837
 30
0.0
 10
107.761195
 20
49.004177
 30
0.0
 10
107.761195
 20
49.004177
 30
0.0
 10
108.480862
 20
50.104837
 30
0.0
 10
108.523192
 20
50.147137
 30
0.0
 10
109.073526
 20
51.290137
 30
0.0
 10
109.073526
 20
51.290137
 30
0.0
 10
109.496859
 20
52.475467
 30
0.0
 10
109.750859
 20
53.745467
 30
0.0
 10
109.750859
 20
53.787767
 30
0.0
 10
109.835529
 20
55.057767
 30
0.0
 10
109.581529
 20
55.057767
 30
0.0
 10
109.496859
 20
53.787767
 30
0.0
 10
109.623859
 20
53.787767
 30
0.0
 10
109.496859
 20
53.787767
 30
0.0
 10
109.242859
 20
52.517767
 30
0.0
 10
108.819526
 20
51.332437
 30
0.0
 10
108.946526
 20
51.332437
 30
0.0
 10
108.819526
 20
51.374737
 30
0.0
 10
108.269192
 20
50.231737
 30
0.0
 10
108.396192
 20
50.189437
 30
0.0
 10
108.269192
 20
50.231737
 30
0.0
 10
107.549526
 20
49.131077
 30
0.0
 10
107.676526
 20
49.088777
 30
0.0
 10
107.591856
 20
49.173477
 30
0.0
 10
106.745189
 20
48.242147
 30
0.0
 10
105.771523
 20
47.395477
 30
0.0
 10
105.856193
 20
47.310777
 30
0.0
 10
105.771523
 20
47.395477
 30
0.0
 10
104.713189
 20
46.675807
 30
0.0
 10
104.797859
 20
46.591107
 30
0.0
 10
104.755529
 20
46.675807
 30
0.0
 10
103.612529
 20
46.125477
 30
0.0
 10
103.654859
 20
46.040777
 30
0.0
 10
103.612529
 20
46.167777
 30
0.0
 10
102.384862
 20
45.744447
 30
0.0
 10
101.157195
 20
45.490447
 30
0.0
 10
101.199525
 20
45.363447
 30
0.0
 10
101.199525
 20
45.490447
 30
0.0
 10
99.887191
 20
45.405747
 30
0.0
 10
98.617191
 20
45.490447
 30
0.0
 10
98.617191
 20
45.363447
 30
0.0
 10
98.617191
 20
45.490447
 30
0.0
 10
97.347191
 20
45.744447
 30
0.0
 10
96.161858
 20
46.167777
 30
0.0
 10
96.161858
 20
46.040777
 30
0.0
 10
96.204188
 20
46.125477
 30
0.0
 10
95.061188
 20
46.675807
 30
0.0
 10
95.018858
 20
46.591107
 30
0.0
 10
95.061188
 20
46.675807
 30
0.0
 10
94.002854
 20
47.395477
 30
0.0
 10
93.960524
 20
47.310777
 30
0.0
 10
94.045194
 20
47.395477
 30
0.0
 10
93.071527
 20
48.242147
 30
0.0
 10
92.224860
 20
49.173477
 30
0.0
 10
92.140190
 20
49.088777
 30
0.0
 10
92.224860
 20
49.131077
 30
0.0
 10
91.505194
 20
50.231737
 30
0.0
 10
91.420524
 20
50.189437
 30
0.0
 10
91.547524
 20
50.231737
 30
0.0
 10
90.997191
 20
51.374737
 30
0.0
 10
90.870191
 20
51.332437
 30
0.0
 10
90.997191
 20
51.332437
 30
0.0
 10
90.573857
 20
52.517767
 30
0.0
 10
90.319857
 20
53.787767
 30
0.0
 10
90.192857
 20
53.787767
 30
0.0
 10
90.319857
 20
53.787767
 30
0.0
 10
90.235187
 20
55.057767
 30
0.0
 10
90.319857
 20
56.370107
 30
0.0
 10
90.192857
 20
56.370107
 30
0.0
 10
90.319857
 20
56.327807
 30
0.0
 10
90.573857
 20
57.555477
 30
0.0
 10
90.997191
 20
58.783147
 30
0.0
 10
90.870191
 20
58.825447
 30
0.0
 10
90.997191
 20
58.783147
 30
0.0
 10
91.547524
 20
59.926147
 30
0.0
 10
91.420524
 20
59.968447
 30
0.0
 10
91.505194
 20
59.883747
 30
0.0
 10
92.224860
 20
60.942087
 30
0.0
 10
93.071527
 20
61.915747
 30
0.0
 10
92.986857
 20
62.000447
 30
0.0
 10
93.071527
 20
61.915747
 30
0.0
 10
94.045194
 20
62.762417
 30
0.0
 10
93.960524
 20
62.847117
 30
0.0
 10
94.002854
 20
62.720117
 30
0.0
 10
95.061188
 20
63.439777
 30
0.0
 10
95.018858
 20
63.566777
 30
0.0
 10
95.061188
 20
63.439777
 30
0.0
 10
96.204188
 20
63.990117
 30
0.0
 10
96.161858
 20
64.117117
 30
0.0
 10
96.161858
 20
63.990117
 30
0.0
 10
97.347191
 20
64.413447
 30
0.0
 10
98.617191
 20
64.667447
 30
0.0
 10
98.617191
 20
64.794447
 30
0.0
 10
98.617191
 20
64.667447
 30
0.0
 10
99.887191
 20
64.752147
 30
0.0
 10
101.199525
 20
64.667447
 30
0.0
 10
101.199525
 20
64.794447
 30
0.0
 10
101.157195
 20
64.667447
 30
0.0
 10
102.384862
 20
64.413447
 30
0.0
 10
103.612529
 20
63.990117
 30
0.0
 10
103.654859
 20
64.117117
 30
0.0
 10
103.612529
 20
63.990117
 30
0.0
 10
104.755529
 20
63.439777
 30
0.0
 10
104.797859
 20
63.566777
 30
0.0
 10
104.713189
 20
63.439777
 30
0.0
 10
105.771523
 20
62.720117
 30
0.0
 10
105.856193
 20
62.847117
 30
0.0
 10
105.771523
 20
62.762417
 30
0.0
 10
106.745189
 20
61.915747
 30
0.0
 10
106.829859
 20
62.000447
 30
0.0
 10
106.702859
 20
61.915747
 30
0.0
 10
107.549526
 20
60.942087
 30
0.0
 10
108.269192
 20
59.883747
 30
0.0
 10
108.396192
 20
59.968447
 30
0.0
 10
108.269192
 20
59.926147
 30
0.0
 10
108.819526
 20
58.783147
 30
0.0
 10
108.946526
 20
58.825447
 30
0.0
 10
108.819526
 20
58.783147
 30
0.0
 10
109.242859
 20
57.555477
 30
0.0
 10
109.496859
 20
56.327807
 30
0.0
 10
109.623859
 20
56.370107
 30
0.0
 10
109.496859
 20
56.370107
 30
0.0
  0
LWPOLYLINE
  5
124
100
AcDbEntity
  8
Layer_1
 62
7
100
AcDbPolyline
 90
194
 70
1
 10
137.563860
 20
55.057767
 30
0.0
 10
137.817860
 20
55.057767
 30
0.0
 10
137.733190
 20
56.370107
 30
0.0
 10
137.733190
 20
56.370107
 30
0.0
 10
137.479190
 20
57.597767
 30
0.0
 10
137.055856
 20
58.825437
 30
0.0
 10
137.055856
 20
58.867737
 30
0.0
 10
136.505523
 20
60.010737
 30
0.0
 10
136.463193
 20
60.010737
 30
0.0
 10
135.743526
 20
61.069077
 30
0.0
 10
134.896859
 20
62.042737
 30
0.0
 10
134.896859
 20
62.085037
 30
0.0
 10
133.923193
 20
62.931697
 30
0.0
 10
133.880863
 20
62.931697
 30
0.0
 10
132.822530
 20
63.651367
 30
0.0
 10
132.822530
 20
63.651367
 30
0.0
 10
131.679530
 20
64.201697
 30
0.0
 10
131.637200
 20
64.243997
 30
0.0
 10
130.409533
 20
64.667327
 30
0.0
 10
129.181866
 20
64.921327
 30
0.0
 10
129.181866
 20
64.921327
 30
0.0
 10
127.911866
 20
65.006027
 30
0.0
 10
126.599533
 20
64.921327
 30
0.0
 10
126.557203
 20
64.921327
 30
0.0
 10
125.329536
 20
64.667327
 30
0.0
 10
124.101870
 20
64.243997
 30
0.0
 10
124.101870
 20
64.201697
 30
0.0
 10
122.958870
 20
63.651367
 30
0.0
 10
122.916540
 20
63.651367
 30
0.0
 10
121.858207
 20
62.931697
 30
0.0
 10
121.858207
 20
62.931697
 30
0.0
 10
120.884540
 20
62.085037
 30
0.0
 10
120.842210
 20
62.042737
 30
0.0
 10
119.995543
 20
61.069077
 30
0.0
 10
119.275877
 20
60.010737
 30
0.0
 10
119.275877
 20
60.010737
 30
0.0
 10
118.725543
 20
58.867737
 30
0.0
 10
118.725543
 20
58.825437
 30
0.0
 10
118.302210
 20
57.597767
 30
0.0
 10
118.048210
 20
56.370107
 30
0.0
 10
118.048210
 20
56.370107
 30
0.0
 10
117.963540
 20
55.057767
 30
0.0
 10
118.048210
 20
53.787767
 30
0.0
 10
118.048210
 20
53.745467
 30
0.0
 10
118.302210
 20
52.475467
 30
0.0
 10
118.725543
 20
51.290137
 30
0.0
 10
118.725543
 20
51.290137
 30
0.0
 10
119.275877
 20
50.147137
 30
0.0
 10
119.275877
 20
50.104837
 30
0.0
 10
119.995543
 20
49.004177
 30
0.0
 10
120.037873
 20
49.004177
 30
0.0
 10
120.884539
 20
48.072837
 30
0.0
 10
121.858206
 20
47.226177
 30
0.0
 10
121.858206
 20
47.183877
 30
0.0
 10
122.916539
 20
46.464217
 30
0.0
 10
122.958869
 20
46.464217
 30
0.0
 10
124.101869
 20
45.913877
 30
0.0
 10
124.101869
 20
45.913877
 30
0.0
 10
125.329535
 20
45.490547
 30
0.0
 10
126.557202
 20
45.236547
 30
0.0
 10
126.599532
 20
45.236547
 30
0.0
 10
127.911865
 20
45.151847
 30
0.0
 10
129.181865
 20
45.236547
 30
0.0
 10
129.181865
 20
45.236547
 30
0.0
 10
130.409532
 20
45.490547
 30
0.0
 10
131.637199
 20
45.913877
 30
0.0
 10
131.679529
 20
45.913877
 30
0.0
 10
132.822529
 20
46.464217
 30
0.0
 10
132.822529
 20
46.464217
 30
0.0
 10
133.880862
 20
47.183877
 30
0.0
 10
133.923192
 20
47.226177
 30
0.0
 10
134.896858
 20
48.072837
 30
0.0
 10
135.743525
 20
49.004177
 30
0.0
 10
135.743525
 20
49.004177
 30
0.0
 10
136.463192
 20
50.104837
 30
0.0
 10
136.505522
 20
50.147137
 30
0.0
 10
137.055855
 20
51.290137
 30
0.0
 10
137.055855
 20
51.290137
 30
0.0
 10
137.479189
 20
52.475467
 30
0.0
 10
137.733189
 20
53.745467
 30
0.0
 10
137.733189
 20
53.787767
 30
0.0
 10
137.817859
 20
55.057767
 30
0.0
 10
137.563859
 20
55.057767
 30
0.0
 10
137.479189
 20
53.787767
 30
0.0
 10
137.606189
 20
53.787767
 30
0.0
 10
137.479189
 20
53.787767
 30
0.0
 10
137.225189
 20
52.517767
 30
0.0
 10
136.801855
 20
51.332437
 30
0.0
 10
136.928855
 20
51.332437
 30
0.0
 10
136.801855
 20
51.374737
 30
0.0
 10
136.251522
 20
50.231737
 30
0.0
 10
136.378522
 20
50.189437
 30
0.0
 10
136.251522
 20
50.231737
 30
0.0
 10
135.531855
 20
49.131077
 30
0.0
 10
135.658855
 20
49.088777
 30
0.0
 10
135.574185
 20
49.173477
 30
0.0
 10
134.727518
 20
48.242147
 30
0.0
 10
133.753851
 20
47.395477
 30
0.0
 10
133.838521
 20
47.310777
 30
0.0
 10
133.753851
 20
47.395477
 30
0.0
 10
132.695518
 20
46.675807
 30
0.0
 10
132.780188
 20
46.591107
 30
0.0
 10
132.737858
 20
46.675807
 30
0.0
 10
131.594858
 20
46.125477
 30
0.0
 10
131.637188
 20
46.040777
 30
0.0
 10
131.594858
 20
46.167777
 30
0.0
 10
130.367192
 20
45.744447
 30
0.0
 10
129.139525
 20
45.490447
 30
0.0
 10
129.181855
 20
45.363447
 30
0.0
 10
129.181855
 20
45.490447
 30
0.0
 10
127.911855
 20
45.405747
 30
0.0
 10
126.599522
 20
45.490447
 30
0.0
 10
126.599522
 20
45.363447
 30
0.0
 10
126.599522
 20
45.490447
 30
0.0
 10
125.371856
 20
45.744447
 30
0.0
 10
124.144189
 20
46.167777
 30
0.0
 10
124.144189
 20
46.040777
 30
0.0
 10
124.186519
 20
46.125477
 30
0.0
 10
123.043519
 20
46.675807
 30
0.0
 10
123.001189
 20
46.591107
 30
0.0
 10
123.043519
 20
46.675807
 30
0.0
 10
121.985186
 20
47.395477
 30
0.0
 10
121.942856
 20
47.310777
 30
0.0
 10
122.027526
 20
47.395477
 30
0.0
 10
121.053860
 20
48.242147
 30
0.0
 10
120.207193
 20
49.173477
 30
0.0
 10
120.122523
 20
49.088777
 30
0.0
 10
120.207193
 20
49.131077
 30
0.0
 10
119.487526
 20
50.231737
 30
0.0
 10
119.402856
 20
50.189437
 30
0.0
 10
119.529856
 20
50.231737
 30
0.0
 10
118.979522
 20
51.374737
 30
0.0
 10
118.852522
 20
51.332437
 30
0.0
 10
118.979522
 20
51.332437
 30
0.0
 10
118.556189
 20
52.517767
 30
0.0
 10
118.302189
 20
53.787767
 30
0.0
 10
118.175189
 20
53.787767
 30
0.0
 10
118.302189
 20
53.787767
 30
0.0
 10
118.217519
 20
55.057767
 30
0.0
 10
118.302189
 20
56.370107
 30
0.0
 10
118.175189
 20
56.370107
 30
0.0
 10
118.302189
 20
56.327807
 30
0.0
 10
118.556189
 20
57.555477
 30
0.0
 10
118.979522
 20
58.783147
 30
0.0
 10
118.852522
 20
58.825447
 30
0.0
 10
118.979522
 20
58.783147
 30
0.0
 10
119.529856
 20
59.926147
 30
0.0
 10
119.402856
 20
59.968447
 30
0.0
 10
119.487526
 20
59.883747
 30
0.0
 10
120.207193
 20
60.942087
 30
0.0
 10
121.053860
 20
61.915747
 30
0.0
 10
120.969190
 20
62.000447
 30
0.0
 10
121.053860
 20
61.915747
 30
0.0
 10
122.027526
 20
62.762417
 30
0.0
 10
121.942856
 20
62.847117
 30
0.0
 10
121.985186
 20
62.720117
 30
0.0
 10
123.043519
 20
63.439777
 30
0.0
 10
123.001189
 20
63.566777
 30
0.0
 10
123.043519
 20
63.439777
 30
0.0
 10
124.186519
 20
63.990117
 30
0.0
 10
124.144189
 20
64.117117
 30
0.0
 10
124.144189
 20
63.990117
 30
0.0
 10
125.371856
 20
64.413447
 30
0.0
 10
126.599522
 20
64.667447
 30
0.0
 10
126.599522
 20
64.794447
 30
0.0
 10
126.599522
 20
64.667447
 30
0.0
 10
127.911855
 20
64.752147
 30
0.0
 10
129.181855
 20
64.667447
 30
0.0
 10
129.181855
 20
64.794447
 30
0.0
 10
129.139525
 20
64.667447
 30
0.0
 10
130.367192
 20
64.413447
 30
0.0
 10
131.594858
 20
63.990117
 30
0.0
 10
131.637188
 20
64.117117
 30
0.0
 10
131.594858
 20
63.990117
 30
0.0
 10
132.737858
 20
63.439777
 30
0.0
 10
132.780188
 20
63.566777
 30
0.0
 10
132.695518
 20
63.439777
 30
0.0
 10
133.753851
 20
62.720117
 30
0.0
 10
133.838521
 20
62.847117
 30
0.0
 10
133.753851
 20
62.762417
 30
0.0
 10
134.727518
 20
61.915747
 30
0.0
 10
134.812188
 20
62.000447
 30
0.0
 10
134.685188
 20
61.915747
 30
0.0
 10
135.531854
 20
60.942087
 30
0.0
 10
136.251521
 20
59.883747
 30
0.0
 10
136.378521
 20
59.968447
 30
0.0
 10
136.251521
 20
59.926147
 30
0.0
 10
136.801854
 20
58.783147
 30
0.0
 10
136.928854
 20
58.825447
 30
0.0
 10
136.801854
 20
58.783147
 30
0.0
 10
137.225188
 20
57.555477
 30
0.0
 10
137.479188
 20
56.327807
 30
0.0
 10
137.606188
 20
56.370107
 30
0.0
 10
137.479188
 20
56.370107
 30
0.0
  0
LWPOLYLINE
  5
125
100
AcDbEntity
  8
Layer_1
 62
7
100
AcDbPolyline
 90
194
 70
1
 10
165.546193
 20
55.057767
 30
0.0
 10
165.800193
 20
55.057767
 30
0.0
 10
165.715523
 20
56.370107
 30
0.0
 10
165.715523
 20
56.370107
 30
0.0
 10
165.461523
 20
57.597767
 30
0.0
 10
165.038190
 20
58.825437
 30
0.0
 10
165.038190
 20
58.867737
 30
0.0
 10
164.487857
 20
60.010737
 30
0.0
 10
164.445527
 20
60.010737
 30
0.0
 10
163.725861
 20
61.069077
 30
0.0
 10
162.879194
 20
62.042737
 30
0.0
 10
162.879194
 20
62.085037
 30
0.0
 10
161.947861
 20
62.931697
 30
0.0
 10
161.905531
 20
62.931697
 30
0.0
 10
160.804865
 20
63.651367
 30
0.0
 10
160.804865
 20
63.651367
 30
0.0
 10
159.661865
 20
64.201697
 30
0.0
 10
159.619535
 20
64.243997
 30
0.0
 10
158.434202
 20
64.667327
 30
0.0
 10
157.164202
 20
64.921327
 30
0.0
 10
157.164202
 20
64.921327
 30
0.0
 10
155.894202
 20
65.006027
 30
0.0
 10
154.581869
 20
64.921327
 30
0.0
 10
154.539539
 20
64.921327
 30
0.0
 10
153.311872
 20
64.667327
 30
0.0
 10
152.084205
 20
64.243997
 30
0.0
 10
152.084205
 20
64.201697
 30
0.0
 10
150.941205
 20
63.651367
 30
0.0
 10
150.898875
 20
63.651367
 30
0.0
 10
149.840542
 20
62.931697
 30
0.0
 10
149.840542
 20
62.931697
 30
0.0
 10
148.866875
 20
62.085037
 30
0.0
 10
148.824545
 20
62.042737
 30
0.0
 10
147.977878
 20
61.069077
 30
0.0
 10
147.258211
 20
60.010737
 30
0.0
 10
147.258211
 20
60.010737
 30
0.0
 10
146.707878
 20
58.867737
 30
0.0
 10
146.707878
 20
58.825437
 30
0.0
 10
146.284545
 20
57.597767
 30
0.0
 10
146.030545
 20
56.370107
 30
0.0
 10
146.030545
 20
56.370107
 30
0.0
 10
145.945875
 20
55.057767
 30
0.0
 10
146.030545
 20
53.787767
 30
0.0
 10
146.030545
 20
53.745467
 30
0.0
 10
146.284545
 20
52.475467
 30
0.0
 10
146.707878
 20
51.290137
 30
0.0
 10
146.707878
 20
51.290137
 30
0.0
 10
147.258211
 20
50.147137
 30
0.0
 10
147.258211
 20
50.104837
 30
0.0
 10
147.977878
 20
49.004177
 30
0.0
 10
148.020208
 20
49.004177
 30
0.0
 10
148.866875
 20
48.072837
 30
0.0
 10
149.840542
 20
47.226177
 30
0.0
 10
149.840542
 20
47.183877
 30
0.0
 10
150.898875
 20
46.464217
 30
0.0
 10
150.941205
 20
46.464217
 30
0.0
 10
152.084205
 20
45.913877
 30
0.0
 10
152.084205
 20
45.913877
 30
0.0
 10
153.311872
 20
45.490547
 30
0.0
 10
154.539539
 20
45.236547
 30
0.0
 10
154.581869
 20
45.236547
 30
0.0
 10
155.894202
 20
45.151847
 30
0.0
 10
157.164202
 20
45.236547
 30
0.0
 10
157.164202
 20
45.236547
 30
0.0
 10
158.434202
 20
45.490547
 30
0.0
 10
159.619535
 20
45.913877
 30
0.0
 10
159.661865
 20
45.913877
 30
0.0
 10
160.804865
 20
46.464217
 30
0.0
 10
160.804865
 20
46.464217
 30
0.0
 10
161.905531
 20
47.183877
 30
0.0
 10
161.947861
 20
47.226177
 30
0.0
 10
162.879194
 20
48.072837
 30
0.0
 10
163.725861
 20
49.004177
 30
0.0
 10
163.725861
 20
49.004177
 30
0.0
 10
164.445527
 20
50.104837
 30
0.0
 10
164.487857
 20
50.147137
 30
0.0
 10
165.038190
 20
51.290137
 30
0.0
 10
165.038190
 20
51.290137
 30
0.0
 10
165.461523
 20
52.475467
 30
0.0
 10
165.715523
 20
53.745467
 30
0.0
 10
165.715523
 20
53.787767
 30
0.0
 10
165.800193
 20
55.057767
 30
0.0
 10
165.546193
 20
55.057767
 30
0.0
 10
165.461523
 20
53.787767
 30
0.0
 10
165.588523
 20
53.787767
 30
0.0
 10
165.461523
 20
53.787767
 30
0.0
 10
165.207523
 20
52.517767
 30
0.0
 10
164.784190
 20
51.332437
 30
0.0
 10
164.911190
 20
51.332437
 30
0.0
 10
164.784190
 20
51.374737
 30
0.0
 10
164.233857
 20
50.231737
 30
0.0
 10
164.360857
 20
50.189437
 30
0.0
 10
164.233857
 20
50.231737
 30
0.0
 10
163.514190
 20
49.131077
 30
0.0
 10
163.641190
 20
49.088777
 30
0.0
 10
163.556520
 20
49.173477
 30
0.0
 10
162.709854
 20
48.242147
 30
0.0
 10
161.778520
 20
47.395477
 30
0.0
 10
161.863190
 20
47.310777
 30
0.0
 10
161.778520
 20
47.395477
 30
0.0
 10
160.677854
 20
46.675807
 30
0.0
 10
160.762524
 20
46.591107
 30
0.0
 10
160.720194
 20
46.675807
 30
0.0
 10
159.577194
 20
46.125477
 30
0.0
 10
159.619524
 20
46.040777
 30
0.0
 10
159.577194
 20
46.167777
 30
0.0
 10
158.391861
 20
45.744447
 30
0.0
 10
157.121861
 20
45.490447
 30
0.0
 10
157.164191
 20
45.363447
 30
0.0
 10
157.164191
 20
45.490447
 30
0.0
 10
155.894191
 20
45.405747
 30
0.0
 10
154.581858
 20
45.490447
 30
0.0
 10
154.581858
 20
45.363447
 30
0.0
 10
154.581858
 20
45.490447
 30
0.0
 10
153.354191
 20
45.744447
 30
0.0
 10
152.126525
 20
46.167777
 30
0.0
 10
152.126525
 20
46.040777
 30
0.0
 10
152.168855
 20
46.125477
 30
0.0
 10
151.025855
 20
46.675807
 30
0.0
 10
150.983525
 20
46.591107
 30
0.0
 10
151.025855
 20
46.675807
 30
0.0
 10
149.967522
 20
47.395477
 30
0.0
 10
149.925192
 20
47.310777
 30
0.0
 10
150.009862
 20
47.395477
 30
0.0
 10
149.036195
 20
48.242147
 30
0.0
 10
148.189529
 20
49.173477
 30
0.0
 10
148.104859
 20
49.088777
 30
0.0
 10
148.189529
 20
49.131077
 30
0.0
 10
147.469862
 20
50.231737
 30
0.0
 10
147.385192
 20
50.189437
 30
0.0
 10
147.512192
 20
50.231737
 30
0.0
 10
146.961859
 20
51.374737
 30
0.0
 10
146.834859
 20
51.332437
 30
0.0
 10
146.961859
 20
51.332437
 30
0.0
 10
146.538526
 20
52.517767
 30
0.0
 10
146.284526
 20
53.787767
 30
0.0
 10
146.157526
 20
53.787767
 30
0.0
 10
146.284526
 20
53.787767
 30
0.0
 10
146.199856
 20
55.057767
 30
0.0
 10
146.284526
 20
56.370107
 30
0.0
 10
146.157526
 20
56.370107
 30
0.0
 10
146.284526
 20
56.327807
 30
0.0
 10
146.538526
 20
57.555477
 30
0.0
 10
146.961859
 20
58.783147
 30
0.0
 10
146.834859
 20
58.825447
 30
0.0
 10
146.961859
 20
58.783147
 30
0.0
 10
147.512192
 20
59.926147
 30
0.0
 10
147.385192
 20
59.968447
 30
0.0
 10
147.469862
 20
59.883747
 30
0.0
 10
148.189529
 20
60.942087
 30
0.0
 10
149.036195
 20
61.915747
 30
0.0
 10
148.951525
 20
62.000447
 30
0.0
 10
149.036195
 20
61.915747
 30
0.0
 10
150.009862
 20
62.762417
 30
0.0
 10
149.925192
 20
62.847117
 30
0.0
 10
149.967522
 20
62.720117
 30
0.0
 10
151.025855
 20
63.439777
 30
0.0
 10
150.983525
 20
63.566777
 30
0.0
 10
151.025855
 20
63.439777
 30
0.0
 10
152.168855
 20
63.990117
 30
0.0
 10
152.126525
 20
64.117117
 30
0.0
 10
152.126525
 20
63.990117
 30
0.0
 10
153.354191
 20
64.413447
 30
0.0
 10
154.581858
 20
64.667447
 30
0.0
 10
154.581858
 20
64.794447
 30
0.0
 10
154.581858
 20
64.667447
 30
0.0
 10
155.894191
 20
64.752147
 30
0.0
 10
157.164191
 20
64.667447
 30
0.0
 10
157.164191
 20
64.794447
 30
0.0
 10
157.121861
 20
64.667447
 30
0.0
 10
158.391861
 20
64.413447
 30
0.0
 10
159.577194
 20
63.990117
 30
0.0
 10
159.619524
 20
64.117117
 30
0.0
 10
159.577194
 20
63.990117
 30
0.0
 10
160.720194
 20
63.439777
 30
0.0
 10
160.762524
 20
63.566777
 30
0.0
 10
160.677854
 20
63.439777
 30
0.0
 10
161.778520
 20
62.720117
 30
0.0
 10
161.863190
 20
62.847117
 30
0.0
 10
161.778520
 20
62.762417
 30
0.0
 10
162.709854
 20
61.915747
 30
0.0
 10
162.794524
 20
62.000447
 30
0.0
 10
162.667524
 20
61.915747
 30
0.0
 10
163.514191
 20
60.942087
 30
0.0
 10
164.233858
 20
59.883747
 30
0.0
 10
164.360858
 20
59.968447
 30
0.0
 10
164.233858
 20
59.926147
 30
0.0
 10
164.784191
 20
58.783147
 30
0.0
 10
164.911191
 20
58.825447
 30
0.0
 10
164.784191
 20
58.783147
 30
0.0
 10
165.207524
 20
57.555477
 30
0.0
 10
165.461524
 20
56.327807
 30
0.0
 10
165.588524
 20
56.370107
 30
0.0
 10
165.461524
 20
56.370107
 30
0.0
  0
LWPOLYLINE
  5
126
100
AcDbEntity
  8
Layer_1
 62
7
100
AcDbPolyline
 90
150
 70
1
 10
44.557529
 20
65.006107
 30
0.0
 10
44.345862
 20
64.921407
 30
0.0
 10
44.853862
 20
64.074737
 30
0.0
 10
44.853862
 20
64.032437
 30
0.0
 10
45.488862
 20
63.270437
 30
0.0
 10
45.531192
 20
63.228137
 30
0.0
 10
46.293192
 20
62.635467
 30
0.0
 10
46.335522
 20
62.635467
 30
0.0
 10
47.182189
 20
62.169797
 30
0.0
 10
47.182189
 20
62.169797
 30
0.0
 10
48.071189
 20
61.831137
 30
0.0
 10
48.071189
 20
61.831137
 30
0.0
 10
49.044855
 20
61.661797
 30
0.0
 10
49.087185
 20
61.661797
 30
0.0
 10
50.060851
 20
61.704097
 30
0.0
 10
50.060851
 20
61.704097
 30
0.0
 10
50.992185
 20
61.873427
 30
0.0
 10
51.034515
 20
61.873427
 30
0.0
 10
51.965848
 20
62.212097
 30
0.0
 10
51.965848
 20
62.212097
 30
0.0
 10
52.812515
 20
62.677757
 30
0.0
 10
52.854845
 20
62.720057
 30
0.0
 10
53.574512
 20
63.355057
 30
0.0
 10
53.574512
 20
63.355057
 30
0.0
 10
54.209512
 20
64.117057
 30
0.0
 10
54.209512
 20
64.159357
 30
0.0
 10
54.675178
 20
65.006027
 30
0.0
 10
54.717508
 20
65.006027
 30
0.0
 10
55.056174
 20
65.895027
 30
0.0
 10
55.225508
 20
66.868687
 30
0.0
 10
55.225508
 20
66.910987
 30
0.0
 10
55.225508
 20
67.884647
 30
0.0
 10
55.225508
 20
67.884647
 30
0.0
 10
55.056174
 20
68.815987
 30
0.0
 10
54.717508
 20
69.747317
 30
0.0
 10
54.675178
 20
69.789617
 30
0.0
 10
54.209512
 20
70.636287
 30
0.0
 10
54.209512
 20
70.636287
 30
0.0
 10
53.574512
 20
71.355957
 30
0.0
 10
53.574512
 20
71.398257
 30
0.0
 10
52.854845
 20
72.033257
 30
0.0
 10
52.812515
 20
72.033257
 30
0.0
 10
51.965848
 20
72.541257
 30
0.0
 10
51.965848
 20
72.583557
 30
0.0
 10
51.034515
 20
72.922227
 30
0.0
 10
50.992185
 20
72.922227
 30
0.0
 10
50.060851
 20
73.091557
 30
0.0
 10
50.060851
 20
73.091557
 30
0.0
 10
49.087185
 20
73.091557
 30
0.0
 10
49.044855
 20
73.091557
 30
0.0
 10
48.071189
 20
72.922227
 30
0.0
 10
47.182189
 20
72.625897
 30
0.0
 10
47.182189
 20
72.583597
 30
0.0
 10
46.335522
 20
72.075597
 30
0.0
 10
46.293192
 20
72.075597
 30
0.0
 10
45.531192
 20
71.482937
 30
0.0
 10
45.488862
 20
71.440637
 30
0.0
 10
44.853862
 20
70.678637
 30
0.0
 10
44.853862
 20
70.678637
 30
0.0
 10
44.345862
 20
69.874307
 30
0.0
 10
44.345862
 20
69.832007
 30
0.0
 10
44.345862
 20
64.963667
 30
0.0
 10
44.599862
 20
64.963667
 30
0.0
 10
44.599862
 20
69.832007
 30
0.0
 10
44.472862
 20
69.832007
 30
0.0
 10
44.557532
 20
69.789707
 30
0.0
 10
45.065532
 20
70.594047
 30
0.0
 10
44.980862
 20
70.636347
 30
0.0
 10
45.065532
 20
70.551647
 30
0.0
 10
45.700532
 20
71.313647
 30
0.0
 10
45.615862
 20
71.398347
 30
0.0
 10
45.658192
 20
71.271347
 30
0.0
 10
46.420192
 20
71.864017
 30
0.0
 10
46.377862
 20
71.991017
 30
0.0
 10
46.420192
 20
71.864017
 30
0.0
 10
47.266858
 20
72.372017
 30
0.0
 10
47.224528
 20
72.499017
 30
0.0
 10
47.224528
 20
72.372017
 30
0.0
 10
48.113528
 20
72.668347
 30
0.0
 10
49.087195
 20
72.837677
 30
0.0
 10
49.087195
 20
72.964677
 30
0.0
 10
49.087195
 20
72.837677
 30
0.0
 10
50.060861
 20
72.837677
 30
0.0
 10
50.060861
 20
72.964677
 30
0.0
 10
50.018531
 20
72.837677
 30
0.0
 10
50.949864
 20
72.668347
 30
0.0
 10
50.992194
 20
72.795347
 30
0.0
 10
50.949864
 20
72.668347
 30
0.0
 10
51.881197
 20
72.329677
 30
0.0
 10
51.923527
 20
72.456677
 30
0.0
 10
51.881197
 20
72.329677
 30
0.0
 10
52.727864
 20
71.821677
 30
0.0
 10
52.770194
 20
71.948677
 30
0.0
 10
52.685524
 20
71.863977
 30
0.0
 10
53.405190
 20
71.228977
 30
0.0
 10
53.489860
 20
71.313677
 30
0.0
 10
53.362860
 20
71.228977
 30
0.0
 10
53.997860
 20
70.509307
 30
0.0
 10
54.124860
 20
70.594007
 30
0.0
 10
53.997860
 20
70.551707
 30
0.0
 10
54.463527
 20
69.705047
 30
0.0
 10
54.590527
 20
69.747347
 30
0.0
 10
54.463527
 20
69.705047
 30
0.0
 10
54.802193
 20
68.773707
 30
0.0
 10
54.971527
 20
67.842377
 30
0.0
 10
55.098527
 20
67.884677
 30
0.0
 10
54.971527
 20
67.884677
 30
0.0
 10
54.971527
 20
66.911017
 30
0.0
 10
55.098527
 20
66.911017
 30
0.0
 10
54.971527
 20
66.911017
 30
0.0
 10
54.802193
 20
65.937347
 30
0.0
 10
54.463527
 20
65.048347
 30
0.0
 10
54.590527
 20
65.048347
 30
0.0
 10
54.463527
 20
65.090647
 30
0.0
 10
53.997860
 20
64.243987
 30
0.0
 10
54.124860
 20
64.201687
 30
0.0
 10
53.997860
 20
64.243987
 30
0.0
 10
53.362860
 20
63.481987
 30
0.0
 10
53.489860
 20
63.439687
 30
0.0
 10
53.405190
 20
63.524387
 30
0.0
 10
52.685524
 20
62.889387
 30
0.0
 10
52.770194
 20
62.804687
 30
0.0
 10
52.727864
 20
62.889387
 30
0.0
 10
51.881197
 20
62.423717
 30
0.0
 10
51.923527
 20
62.339017
 30
0.0
 10
51.881197
 20
62.466017
 30
0.0
 10
50.949864
 20
62.127347
 30
0.0
 10
50.992194
 20
62.000347
 30
0.0
 10
50.949864
 20
62.127347
 30
0.0
 10
50.018531
 20
61.958017
 30
0.0
 10
50.060861
 20
61.831017
 30
0.0
 10
50.060861
 20
61.958017
 30
0.0
 10
49.087195
 20
61.915717
 30
0.0
 10
49.087195
 20
61.788717
 30
0.0
 10
49.087195
 20
61.915717
 30
0.0
 10
48.113528
 20
62.085057
 30
0.0
 10
48.113528
 20
61.958057
 30
0.0
 10
48.155858
 20
62.085057
 30
0.0
 10
47.266858
 20
62.423717
 30
0.0
 10
47.224528
 20
62.296717
 30
0.0
 10
47.266858
 20
62.381417
 30
0.0
 10
46.420192
 20
62.847087
 30
0.0
 10
46.377862
 20
62.762387
 30
0.0
 10
46.420192
 20
62.847087
 30
0.0
 10
45.658192
 20
63.439747
 30
0.0
 10
45.615862
 20
63.355047
 30
0.0
 10
45.700532
 20
63.397347
 30
0.0
 10
45.065532
 20
64.159347
 30
0.0
 10
44.980862
 20
64.117047
 30
0.0
 10
45.065532
 20
64.159347
 30
0.0
  0
LWPOLYLINE
  5
127
100
AcDbEntity
  8
Layer_1
 62
7
100
AcDbPolyline
 90
79
 70
1
 10
45.277196
 20
51.374767
 30
0.0
 10
45.531196
 20
51.417067
 30
0.0
 10
45.446526
 20
51.840397
 30
0.0
 10
45.404196
 20
51.882697
 30
0.0
 10
45.150196
 20
52.263697
 30
0.0
 10
45.107866
 20
52.305997
 30
0.0
 10
44.769200
 20
52.559997
 30
0.0
 10
44.726870
 20
52.602297
 30
0.0
 10
44.303537
 20
52.686997
 30
0.0
 10
44.261207
 20
52.686997
 30
0.0
 10
43.795540
 20
52.602297
 30
0.0
 10
43.753210
 20
52.559997
 30
0.0
 10
43.414543
 20
52.305997
 30
0.0
 10
43.372213
 20
52.263697
 30
0.0
 10
43.118213
 20
51.882697
 30
0.0
 10
43.118213
 20
51.840397
 30
0.0
 10
43.033543
 20
51.417067
 30
0.0
 10
43.033543
 20
51.374767
 30
0.0
 10
43.118213
 20
50.951437
 30
0.0
 10
43.118213
 20
50.909137
 30
0.0
 10
43.372213
 20
50.528137
 30
0.0
 10
43.414543
 20
50.485837
 30
0.0
 10
43.753210
 20
50.274177
 30
0.0
 10
43.795540
 20
50.274177
 30
0.0
 10
44.261207
 20
50.189477
 30
0.0
 10
44.303537
 20
50.189477
 30
0.0
 10
44.726870
 20
50.274177
 30
0.0
 10
44.769200
 20
50.274177
 30
0.0
 10
45.107866
 20
50.485837
 30
0.0
 10
45.150196
 20
50.528137
 30
0.0
 10
45.404196
 20
50.909137
 30
0.0
 10
45.446526
 20
50.951437
 30
0.0
 10
45.531196
 20
51.374767
 30
0.0
 10
45.277196
 20
51.417067
 30
0.0
 10
45.192526
 20
50.993727
 30
0.0
 10
45.319526
 20
50.993727
 30
0.0
 10
45.192526
 20
51.036027
 30
0.0
 10
44.938526
 20
50.655027
 30
0.0
 10
45.065526
 20
50.612727
 30
0.0
 10
44.980856
 20
50.697427
 30
0.0
 10
44.642190
 20
50.485757
 30
0.0
 10
44.726860
 20
50.401057
 30
0.0
 10
44.684530
 20
50.528057
 30
0.0
 10
44.261197
 20
50.443357
 30
0.0
 10
44.303527
 20
50.316357
 30
0.0
 10
44.303527
 20
50.443357
 30
0.0
 10
43.837860
 20
50.528057
 30
0.0
 10
43.837860
 20
50.401057
 30
0.0
 10
43.880190
 20
50.485757
 30
0.0
 10
43.541523
 20
50.697427
 30
0.0
 10
43.499193
 20
50.612727
 30
0.0
 10
43.583863
 20
50.655027
 30
0.0
 10
43.329863
 20
51.036027
 30
0.0
 10
43.245193
 20
50.993727
 30
0.0
 10
43.372193
 20
50.993727
 30
0.0
 10
43.287523
 20
51.417067
 30
0.0
 10
43.160523
 20
51.417067
 30
0.0
 10
43.287523
 20
51.374767
 30
0.0
 10
43.372193
 20
51.798107
 30
0.0
 10
43.245193
 20
51.840407
 30
0.0
 10
43.329863
 20
51.755707
 30
0.0
 10
43.583863
 20
52.136707
 30
0.0
 10
43.499193
 20
52.221407
 30
0.0
 10
43.541523
 20
52.094407
 30
0.0
 10
43.880190
 20
52.348407
 30
0.0
 10
43.837860
 20
52.475407
 30
0.0
 10
43.837860
 20
52.348407
 30
0.0
 10
44.303527
 20
52.433107
 30
0.0
 10
44.303527
 20
52.560107
 30
0.0
 10
44.261197
 20
52.433107
 30
0.0
 10
44.684530
 20
52.348407
 30
0.0
 10
44.726860
 20
52.475407
 30
0.0
 10
44.642190
 20
52.348407
 30
0.0
 10
44.980856
 20
52.094407
 30
0.0
 10
45.065526
 20
52.221407
 30
0.0
 10
44.938526
 20
52.136707
 30
0.0
 10
45.192526
 20
51.755707
 30
0.0
 10
45.319526
 20
51.840407
 30
0.0
 10
45.192526
 20
51.798107
 30
0.0
  0
LWPOLYLINE
  5
128
100
AcDbEntity
  8
Layer_1
 62
7
100
AcDbPolyline
 90
79
 70
1
 10
55.733529
 20
37.404777
 30
0.0
 10
55.987529
 20
37.447077
 30
0.0
 10
55.902859
 20
37.870407
 30
0.0
 10
55.860529
 20
37.912707
 30
0.0
 10
55.648862
 20
38.293707
 30
0.0
 10
55.606532
 20
38.336007
 30
0.0
 10
55.225532
 20
38.590007
 30
0.0
 10
55.183202
 20
38.632307
 30
0.0
 10
54.759869
 20
38.717007
 30
0.0
 10
54.717539
 20
38.717007
 30
0.0
 10
54.294205
 20
38.632307
 30
0.0
 10
54.251875
 20
38.590007
 30
0.0
 10
53.870875
 20
38.336007
 30
0.0
 10
53.828545
 20
38.293707
 30
0.0
 10
53.616878
 20
37.912707
 30
0.0
 10
53.616878
 20
37.870407
 30
0.0
 10
53.532208
 20
37.447077
 30
0.0
 10
53.532208
 20
37.404777
 30
0.0
 10
53.616878
 20
36.981437
 30
0.0
 10
53.616878
 20
36.981437
 30
0.0
 10
53.828545
 20
36.600437
 30
0.0
 10
53.913215
 20
36.515737
 30
0.0
 10
54.294215
 20
36.304067
 30
0.0
 10
54.294215
 20
36.304067
 30
0.0
 10
54.717549
 20
36.219367
 30
0.0
 10
54.759879
 20
36.219367
 30
0.0
 10
55.183212
 20
36.304067
 30
0.0
 10
55.225542
 20
36.304067
 30
0.0
 10
55.606542
 20
36.515737
 30
0.0
 10
55.648872
 20
36.600437
 30
0.0
 10
55.860539
 20
36.981437
 30
0.0
 10
55.902869
 20
36.981437
 30
0.0
 10
55.987539
 20
37.404777
 30
0.0
 10
55.733539
 20
37.447077
 30
0.0
 10
55.648869
 20
37.023747
 30
0.0
 10
55.775869
 20
37.023747
 30
0.0
 10
55.648869
 20
37.066047
 30
0.0
 10
55.437202
 20
36.685047
 30
0.0
 10
55.564202
 20
36.642747
 30
0.0
 10
55.521872
 20
36.727447
 30
0.0
 10
55.140872
 20
36.515787
 30
0.0
 10
55.183202
 20
36.431087
 30
0.0
 10
55.140872
 20
36.558087
 30
0.0
 10
54.717539
 20
36.473387
 30
0.0
 10
54.759869
 20
36.346387
 30
0.0
 10
54.759869
 20
36.473387
 30
0.0
 10
54.336536
 20
36.558087
 30
0.0
 10
54.336536
 20
36.431087
 30
0.0
 10
54.378866
 20
36.515787
 30
0.0
 10
53.997866
 20
36.727447
 30
0.0
 10
53.955536
 20
36.642747
 30
0.0
 10
54.040206
 20
36.685047
 30
0.0
 10
53.828540
 20
37.066047
 30
0.0
 10
53.743870
 20
37.023747
 30
0.0
 10
53.870870
 20
37.023747
 30
0.0
 10
53.786200
 20
37.447077
 30
0.0
 10
53.659200
 20
37.447077
 30
0.0
 10
53.786200
 20
37.404777
 30
0.0
 10
53.870870
 20
37.828107
 30
0.0
 10
53.743870
 20
37.870407
 30
0.0
 10
53.828540
 20
37.828107
 30
0.0
 10
54.040206
 20
38.209107
 30
0.0
 10
53.955536
 20
38.251407
 30
0.0
 10
53.997866
 20
38.124407
 30
0.0
 10
54.378866
 20
38.378407
 30
0.0
 10
54.336536
 20
38.505407
 30
0.0
 10
54.336536
 20
38.378407
 30
0.0
 10
54.759869
 20
38.463107
 30
0.0
 10
54.759869
 20
38.590107
 30
0.0
 10
54.717539
 20
38.463107
 30
0.0
 10
55.140872
 20
38.378407
 30
0.0
 10
55.183202
 20
38.505407
 30
0.0
 10
55.098532
 20
38.378407
 30
0.0
 10
55.479532
 20
38.124407
 30
0.0
 10
55.564202
 20
38.251407
 30
0.0
 10
55.437202
 20
38.209107
 30
0.0
 10
55.648869
 20
37.828107
 30
0.0
 10
55.775869
 20
37.870407
 30
0.0
 10
55.648869
 20
37.828107
 30
0.0
  0
LWPOLYLINE
  5
129
100
AcDbEntity
  8
Layer_1
 62
7
100
AcDbPolyline
 90
4
 70
1
 10
71.904864
 20
65.006017
 30
0.0
 10
155.894206
 20
65.006017
 30
0.0
 10
155.894206
 20
64.752137
 30
0.0
 10
71.904864
 20
64.752137
 30
0.0
  0
ENDSEC
  0
SECTION
  2
OBJECTS
  0
DICTIONARY
  5
C
330
0
100
AcDbDictionary
  3
ACAD_GROUP
350
D
  3
ACAD_MLINESTYLE
350
17
  0
DICTIONARY
  5
D
330
C
100
AcDbDictionary
  0
DICTIONARY
  5
1A
330
C
100
AcDbDictionary
  0
DICTIONARY
  5
17
330
C
100
AcDbDictionary
  3
STANDARD
350
18
  0
DICTIONARY
  5
19
330
C
100
AcDbDictionary
  0
ENDSEC
  0
EOF
