  0
SECTION
  2
HEADER
  9
$ACADVER
  1
AC1024
  9
$ACADMAINTVER
 70
     6
  9
$DWGCODEPAGE
  3
ANSI_1252
  9
$INSBASE
 10
0.0
 20
0.0
 30
0.0
  9
$EXTMIN
 10
1.000000000000000E+20
 20
1.000000000000000E+20
 30
1.000000000000000E+20
  9
$EXTMAX
 10
-1.000000000000000E+20
 20
-1.000000000000000E+20
 30
-1.000000000000000E+20
  9
$LIMMIN
 10
0.0
 20
0.0
  9
$LIMMAX
 10
12.0
 20
9.0
  9
$ORTHOMODE
 70
     0
  9
$REGENMODE
 70
     1
  9
$FILLMODE
 70
     1
  9
$QTEXTMODE
 70
     0
  9
$MIRRTEXT
 70
     1
  9
$LTSCALE
 40
1.0
  9
$ATTMODE
 70
     1
  9
$TEXTSIZE
 40
0.2
  9
$TRACEWID
 40
0.05
  9
$TEXTSTYLE
  7
Standard
  9
$CLAYER
  8
0
  9
$CELTYPE
  6
ByLayer
  9
$CECOLOR
 62
   256
  9
$CELTSCALE
 40
1.0
  9
$DISPSILH
 70
     0
  9
$DIMSCALE
 40
1.0
  9
$DIMASZ
 40
0.18
  9
$DIMEXO
 40
0.0625
  9
$DIMDLI
 40
0.38
  9
$DIMRND
 40
0.0
  9
$DIMDLE
 40
0.0
  9
$DIMEXE
 40
0.18
  9
$DIMTP
 40
0.0
  9
$DIMTM
 40
0.0
  9
$DIMTXT
 40
0.18
  9
$DIMCEN
 40
0.09
  9
$DIMTSZ
 40
0.0
  9
$DIMTOL
 70
     0
  9
$DIMLIM
 70
     0
  9
$DIMTIH
 70
     1
  9
$DIMTOH
 70
     1
  9
$DIMSE1
 70
     0
  9
$DIMSE2
 70
     0
  9
$DIMTAD
 70
     0
  9
$DIMZIN
 70
     0
  9
$DIMBLK
  1

  9
$DIMASO
 70
     1
  9
$DIMSHO
 70
     1
  9
$DIMPOST
  1

  9
$DIMAPOST
  1

  9
$DIMALT
 70
     0
  9
$DIMALTD
 70
     2
  9
$DIMALTF
 40
25.4
  9
$DIMLFAC
 40
1.0
  9
$DIMTOFL
 70
     0
  9
$DIMTVP
 40
0.0
  9
$DIMTIX
 70
     0
  9
$DIMSOXD
 70
     0
  9
$DIMSAH
 70
     0
  9
$DIMBLK1
  1

  9
$DIMBLK2
  1

  9
$DIMSTYLE
  2
Standard
  9
$DIMCLRD
 70
     0
  9
$DIMCLRE
 70
     0
  9
$DIMCLRT
 70
     0
  9
$DIMTFAC
 40
1.0
  9
$DIMGAP
 40
0.09
  9
$DIMJUST
 70
     0
  9
$DIMSD1
 70
     0
  9
$DIMSD2
 70
     0
  9
$DIMTOLJ
 70
     1
  9
$DIMTZIN
 70
     0
  9
$DIMALTZ
 70
     0
  9
$DIMALTTZ
 70
     0
  9
$DIMUPT
 70
     0
  9
$DIMDEC
 70
     4
  9
$DIMTDEC
 70
     4
  9
$DIMALTU
 70
     2
  9
$DIMALTTD
 70
     2
  9
$DIMTXSTY
  7
Standard
  9
$DIMAUNIT
 70
     0
  9
$DIMADEC
 70
     0
  9
$DIMALTRND
 40
0.0
  9
$DIMAZIN
 70
     0
  9
$DIMDSEP
 70
    46
  9
$DIMATFIT
 70
     3
  9
$DIMFRAC
 70
     0
  9
$DIMLDRBLK
  1

  9
$DIMLUNIT
 70
     2
  9
$DIMLWD
 70
    -2
  9
$DIMLWE
 70
    -2
  9
$DIMTMOVE
 70
     0
  9
$DIMFXL
 40
1.0
  9
$DIMFXLON
 70
     0
  9
$DIMJOGANG
 40
0.7853981633974483
  9
$DIMTFILL
 70
     0
  9
$DIMTFILLCLR
 70
     0
  9
$DIMARCSYM
 70
     0
  9
$DIMLTYPE
  6

  9
$DIMLTEX1
  6

  9
$DIMLTEX2
  6

  9
$DIMTXTDIRECTION
 70
     0
  9
$LUNITS
 70
     2
  9
$LUPREC
 70
     4
  9
$SKETCHINC
 40
0.1
  9
$FILLETRAD
 40
0.5
  9
$AUNITS
 70
     0
  9
$AUPREC
 70
     0
  9
$MENU
  1
.
  9
$ELEVATION
 40
0.0
  9
$PELEVATION
 40
0.0
  9
$THICKNESS
 40
0.0
  9
$LIMCHECK
 70
     0
  9
$CHAMFERA
 40
0.5
  9
$CHAMFERB
 40
0.5
  9
$CHAMFERC
 40
1.0
  9
$CHAMFERD
 40
0.0
  9
$SKPOLY
 70
     0
  9
$TDCREATE
 40
2459106.69571581
  9
$TDUCREATE
 40
2459106.862382477
  9
$TDUPDATE
 40
2459106.695718032
  9
$TDUUPDATE
 40
2459106.862384699
  9
$TDINDWG
 40
0.0000000116
  9
$TDUSRTIMER
 40
0.0000000116
  9
$USRTIMER
 70
     1
  9
$ANGBASE
 50
0.0
  9
$ANGDIR
 70
     0
  9
$PDMODE
 70
     0
  9
$PDSIZE
 40
0.0
  9
$PLINEWID
 40
0.0
  9
$SPLFRAME
 70
     0
  9
$SPLINETYPE
 70
     6
  9
$SPLINESEGS
 70
     8
  9
$HANDSEED
  5
A4
  9
$SURFTAB1
 70
     6
  9
$SURFTAB2
 70
     6
  9
$SURFTYPE
 70
     6
  9
$SURFU
 70
     6
  9
$SURFV
 70
     6
  9
$UCSBASE
  2

  9
$UCSNAME
  2

  9
$UCSORG
 10
0.0
 20
0.0
 30
0.0
  9
$UCSXDIR
 10
1.0
 20
0.0
 30
0.0
  9
$UCSYDIR
 10
0.0
 20
1.0
 30
0.0
  9
$UCSORTHOREF
  2

  9
$UCSORTHOVIEW
 70
     0
  9
$UCSORGTOP
 10
0.0
 20
0.0
 30
0.0
  9
$UCSORGBOTTOM
 10
0.0
 20
0.0
 30
0.0
  9
$UCSORGLEFT
 10
0.0
 20
0.0
 30
0.0
  9
$UCSORGRIGHT
 10
0.0
 20
0.0
 30
0.0
  9
$UCSORGFRONT
 10
0.0
 20
0.0
 30
0.0
  9
$UCSORGBACK
 10
0.0
 20
0.0
 30
0.0
  9
$PUCSBASE
  2

  9
$PUCSNAME
  2

  9
$PUCSORG
 10
0.0
 20
0.0
 30
0.0
  9
$PUCSXDIR
 10
1.0
 20
0.0
 30
0.0
  9
$PUCSYDIR
 10
0.0
 20
1.0
 30
0.0
  9
$PUCSORTHOREF
  2

  9
$PUCSORTHOVIEW
 70
     0
  9
$PUCSORGTOP
 10
0.0
 20
0.0
 30
0.0
  9
$PUCSORGBOTTOM
 10
0.0
 20
0.0
 30
0.0
  9
$PUCSORGLEFT
 10
0.0
 20
0.0
 30
0.0
  9
$PUCSORGRIGHT
 10
0.0
 20
0.0
 30
0.0
  9
$PUCSORGFRONT
 10
0.0
 20
0.0
 30
0.0
  9
$PUCSORGBACK
 10
0.0
 20
0.0
 30
0.0
  9
$USERI1
 70
     0
  9
$USERI2
 70
     0
  9
$USERI3
 70
     0
  9
$USERI4
 70
     0
  9
$USERI5
 70
     0
  9
$USERR1
 40
0.0
  9
$USERR2
 40
0.0
  9
$USERR3
 40
0.0
  9
$USERR4
 40
0.0
  9
$USERR5
 40
0.0
  9
$WORLDVIEW
 70
     1
  9
$SHADEDGE
 70
     3
  9
$SHADEDIF
 70
    70
  9
$TILEMODE
 70
     1
  9
$MAXACTVP
 70
    64
  9
$PINSBASE
 10
0.0
 20
0.0
 30
0.0
  9
$PLIMCHECK
 70
     0
  9
$PEXTMIN
 10
1.000000000000000E+20
 20
1.000000000000000E+20
 30
1.000000000000000E+20
  9
$PEXTMAX
 10
-1.000000000000000E+20
 20
-1.000000000000000E+20
 30
-1.000000000000000E+20
  9
$PLIMMIN
 10
0.0
 20
0.0
  9
$PLIMMAX
 10
12.0
 20
9.0
  9
$UNITMODE
 70
     0
  9
$VISRETAIN
 70
     1
  9
$PLINEGEN
 70
     0
  9
$PSLTSCALE
 70
     1
  9
$TREEDEPTH
 70
  3020
  9
$CMLSTYLE
  2
Standard
  9
$CMLJUST
 70
     0
  9
$CMLSCALE
 40
1.0
  9
$PROXYGRAPHICS
 70
     1
  9
$MEASUREMENT
 70
     0
  9
$CELWEIGHT
370
    -1
  9
$ENDCAPS
280
     0
  9
$JOINSTYLE
280
     0
  9
$LWDISPLAY
290
     1
  9
$INSUNITS
 70
     1
  9
$HYPERLINKBASE
  1

  9
$STYLESHEET
  1

  9
$XEDIT
290
     1
  9
$CEPSNTYPE
380
     0
  9
$PSTYLEMODE
290
     1
  9
$FINGERPRINTGUID
  2
{E1550F76-7A12-4EAD-93E6-136B756FFD81}
  9
$VERSIONGUID
  2
{FAEB1C32-E019-11D5-929B-00C0DF256EC4}
  9
$EXTNAMES
290
     1
  9
$PSVPSCALE
 40
0.0
  9
$OLESTARTUP
290
     0
  9
$SORTENTS
280
   127
  9
$INDEXCTL
280
     0
  9
$HIDETEXT
280
     1
  9
$XCLIPFRAME
280
     2
  9
$HALOGAP
280
     0
  9
$OBSCOLOR
 70
   257
  9
$OBSLTYPE
280
     0
  9
$INTERSECTIONDISPLAY
280
     0
  9
$INTERSECTIONCOLOR
 70
   257
  9
$DIMASSOC
280
     2
  9
$PROJECTNAME
  1

  9
$CAMERADISPLAY
290
     0
  9
$LENSLENGTH
 40
50.0
  9
$CAMERAHEIGHT
 40
0.0
  9
$STEPSPERSEC
 40
2.0
  9
$STEPSIZE
 40
6.0
  9
$3DDWFPREC
 40
2.0
  9
$PSOLWIDTH
 40
0.25
  9
$PSOLHEIGHT
 40
4.0
  9
$LOFTANG1
 40
1.570796326794897
  9
$LOFTANG2
 40
1.570796326794897
  9
$LOFTMAG1
 40
0.0
  9
$LOFTMAG2
 40
0.0
  9
$LOFTPARAM
 70
     7
  9
$LOFTNORMALS
280
     1
  9
$LATITUDE
 40
37.795
  9
$LONGITUDE
 40
-122.394
  9
$NORTHDIRECTION
 40
0.0
  9
$TIMEZONE
 70
 -8000
  9
$LIGHTGLYPHDISPLAY
280
     1
  9
$TILEMODELIGHTSYNCH
280
     1
  9
$CMATERIAL
347
3C
  9
$SOLIDHIST
280
     1
  9
$SHOWHIST
280
     1
  9
$DWFFRAME
280
     2
  9
$DGNFRAME
280
     2
  9
$REALWORLDSCALE
290
     1
  9
$INTERFERECOLOR
 62
   256
  9
$CSHADOW
280
     0
  9
$SHADOWPLANELOCATION
 40
0.0
  0
ENDSEC
  0
SECTION
  2
CLASSES
  0
CLASS
  1
ACDBDICTIONARYWDFLT
  2
AcDbDictionaryWithDefault
  3
ObjectDBX Classes
 90
        0
 91
        4
280
     0
281
     0
  0
CLASS
  1
VISUALSTYLE
  2
AcDbVisualStyle
  3
ObjectDBX Classes
 90
     4095
 91
        4
280
     0
281
     0
  0
CLASS
  1
MATERIAL
  2
AcDbMaterial
  3
ObjectDBX Classes
 90
     1153
 91
        4
280
     0
281
     0
  0
CLASS
  1
SUN
  2
AcDbSun
  3
SCENEOE
 90
     1024
 91
        4
280
     0
281
     0
  0
ENDSEC
  0
SECTION
  2
TABLES
  0
TABLE
  2
VPORT
  5
8
330
0
100
AcDbSymbolTable
 70
     1
  0
VPORT
  5
29
330
8
100
AcDbSymbolTableRecord
100
AcDbViewportTableRecord
  2
*Active
 70
     0
 10
0.0
 20
0.0
 11
1.0
 21
1.0
 12
0.0
 22
0.0
 13
0.0
 23
0.0
 14
0.5
 24
0.5
 15
0.5
 25
0.5
 16
0.0
 26
0.0
 36
1.0
 17
36.00000000000001
 27
-12.0
 37
0.0
 40
24.0
 41
1.767295597484277
 42
50.0
 43
0.0
 44
0.0
 50
0.0
 51
0.0
 71
     0
 72
   100
 73
     1
 74
     3
 75
     0
 76
     0
 77
     0
 78
     0
281
     0
 65
     1
110
0.0
120
0.0
130
0.0
111
1.0
121
0.0
131
0.0
112
0.0
122
1.0
132
0.0
 79
     0
146
0.0
 60
     3
 61
     5
292
     1
282
     1
141
0.0
142
0.0
 63
   250
361
3F
  0
ENDTAB
  0
TABLE
  2
LTYPE
  5
5
330
0
100
AcDbSymbolTable
 70
     1
  0
LTYPE
  5
14
330
5
100
AcDbSymbolTableRecord
100
AcDbLinetypeTableRecord
  2
ByBlock
 70
     0
  3

 72
    65
 73
     0
 40
0.0
  0
LTYPE
  5
15
330
5
100
AcDbSymbolTableRecord
100
AcDbLinetypeTableRecord
  2
ByLayer
 70
     0
  3

 72
    65
 73
     0
 40
0.0
  0
LTYPE
  5
16
330
5
100
AcDbSymbolTableRecord
100
AcDbLinetypeTableRecord
  2
Continuous
 70
     0
  3
Solid line
 72
    65
 73
     0
 40
0.0
  0
ENDTAB
  0
TABLE
  2
LAYER
  5
2
330
0
100
AcDbSymbolTable
 70
     2
  0
LAYER
  5
10
330
2
100
AcDbSymbolTableRecord
100
AcDbLayerTableRecord
  2
0
 70
     0
 62
     7
  6
Continuous
370
    -3
390
F
347
3E
  0
LAYER
  5
40
330
2
100
AcDbSymbolTableRecord
100
AcDbLayerTableRecord
  2
Layer 1
 70
     0
 62
     7
  6
Continuous
370
    -3
390
F
347
3E
  0
ENDTAB
  0
TABLE
  2
STYLE
  5
3
330
0
100
AcDbSymbolTable
 70
     1
  0
STYLE
  5
11
330
3
100
AcDbSymbolTableRecord
100
AcDbTextStyleTableRecord
  2
Standard
 70
     0
 40
0.0
 41
1.0
 50
0.0
 71
     0
 42
0.2
  3
txt
  4

  0
ENDTAB
  0
TABLE
  2
VIEW
  5
6
330
0
100
AcDbSymbolTable
 70
     0
  0
ENDTAB
  0
TABLE
  2
UCS
  5
7
330
0
100
AcDbSymbolTable
 70
     0
  0
ENDTAB
  0
TABLE
  2
APPID
  5
9
330
0
100
AcDbSymbolTable
 70
     1
  0
APPID
  5
12
330
9
100
AcDbSymbolTableRecord
100
AcDbRegAppTableRecord
  2
ACAD
 70
     0
  0
ENDTAB
  0
TABLE
  2
DIMSTYLE
  5
A
330
0
100
AcDbSymbolTable
 70
     1
100
AcDbDimStyleTable
  0
DIMSTYLE
105
27
330
A
100
AcDbSymbolTableRecord
100
AcDbDimStyleTableRecord
  2
Standard
 70
     0
178
     0
340
11
  0
ENDTAB
  0
TABLE
  2
BLOCK_RECORD
  5
1
330
0
100
AcDbSymbolTable
 70
     2
  0
BLOCK_RECORD
  5
1F
330
1
100
AcDbSymbolTableRecord
100
AcDbBlockTableRecord
  2
*Model_Space
340
22
 70
     0
280
     1
281
     0
  0
BLOCK_RECORD
  5
1B
330
1
100
AcDbSymbolTableRecord
100
AcDbBlockTableRecord
  2
*Paper_Space
340
1E
 70
     0
280
     1
281
     0
  0
BLOCK_RECORD
  5
23
330
1
100
AcDbSymbolTableRecord
100
AcDbBlockTableRecord
  2
*Paper_Space0
340
26
 70
     0
280
     1
281
     0
  0
BLOCK_RECORD
  5
41
330
1
100
AcDbSymbolTableRecord
100
AcDbBlockTableRecord
  2
block 2
340
0
102
{BLKREFS
331
42
102
}
 70
     0
280
     1
281
     0
  0
ENDTAB
  0
ENDSEC
  0
SECTION
  2
BLOCKS
  0
BLOCK
  5
20
330
1F
100
AcDbEntity
  8
0
100
AcDbBlockBegin
  2
*Model_Space
 70
     0
 10
0.0
 20
0.0
 30
0.0
  3
*Model_Space
  1

  0
ENDBLK
  5
21
330
1F
100
AcDbEntity
  8
0
100
AcDbBlockEnd
  0
BLOCK
  5
1C
330
1B
100
AcDbEntity
 67
     1
  8
0
100
AcDbBlockBegin
  2
*Paper_Space
 70
     0
 10
0.0
 20
0.0
 30
0.0
  3
*Paper_Space
  1

  0
ENDBLK
  5
1D
330
1B
100
AcDbEntity
 67
     1
  8
0
100
AcDbBlockEnd
  0
BLOCK
  5
24
330
23
100
AcDbEntity
  8
0
100
AcDbBlockBegin
  2
*Paper_Space0
 70
     0
 10
0.0
 20
0.0
 30
0.0
  3
*Paper_Space0
  1

  0
ENDBLK
  5
25
330
23
100
AcDbEntity
  8
0
100
AcDbBlockEnd
  0
BLOCK
  5
43
330
41
100
AcDbEntity
  8
0
100
AcDbBlockBegin
  2
block 2
 70
     0
 10
0.0
 20
0.0
 30
0.0
  3
block 2
  1

  0
SPLINE
  5
45
330
41
100
AcDbEntity
  8
Layer 1
 62
   250
420
  2301728
370
    35
100
AcDbSpline
210
0.0
220
0.0
230
1.0
 70
    11
 71
     3
 72
   263
 73
   259
 74
     0
 42
0.0000000001
 43
0.0000000001
 12
1.0
 22
0.0
 32
0.0
 13
1.0
 23
0.0
 33
0.0
 40
0.0
 40
0.0
 40
0.0
 40
0.0
 40
1.0
 40
1.0
 40
1.0
 40
2.0
 40
2.0
 40
2.0
 40
3.0
 40
3.0
 40
3.0
 40
4.0
 40
4.0
 40
4.0
 40
5.0
 40
5.0
 40
5.0
 40
6.0
 40
6.0
 40
6.0
 40
7.0
 40
7.0
 40
7.0
 40
8.0
 40
8.0
 40
8.0
 40
9.0
 40
9.0
 40
9.0
 40
10.0
 40
10.0
 40
10.0
 40
11.0
 40
11.0
 40
11.0
 40
12.0
 40
12.0
 40
12.0
 40
13.0
 40
13.0
 40
13.0
 40
14.0
 40
14.0
 40
14.0
 40
15.0
 40
15.0
 40
15.0
 40
16.0
 40
16.0
 40
16.0
 40
17.0
 40
17.0
 40
17.0
 40
18.0
 40
18.0
 40
18.0
 40
19.0
 40
19.0
 40
19.0
 40
20.0
 40
20.0
 40
20.0
 40
21.0
 40
21.0
 40
21.0
 40
22.0
 40
22.0
 40
22.0
 40
23.0
 40
23.0
 40
23.0
 40
24.0
 40
24.0
 40
24.0
 40
25.0
 40
25.0
 40
25.0
 40
26.0
 40
26.0
 40
26.0
 40
27.0
 40
27.0
 40
27.0
 40
28.0
 40
28.0
 40
28.0
 40
29.0
 40
29.0
 40
29.0
 40
30.0
 40
30.0
 40
30.0
 40
31.0
 40
31.0
 40
31.0
 40
32.0
 40
32.0
 40
32.0
 40
33.0
 40
33.0
 40
33.0
 40
34.0
 40
34.0
 40
34.0
 40
35.0
 40
35.0
 40
35.0
 40
36.0
 40
36.0
 40
36.0
 40
37.0
 40
37.0
 40
37.0
 40
38.0
 40
38.0
 40
38.0
 40
39.0
 40
39.0
 40
39.0
 40
40.0
 40
40.0
 40
40.0
 40
41.0
 40
41.0
 40
41.0
 40
42.0
 40
42.0
 40
42.0
 40
43.0
 40
43.0
 40
43.0
 40
44.0
 40
44.0
 40
44.0
 40
45.0
 40
45.0
 40
45.0
 40
46.0
 40
46.0
 40
46.0
 40
47.0
 40
47.0
 40
47.0
 40
48.0
 40
48.0
 40
48.0
 40
49.0
 40
49.0
 40
49.0
 40
50.0
 40
50.0
 40
50.0
 40
51.0
 40
51.0
 40
51.0
 40
52.0
 40
52.0
 40
52.0
 40
53.0
 40
53.0
 40
53.0
 40
54.0
 40
54.0
 40
54.0
 40
55.0
 40
55.0
 40
55.0
 40
56.0
 40
56.0
 40
56.0
 40
57.0
 40
57.0
 40
57.0
 40
58.0
 40
58.0
 40
58.0
 40
59.0
 40
59.0
 40
59.0
 40
60.0
 40
60.0
 40
60.0
 40
61.0
 40
61.0
 40
61.0
 40
62.0
 40
62.0
 40
62.0
 40
63.0
 40
63.0
 40
63.0
 40
64.0
 40
64.0
 40
64.0
 40
65.0
 40
65.0
 40
65.0
 40
66.0
 40
66.0
 40
66.0
 40
67.0
 40
67.0
 40
67.0
 40
68.0
 40
68.0
 40
68.0
 40
69.0
 40
69.0
 40
69.0
 40
70.0
 40
70.0
 40
70.0
 40
71.0
 40
71.0
 40
71.0
 40
72.0
 40
72.0
 40
72.0
 40
73.0
 40
73.0
 40
73.0
 40
74.0
 40
74.0
 40
74.0
 40
75.0
 40
75.0
 40
75.0
 40
76.0
 40
76.0
 40
76.0
 40
77.0
 40
77.0
 40
77.0
 40
78.0
 40
78.0
 40
78.0
 40
79.0
 40
79.0
 40
79.0
 40
80.0
 40
80.0
 40
80.0
 40
81.0
 40
81.0
 40
81.0
 40
82.0
 40
82.0
 40
82.0
 40
83.0
 40
83.0
 40
83.0
 40
84.0
 40
84.0
 40
84.0
 40
85.0
 40
85.0
 40
85.0
 40
86.0
 40
86.0
 40
86.0
 40
86.0
 10
53.18573637625261
 20
-18.18200338111733
 30
0.0
 10
53.17115575559288
 20
-18.02134528649928
 30
0.0
 10
53.14161473996788
 20
-17.86447137156872
 30
0.0
 10
53.09796782156511
 20
-17.71318556427705
 30
0.0
 10
53.14333728771094
 20
-17.60413608511039
 30
0.0
 10
53.18105701427344
 20
-17.49127529952011
 30
0.0
 10
53.21099136757205
 20
-17.37484734813122
 30
0.0
 10
53.28185996566233
 20
-17.0992803993465
 30
0.0
 10
53.31395089448177
 20
-16.81531772573539
 30
0.0
 10
53.30635540837066
 20
-16.53083964413817
 30
0.0
 10
53.30635540837066
 20
-16.530798954034
 30
0.0
 10
53.30635540837066
 20
-16.53077182729789
 30
0.0
 10
53.30635540837066
 20
-16.53073113719372
 30
0.0
 10
53.30632828163455
 20
-16.53016147573539
 30
0.0
 10
53.30631471826649
 20
-16.52960537764511
 30
0.0
 10
53.30630115489844
 20
-16.52903571618678
 30
0.0
 10
53.30586712712066
 20
-16.51308519535344
 30
0.0
 10
53.30520252208594
 20
-16.49716180125622
 30
0.0
 10
53.30432090316233
 20
-16.481238407159
 30
0.0
 10
53.30428021305816
 20
-16.48068230906872
 30
0.0
 10
53.30425308632205
 20
-16.48011264761039
 30
0.0
 10
53.30422595958594
 20
-16.47957011288817
 30
0.0
 10
53.30421239621788
 20
-16.47944804257567
 30
0.0
 10
53.30421239621788
 20
-16.47933953563122
 30
0.0
 10
53.30419883284983
 20
-16.47921746531872
 30
0.0
 10
53.28839750906511
 20
-16.20025967452011
 30
0.0
 10
53.23783327295399
 20
-15.93307488719372
 30
0.0
 10
53.15390315142622
 20
-15.68502801219372
 30
0.0
 10
53.15372682764149
 20
-15.68449904083955
 30
0.0
 10
53.15355050385677
 20
-15.68398363285344
 30
0.0
 10
53.15337418007205
 20
-15.68345466149928
 30
0.0
 10
53.14946114838802
 20
-15.67192918949407
 30
0.0
 10
53.14514799734636
 20
-15.66056308706351
 30
0.0
 10
53.14105186019358
 20
-15.64911221358261
 30
0.0
 10
53.18340686778907
 20
-15.60981913632567
 30
0.0
 10
53.22419869721615
 20
-15.56804396271455
 30
0.0
 10
53.26308826427344
 20
-15.52361036896455
 30
0.0
 10
53.53987591618316
 20
-15.20739400611733
 30
0.0
 10
53.67569948389149
 20
-14.8160772743465
 30
0.0
 10
53.67567235715538
 20
-14.42645596358261
 30
0.0
 10
53.67563166705122
 20
-13.96265659292289
 30
0.0
 10
53.48309965750261
 20
-13.501257938409
 30
0.0
 10
53.10668906722483
 20
-13.1717901649715
 30
0.0
 10
53.10668906722483
 20
-13.1717901649715
 30
0.0
 10
51.47516508719011
 20
-11.74373026913817
 30
0.0
 10
51.47516508719011
 20
-11.74373026913817
 30
0.0
 10
51.47516508719011
 20
-11.74373026913817
 30
0.0
 10
52.77731623736372
 20
-10.58701911462428
 30
0.0
 10
52.77731623736372
 20
-10.58701911462428
 30
0.0
 10
53.14794883284983
 20
-10.25778191844372
 30
0.0
 10
53.33704931028038
 20
-9.800303077297889
 30
0.0
 10
53.33713069048872
 20
-9.340708350735389
 30
0.0
 10
53.33721207069705
 20
-8.946950212714556
 30
0.0
 10
53.19856732243316
 20
-8.551645850735389
 30
0.0
 10
52.91648995698177
 20
-8.234113841186778
 30
0.0
 10
52.77016156071441
 20
-8.06938504073105
 30
0.0
 10
52.59845610281511
 20
-7.940619510674625
 30
0.0
 10
52.41252945350955
 20
-7.848269928426362
 30
0.0
 10
52.41252945350955
 20
-7.848269928426362
 30
0.0
 10
52.41252945350955
 20
-6.220441966186778
 30
0.0
 10
52.41252945350955
 20
-6.220441966186778
 30
0.0
 10
53.11490846826649
 20
-6.024424171047889
 30
0.0
 10
53.63023507416927
 20
-5.379852230943722
 30
0.0
 10
53.63023507416927
 20
-4.614946089450667
 30
0.0
 10
53.63023507416927
 20
-3.694468116360389
 30
0.0
 10
52.88404638059288
 20
-2.948279422784001
 30
0.0
 10
51.96356840750261
 20
-2.948279422784001
 30
0.0
 10
51.96356840750261
 20
-2.948279422784001
 30
0.0
 10
49.53747520003733
 20
-2.948279422784001
 30
0.0
 10
49.53747520003733
 20
-2.948279422784001
 30
0.0
 10
48.93152495047136
 20
-2.948279422784001
 30
0.0
 10
48.40114639686892
 20
-3.271679284437646
 30
0.0
 10
48.10940852251997
 20
-3.75526421824841
 30
0.0
 10
48.0079748745165
 20
-3.649217329685042
 30
0.0
 10
47.89625341184288
 20
-3.551594988105181
 30
0.0
 10
47.77444080333594
 20
-3.463022803860389
 30
0.0
 10
47.50946684500261
 20
-3.270300907159001
 30
0.0
 10
47.20514555594011
 20
-3.125837473999278
 30
0.0
 10
46.868936788579
 20
-3.033362430596501
 30
0.0
 10
46.584268819829
 20
-2.955237430596501
 30
0.0
 10
46.27968982677344
 20
-2.915632395874278
 30
0.0
 10
45.96367691444705
 20
-2.915632395874278
 30
0.0
 10
45.61508479205122
 20
-2.915632395874278
 30
0.0
 10
45.28599679291927
 20
-2.967010434068723
 30
0.0
 10
44.98495783892622
 20
-3.068518680596501
 30
0.0
 10
44.65801285194705
 20
-3.178910933200667
 30
0.0
 10
44.36631905854427
 20
-3.340925364624278
 30
0.0
 10
44.1180822963915
 20
-3.549963993096501
 30
0.0
 10
44.04729507850955
 20
-3.609559736911605
 30
0.0
 10
43.9805599168342
 20
-3.672358131008827
 30
0.0
 10
43.91791411062761
 20
-3.738172679077403
 30
0.0
 10
43.624063741704
 20
-3.264093970852577
 30
0.0
 10
43.0991376620599
 20
-2.948279422784001
 30
0.0
 10
42.50036582503733
 20
-2.948279422784001
 30
0.0
 10
42.50036582503733
 20
-2.948279422784001
 30
0.0
 10
40.31370675385677
 20
-2.948279422784001
 30
0.0
 10
40.31370675385677
 20
-2.948279422784001
 30
0.0
 10
39.77750273367448
 20
-2.948279422784001
 30
0.0
 10
39.30051637842275
 20
-3.201549889906396
 30
0.0
 10
38.99564916379601
 20
-3.594919776516639
 30
0.0
 10
38.77894045068837
 20
-3.314500532810042
 30
0.0
 10
38.47163182981163
 20
-3.100589264363862
 30
0.0
 10
38.10244373302344
 20
-3.003306006985389
 30
0.0
 10
37.60004301687761
 20
-2.870886844659001
 30
0.0
 10
37.09079279986372
 20
-2.982526927124278
 30
0.0
 10
36.70024918007205
 20
-3.264956940145112
 30
0.0
 10
36.42262059934288
 20
-3.063947825561778
 30
0.0
 10
36.08299386323177
 20
-2.948279422784001
 30
0.0
 10
35.72285931462066
 20
-2.948279422784001
 30
0.0
 10
35.36272476600955
 20
-2.948279422784001
 30
0.0
 10
35.02312515663455
 20
-3.063934262193723
 30
0.0
 10
34.74548979422136
 20
-3.264943376777056
 30
0.0
 10
34.3549733011658
 20
-2.982554053860389
 30
0.0
 10
33.84566204899566
 20
-2.870900408027056
 30
0.0
 10
33.34327489621788
 20
-3.003306006985389
 30
0.0
 10
32.95081205984636
 20
-3.106726688409001
 30
0.0
 10
32.6282649949592
 20
-3.341925663018376
 30
0.0
 10
32.41018299083594
 20
-3.648742611803097
 30
0.0
 10
32.40461861909115
 20
-3.643744510674626
 30
0.0
 10
32.39915258176476
 20
-3.638661638495806
 30
0.0
 10
32.39354073823178
 20
-3.633704227471501
 30
0.0
 10
32.14260486583594
 20
-3.412200863756222
 30
0.0
 10
31.84730321653038
 20
-3.239227230943722
 30
0.0
 10
31.5148854105408
 20
-3.119245677124278
 30
0.0
 10
31.19997791271094
 20
-3.005801666707612
 30
0.0
 10
30.84981243962066
 20
-2.948279422784001
 30
0.0
 10
30.4741139261658
 20
-2.948279422784001
 30
0.0
 10
30.4741139261658
 20
-2.948279422784001
 30
0.0
 10
29.26106732243316
 20
-2.948279422784001
 30
0.0
 10
29.26106732243316
 20
-2.948279422784001
 30
0.0
 10
28.617471944829
 20
-2.948279422784001
 30
0.0
 10
28.05915624387413
 20
-3.313127241794417
 30
0.0
 10
27.78145984630469
 20
-3.847235721612126
 30
0.0
 10
27.5005523213481
 20
-3.323309940362126
 30
0.0
 10
26.94777216998091
 20
-2.966942617228445
 30
0.0
 10
26.31169937538455
 20
-2.966942617228445
 30
0.0
 10
25.61930808577952
 20
-2.966942617228445
 30
0.0
 10
25.02558012625261
 20
-3.389183828165945
 30
0.0
 10
24.77383045177344
 20
-3.990197011759695
 30
0.0
 10
24.56973736637848
 20
-3.485897424086084
 30
0.0
 10
24.12476903684288
 20
-3.098164812323931
 30
0.0
 10
23.56559884370052
 20
-2.982703250909001
 30
0.0
 10
22.85183338146094
 20
-2.835350820353445
 30
0.0
 10
22.1331715433533
 20
-3.168928294311778
 30
0.0
 10
21.77992040403038
 20
-3.790659522610389
 30
0.0
 10
21.42688627859636
 20
-3.169267378513167
 30
0.0
 10
20.70871950342275
 20
-2.835608524346501
 30
0.0
 10
19.99519818180816
 20
-2.982513363756223
 30
0.0
 10
19.22050607026302
 20
-3.141991445353445
 30
0.0
 10
18.66459786713802
 20
-3.824011844659001
 30
0.0
 10
18.66459786713802
 20
-4.614946089450667
 30
0.0
 10
18.66459786713802
 20
-4.614946089450667
 30
0.0
 10
18.66459786713802
 20
-7.978824127645112
 30
0.0
 10
18.66459786713802
 20
-7.978824127645112
 30
0.0
 10
18.66459786713802
 20
-8.155510732462819
 30
0.0
 10
18.69218575776302
 20
-8.325734392402056
 30
0.0
 10
18.74312976817969
 20
-8.485531213148583
 30
0.0
 10
18.59326133284983
 20
-8.735619375040944
 30
0.0
 10
18.50703222043663
 20
-9.028211741577403
 30
0.0
 10
18.50703222043663
 20
-9.3409796180965
 30
0.0
 10
18.50703222043663
 20
-9.3409796180965
 30
0.0
 10
18.50703222043663
 20
-14.42589986549233
 30
0.0
 10
18.50703222043663
 20
-14.42589986549233
 30
0.0
 10
18.50703222043663
 20
-14.81521260963296
 30
0.0
 10
18.64053645220747
 20
-15.1733279118248
 30
0.0
 10
18.86423029986372
 20
-15.45701762265379
 30
0.0
 10
18.50186627262848
 20
-16.04228373593504
 30
0.0
 10
18.31856243962066
 20
-16.78039205299233
 30
0.0
 10
18.31856243962066
 20
-17.65951531688122
 30
0.0
 10
18.31856243962066
 20
-18.78244012156872
 30
0.0
 10
18.61561376340538
 20
-19.67432651479789
 30
0.0
 10
19.20134103120052
 20
-20.31025858945067
 30
0.0
 10
19.62890586409983
 20
-20.77455980472844
 30
0.0
 10
20.40562569916927
 20
-21.3280401649715
 30
0.0
 10
21.6778492777283
 20
-21.3280401649715
 30
0.0
 10
21.711954366704
 20
-21.3280401649715
 30
0.0
 10
21.74582209673872
 20
-21.32764682729789
 30
0.0
 10
21.77952706635677
 20
-21.32687371531872
 30
0.0
 10
22.56636517399566
 20
-21.3087530555965
 30
0.0
 10
23.24420805594011
 20
-21.07927443146455
 30
0.0
 10
23.79553862234636
 20
-20.64405307729789
 30
0.0
 10
23.79559965750261
 20
-20.64401238719372
 30
0.0
 10
23.79566747434288
 20
-20.6439581337215
 30
0.0
 10
23.79572850949913
 20
-20.64390388024928
 30
0.0
 10
24.09987686561893
 20
-20.40374410377358
 30
0.0
 10
24.34902237343143
 20
-20.10927660160344
 30
0.0
 10
24.54199010617882
 20
-19.7631733572458
 30
0.0
 10
24.61557985498525
 20
-20.61564121206351
 30
0.0
 10
25.3307525166606
 20
-21.28463738719372
 30
0.0
 10
26.20229046696441
 20
-21.28463738719372
 30
0.0
 10
26.20229046696441
 20
-21.28463738719372
 30
0.0
 10
28.73038020220747
 20
-21.28463738719372
 30
0.0
 10
28.73038020220747
 20
-21.28463738719372
 30
0.0
 10
29.34685223454254
 20
-21.28463738719372
 30
0.0
 10
29.88510432330122
 20
-20.94990702695067
 30
0.0
 10
30.17342761974219
 20
-20.45231113393851
 30
0.0
 10
30.46175091618316
 20
-20.94990702695067
 30
0.0
 10
31.00000300494185
 20
-21.28463738719372
 30
0.0
 10
31.61647503727691
 20
-21.28463738719372
 30
0.0
 10
32.19924549083594
 20
-21.28463738719372
 30
0.0
 10
32.71216459890886
 20
-20.98552443146455
 30
0.0
 10
33.01007719656511
 20
-20.53245368493678
 30
0.0
 10
33.01007719656511
 20
-20.53245368493678
 30
0.0
 10
33.04785795828386
 20
-20.58545932729789
 30
0.0
 10
33.04785795828386
 20
-20.58545932729789
 30
0.0
 10
33.36659710758941
 20
-21.03256219188122
 30
0.0
 10
33.87649836626997
 20
-21.28477302087428
 30
0.0
 10
34.40517132633941
 20
-21.28475945750622
 30
0.0
 10
34.57434721609636
 20
-21.28474589413817
 30
0.0
 10
34.74551013927344
 20
-21.25890767799233
 30
0.0
 10
34.91286853771094
 20
-21.205359500909
 30
0.0
 10
35.35963231809288
 20
-21.06241177412949
 30
0.0
 10
35.71322932330122
 20
-20.7430792274715
 30
0.0
 10
35.90728721175608
 20
-20.33916212677705
 30
0.0
 10
35.90728721175608
 20
-20.33916212677705
 30
0.0
 10
37.55666397499392
 20
-20.33916212677705
 30
0.0
 10
37.55666397499392
 20
-20.33916212677705
 30
0.0
 10
37.8255543558533
 20
-20.89851542538817
 30
0.0
 10
38.39748767833594
 20
-21.28463738719372
 30
0.0
 10
39.05962418007205
 20
-21.28463738719372
 30
0.0
 10
39.72176068180816
 20
-21.28463738719372
 30
0.0
 10
40.2936940042908
 20
-20.89851542538817
 30
0.0
 10
40.56258438515017
 20
-20.33916212677705
 30
0.0
 10
40.56258438515017
 20
-20.33916212677705
 30
0.0
 10
42.0593902119731
 20
-20.33916212677705
 30
0.0
 10
42.0593902119731
 20
-20.33916212677705
 30
0.0
 10
42.32828059283247
 20
-20.89851542538817
 30
0.0
 10
42.90021391531511
 20
-21.28463738719372
 30
0.0
 10
43.56235041705122
 20
-21.28463738719372
 30
0.0
 10
43.56235041705122
 20
-21.28463738719372
 30
0.0
 10
46.09042658892622
 20
-21.28463738719372
 30
0.0
 10
46.09042658892622
 20
-21.28463738719372
 30
0.0
 10
46.70691218462935
 20
-21.28463738719372
 30
0.0
 10
47.24517105507205
 20
-20.94990024526664
 30
0.0
 10
47.533487569829
 20
-20.45229078888643
 30
0.0
 10
47.82180408458594
 20
-20.94990024526664
 30
0.0
 10
48.36006295502865
 20
-21.28463738719372
 30
0.0
 10
48.97654855073177
 20
-21.28463738719372
 30
0.0
 10
49.55151328597483
 20
-21.28463738719372
 30
0.0
 10
50.05849842052344
 20
-20.993445438409
 30
0.0
 10
50.35808609413455
 20
-20.55054721792289
 30
0.0
 10
50.47384944048872
 20
-20.705847782159
 30
0.0
 10
50.61348431462066
 20
-20.84432977000622
 30
0.0
 10
50.77434585975955
 20
-20.96223612851317
 30
0.0
 10
51.07132936670399
 20
-21.17990105906872
 30
0.0
 10
51.41625937972483
 20
-21.28474589413817
 30
0.0
 10
51.75825970524566
 20
-21.28474589413817
 30
0.0
 10
52.27121272173872
 20
-21.28474589413817
 30
0.0
 10
52.77739761757205
 20
-21.04866190976317
 30
0.0
 10
53.10386788666927
 20
-20.60322733945067
 30
0.0
 10
53.32146500038455
 20
-20.30633877608261
 30
0.0
 10
53.42635052555816
 20
-19.96136807295761
 30
0.0
 10
53.42637765229427
 20
-19.61947625438122
 30
0.0
 10
53.42640477903038
 20
-19.36456631514511
 30
0.0
 10
53.36813654986372
 20
-19.11133823354789
 30
0.0
 10
53.25486886323177
 20
-18.8810186805965
 30
0.0
 10
53.25486886323177
 20
-18.8810186805965
 30
0.0
 10
53.18573637625261
 20
-18.18200338111733
 30
0.0
 10
53.18573637625261
 20
-18.18200338111733
 30
0.0
  0
ENDBLK
  5
44
330
41
100
AcDbEntity
  8
0
100
AcDbBlockEnd
  0
ENDSEC
  0
SECTION
  2
ENTITIES
  0
INSERT
  5
42
330
1F
100
AcDbEntity
  8
Layer 1
100
AcDbBlockReference
  2
block 2
 10
0.0
 20
0.0
 30
0.0
  0
SPLINE
  5
46
330
1F
100
AcDbEntity
  8
Layer 1
 62
   250
420
  2301728
370
    35
100
AcDbSpline
210
0.0
220
0.0
230
1.0
 70
    11
 71
     3
 72
    29
 73
    25
 74
     0
 42
0.0000000001
 43
0.0000000001
 12
1.0
 22
0.0
 32
0.0
 13
1.0
 23
0.0
 33
0.0
 40
0.0
 40
0.0
 40
0.0
 40
0.0
 40
1.0
 40
1.0
 40
1.0
 40
2.0
 40
2.0
 40
2.0
 40
3.0
 40
3.0
 40
3.0
 40
4.0
 40
4.0
 40
4.0
 40
5.0
 40
5.0
 40
5.0
 40
6.0
 40
6.0
 40
6.0
 40
7.0
 40
7.0
 40
7.0
 40
8.0
 40
8.0
 40
8.0
 40
8.0
 10
20.33126453380469
 20
-7.978821523478447
 30
0.0
 10
20.33126453380469
 20
-7.978821523478447
 30
0.0
 10
20.33126453380469
 20
-4.614943485284003
 30
0.0
 10
20.33126453380469
 20
-4.614943485284003
 30
0.0
 10
20.33126453380469
 20
-4.614943485284003
 30
0.0
 10
21.77758750472483
 20
-7.978821523478447
 30
0.0
 10
21.77758750472483
 20
-7.978821523478447
 30
0.0
 10
21.77758750472483
 20
-7.978821523478447
 30
0.0
 10
23.22857627425608
 20
-4.614943485284003
 30
0.0
 10
23.22857627425608
 20
-4.614943485284003
 30
0.0
 10
23.22857627425608
 20
-4.614943485284003
 30
0.0
 10
23.22857627425608
 20
-7.978821523478447
 30
0.0
 10
23.22857627425608
 20
-7.978821523478447
 30
0.0
 10
23.22857627425608
 20
-7.978821523478447
 30
0.0
 10
23.22857627425608
 20
-4.614943485284003
 30
0.0
 10
23.22857627425608
 20
-4.614943485284003
 30
0.0
 10
23.22857627425608
 20
-4.614943485284003
 30
0.0
 10
21.77758750472483
 20
-7.978821523478447
 30
0.0
 10
21.77758750472483
 20
-7.978821523478447
 30
0.0
 10
21.77758750472483
 20
-7.978821523478447
 30
0.0
 10
20.33126453380469
 20
-4.614943485284003
 30
0.0
 10
20.33126453380469
 20
-4.614943485284003
 30
0.0
 10
20.33126453380469
 20
-4.614943485284003
 30
0.0
 10
20.33126453380469
 20
-7.978821523478447
 30
0.0
 10
20.33126453380469
 20
-7.978821523478447
 30
0.0
  0
SPLINE
  5
47
330
1F
100
AcDbEntity
  8
Layer 1
 62
   250
420
  2301728
370
    35
100
AcDbSpline
210
0.0
220
0.0
230
1.0
 70
    11
 71
     3
 72
    50
 73
    46
 74
     0
 42
0.0000000001
 43
0.0000000001
 12
1.0
 22
0.0
 32
0.0
 13
1.0
 23
0.0
 33
0.0
 40
0.0
 40
0.0
 40
0.0
 40
0.0
 40
1.0
 40
1.0
 40
1.0
 40
2.0
 40
2.0
 40
2.0
 40
3.0
 40
3.0
 40
3.0
 40
4.0
 40
4.0
 40
4.0
 40
5.0
 40
5.0
 40
5.0
 40
6.0
 40
6.0
 40
6.0
 40
7.0
 40
7.0
 40
7.0
 40
8.0
 40
8.0
 40
8.0
 40
9.0
 40
9.0
 40
9.0
 40
10.0
 40
10.0
 40
10.0
 40
11.0
 40
11.0
 40
11.0
 40
12.0
 40
12.0
 40
12.0
 40
13.0
 40
13.0
 40
13.0
 40
14.0
 40
14.0
 40
14.0
 40
15.0
 40
15.0
 40
15.0
 40
15.0
 10
29.26106732243316
 20
-7.978821523478447
 30
0.0
 10
29.26106732243316
 20
-7.978821523478447
 30
0.0
 10
29.26106732243316
 20
-4.614943485284003
 30
0.0
 10
29.26106732243316
 20
-4.614943485284003
 30
0.0
 10
29.26106732243316
 20
-4.614943485284003
 30
0.0
 10
30.4741139261658
 20
-4.614943485284003
 30
0.0
 10
30.4741139261658
 20
-4.614943485284003
 30
0.0
 10
30.65759916922136
 20
-4.614943485284003
 30
0.0
 10
30.81622954031511
 20
-4.639072717054836
 30
0.0
 10
30.94999825776302
 20
-4.687263363756225
 30
0.0
 10
31.08369915837066
 20
-4.735521827297892
 30
0.0
 10
31.19727202078386
 20
-4.800843007853447
 30
0.0
 10
31.29058799300608
 20
-4.883213342054836
 30
0.0
 10
31.38389718354427
 20
-4.965665056464559
 30
0.0
 10
31.45927560151302
 20
-5.061313927992336
 30
0.0
 10
31.51686566227691
 20
-5.170146393270114
 30
0.0
 10
31.5743811245165
 20
-5.279060238756225
 30
0.0
 10
31.61950645003733
 20
-5.393372304728447
 30
0.0
 10
31.65216704031511
 20
-5.513069027818725
 30
0.0
 10
31.68482763059288
 20
-5.632847131117336
 30
0.0
 10
31.70734960324913
 20
-5.756477230943725
 30
0.0
 10
31.71981433849219
 20
-5.883986454034003
 30
0.0
 10
31.73221125689497
 20
-6.011563493964559
 30
0.0
 10
31.74154285411719
 20
-6.132860694485392
 30
0.0
 10
31.74780913015886
 20
-6.247891618964559
 30
0.0
 10
31.75087445133941
 20
-6.366137061672892
 30
0.0
 10
31.74700889144358
 20
-6.490513146742336
 30
0.0
 10
31.73614463363108
 20
-6.621141944485392
 30
0.0
 10
31.7252125589783
 20
-6.751784305596503
 30
0.0
 10
31.70188356592275
 20
-6.88088044274928
 30
0.0
 10
31.66616443614844
 20
-7.008389665839559
 30
0.0
 10
31.63037070784983
 20
-7.135953142402059
 30
0.0
 10
31.58137982243316
 20
-7.257996328165947
 30
0.0
 10
31.51919856158247
 20
-7.37462773007567
 30
0.0
 10
31.45694270220747
 20
-7.491272695353447
 30
0.0
 10
31.37843114621788
 20
-7.59472050351317
 30
0.0
 10
31.28358929508941
 20
-7.684889774346503
 30
0.0
 10
31.18867284543663
 20
-7.77514042538817
 30
0.0
 10
31.07436756114844
 20
-7.846660065145114
 30
0.0
 10
30.9406666605408
 20
-7.899502947089559
 30
0.0
 10
30.80689794309288
 20
-7.952427209242336
 30
0.0
 10
30.65140071001997
 20
-7.978821523478447
 30
0.0
 10
30.4741139261658
 20
-7.978821523478447
 30
0.0
 10
30.4741139261658
 20
-7.978821523478447
 30
0.0
 10
29.26106732243316
 20
-7.978821523478447
 30
0.0
 10
29.26106732243316
 20
-7.978821523478447
 30
0.0
  0
SPLINE
  5
48
330
1F
100
AcDbEntity
  8
Layer 1
 62
   250
420
  2301728
370
    35
100
AcDbSpline
210
0.0
220
0.0
230
1.0
 70
    11
 71
     3
 72
    50
 73
    46
 74
     0
 42
0.0000000001
 43
0.0000000001
 12
1.0
 22
0.0
 32
0.0
 13
1.0
 23
0.0
 33
0.0
 40
0.0
 40
0.0
 40
0.0
 40
0.0
 40
1.0
 40
1.0
 40
1.0
 40
2.0
 40
2.0
 40
2.0
 40
3.0
 40
3.0
 40
3.0
 40
4.0
 40
4.0
 40
4.0
 40
5.0
 40
5.0
 40
5.0
 40
6.0
 40
6.0
 40
6.0
 40
7.0
 40
7.0
 40
7.0
 40
8.0
 40
8.0
 40
8.0
 40
9.0
 40
9.0
 40
9.0
 40
10.0
 40
10.0
 40
10.0
 40
11.0
 40
11.0
 40
11.0
 40
12.0
 40
12.0
 40
12.0
 40
13.0
 40
13.0
 40
13.0
 40
14.0
 40
14.0
 40
14.0
 40
15.0
 40
15.0
 40
15.0
 40
15.0
 10
29.26106732243316
 20
-7.978821523478447
 30
0.0
 10
29.26106732243316
 20
-7.978821523478447
 30
0.0
 10
29.26106732243316
 20
-4.614943485284003
 30
0.0
 10
29.26106732243316
 20
-4.614943485284003
 30
0.0
 10
29.26106732243316
 20
-4.614943485284003
 30
0.0
 10
30.4741139261658
 20
-4.614943485284003
 30
0.0
 10
30.4741139261658
 20
-4.614943485284003
 30
0.0
 10
30.65759916922136
 20
-4.614943485284003
 30
0.0
 10
30.81622954031511
 20
-4.639072717054836
 30
0.0
 10
30.94999825776302
 20
-4.687263363756225
 30
0.0
 10
31.08369915837066
 20
-4.735521827297892
 30
0.0
 10
31.19727202078386
 20
-4.800843007853447
 30
0.0
 10
31.29058799300608
 20
-4.883213342054836
 30
0.0
 10
31.38389718354427
 20
-4.965665056464559
 30
0.0
 10
31.45927560151302
 20
-5.061313927992336
 30
0.0
 10
31.51686566227691
 20
-5.170146393270114
 30
0.0
 10
31.5743811245165
 20
-5.279060238756225
 30
0.0
 10
31.61950645003733
 20
-5.393372304728447
 30
0.0
 10
31.65216704031511
 20
-5.513069027818725
 30
0.0
 10
31.68482763059288
 20
-5.632847131117336
 30
0.0
 10
31.70734960324913
 20
-5.756477230943725
 30
0.0
 10
31.71981433849219
 20
-5.883986454034003
 30
0.0
 10
31.73221125689497
 20
-6.011563493964559
 30
0.0
 10
31.74154285411719
 20
-6.132860694485392
 30
0.0
 10
31.74780913015886
 20
-6.247891618964559
 30
0.0
 10
31.75087445133941
 20
-6.366137061672892
 30
0.0
 10
31.74700889144358
 20
-6.490513146742336
 30
0.0
 10
31.73614463363108
 20
-6.621141944485392
 30
0.0
 10
31.7252125589783
 20
-6.751784305596503
 30
0.0
 10
31.70188356592275
 20
-6.88088044274928
 30
0.0
 10
31.66616443614844
 20
-7.008389665839559
 30
0.0
 10
31.63037070784983
 20
-7.135953142402059
 30
0.0
 10
31.58137982243316
 20
-7.257996328165947
 30
0.0
 10
31.51919856158247
 20
-7.37462773007567
 30
0.0
 10
31.45694270220747
 20
-7.491272695353447
 30
0.0
 10
31.37843114621788
 20
-7.59472050351317
 30
0.0
 10
31.28358929508941
 20
-7.684889774346503
 30
0.0
 10
31.18867284543663
 20
-7.77514042538817
 30
0.0
 10
31.07436756114844
 20
-7.846660065145114
 30
0.0
 10
30.9406666605408
 20
-7.899502947089559
 30
0.0
 10
30.80689794309288
 20
-7.952427209242336
 30
0.0
 10
30.65140071001997
 20
-7.978821523478447
 30
0.0
 10
30.4741139261658
 20
-7.978821523478447
 30
0.0
 10
30.4741139261658
 20
-7.978821523478447
 30
0.0
 10
29.26106732243316
 20
-7.978821523478447
 30
0.0
 10
29.26106732243316
 20
-7.978821523478447
 30
0.0
  0
SPLINE
  5
49
330
1F
100
AcDbEntity
  8
Layer 1
 62
   250
420
  2301728
370
    35
100
AcDbSpline
210
0.0
220
0.0
230
1.0
 70
    11
 71
     3
 72
    29
 73
    25
 74
     0
 42
0.0000000001
 43
0.0000000001
 12
1.0
 22
0.0
 32
0.0
 13
1.0
 23
0.0
 33
0.0
 40
0.0
 40
0.0
 40
0.0
 40
0.0
 40
1.0
 40
1.0
 40
1.0
 40
2.0
 40
2.0
 40
2.0
 40
3.0
 40
3.0
 40
3.0
 40
4.0
 40
4.0
 40
4.0
 40
5.0
 40
5.0
 40
5.0
 40
6.0
 40
6.0
 40
6.0
 40
7.0
 40
7.0
 40
7.0
 40
8.0
 40
8.0
 40
8.0
 40
8.0
 10
33.7679846401415
 20
-4.614943485284003
 30
0.0
 10
33.7679846401415
 20
-4.614943485284003
 30
0.0
 10
34.65444568614844
 20
-7.978821523478447
 30
0.0
 10
34.65444568614844
 20
-7.978821523478447
 30
0.0
 10
34.65444568614844
 20
-7.978821523478447
 30
0.0
 10
35.72285931462066
 20
-4.614943485284003
 30
0.0
 10
35.72285931462066
 20
-4.614943485284003
 30
0.0
 10
35.72285931462066
 20
-4.614943485284003
 30
0.0
 10
36.79127294309288
 20
-7.978821523478447
 30
0.0
 10
36.79127294309288
 20
-7.978821523478447
 30
0.0
 10
36.79127294309288
 20
-7.978821523478447
 30
0.0
 10
37.67773398909983
 20
-4.614943485284003
 30
0.0
 10
37.67773398909983
 20
-4.614943485284003
 30
0.0
 10
37.67773398909983
 20
-4.614943485284003
 30
0.0
 10
36.79127294309288
 20
-7.978821523478447
 30
0.0
 10
36.79127294309288
 20
-7.978821523478447
 30
0.0
 10
36.79127294309288
 20
-7.978821523478447
 30
0.0
 10
35.72285931462066
 20
-4.614943485284003
 30
0.0
 10
35.72285931462066
 20
-4.614943485284003
 30
0.0
 10
35.72285931462066
 20
-4.614943485284003
 30
0.0
 10
34.65444568614844
 20
-7.978821523478447
 30
0.0
 10
34.65444568614844
 20
-7.978821523478447
 30
0.0
 10
34.65444568614844
 20
-7.978821523478447
 30
0.0
 10
33.7679846401415
 20
-4.614943485284003
 30
0.0
 10
33.7679846401415
 20
-4.614943485284003
 30
0.0
  0
POLYLINE
  5
4A
330
1F
100
AcDbEntity
  8
Layer 1
 62
   250
420
  2301728
370
    35
100
AcDb2dPolyline
 66
     1
 10
0.0
 20
0.0
 30
0.0
  0
VERTEX
  5
4B
330
4A
100
AcDbEntity
  8
Layer 1
 62
   250
420
  2301728
370
    35
100
AcDbVertex
100
AcDb2dVertex
 10
26.31169920668691
 20
-4.633606679728447
 30
0.0
  0
VERTEX
  5
4C
330
4A
100
AcDbEntity
  8
Layer 1
 62
   250
420
  2301728
370
    35
100
AcDbVertex
100
AcDb2dVertex
 10
26.31169920668691
 20
-7.978821523478447
 30
0.0
  0
SEQEND
  5
4D
330
4A
100
AcDbEntity
  8
Layer 1
 62
   250
420
  2301728
370
    35
  0
POLYLINE
  5
4E
330
1F
100
AcDbEntity
  8
Layer 1
 62
   250
420
  2301728
370
    35
100
AcDb2dPolyline
 66
     1
 10
0.0
 20
0.0
 30
0.0
  0
VERTEX
  5
4F
330
4E
100
AcDbEntity
  8
Layer 1
 62
   250
420
  2301728
370
    35
100
AcDbVertex
100
AcDb2dVertex
 10
26.31169920668691
 20
-7.978821523478447
 30
0.0
  0
VERTEX
  5
50
330
4E
100
AcDbEntity
  8
Layer 1
 62
   250
420
  2301728
370
    35
100
AcDbVertex
100
AcDb2dVertex
 10
26.31169920668691
 20
-4.633606679728447
 30
0.0
  0
SEQEND
  5
51
330
4E
100
AcDbEntity
  8
Layer 1
 62
   250
420
  2301728
370
    35
  0
POLYLINE
  5
52
330
1F
100
AcDbEntity
  8
Layer 1
 62
   250
420
  2301728
370
    35
100
AcDb2dPolyline
 66
     1
 10
0.0
 20
0.0
 30
0.0
  0
VERTEX
  5
53
330
52
100
AcDbEntity
  8
Layer 1
 62
   250
420
  2301728
370
    35
100
AcDbVertex
100
AcDb2dVertex
 10
26.31169920668691
 20
-4.633606679728447
 30
0.0
  0
VERTEX
  5
54
330
52
100
AcDbEntity
  8
Layer 1
 62
   250
420
  2301728
370
    35
100
AcDbVertex
100
AcDb2dVertex
 10
26.31169920668691
 20
-7.978821523478447
 30
0.0
  0
SEQEND
  5
55
330
52
100
AcDbEntity
  8
Layer 1
 62
   250
420
  2301728
370
    35
  0
POLYLINE
  5
56
330
1F
100
AcDbEntity
  8
Layer 1
 62
   250
420
  2301728
370
    35
100
AcDb2dPolyline
 66
     1
 10
0.0
 20
0.0
 30
0.0
  0
VERTEX
  5
57
330
56
100
AcDbEntity
  8
Layer 1
 62
   250
420
  2301728
370
    35
100
AcDbVertex
100
AcDb2dVertex
 10
26.31169920668691
 20
-7.978821523478447
 30
0.0
  0
VERTEX
  5
58
330
56
100
AcDbEntity
  8
Layer 1
 62
   250
420
  2301728
370
    35
100
AcDbVertex
100
AcDb2dVertex
 10
26.31169920668691
 20
-4.633606679728447
 30
0.0
  0
SEQEND
  5
59
330
56
100
AcDbEntity
  8
Layer 1
 62
   250
420
  2301728
370
    35
  0
POLYLINE
  5
5A
330
1F
100
AcDbEntity
  8
Layer 1
 62
   250
420
  2301728
370
    35
100
AcDb2dPolyline
 66
     1
 10
0.0
 20
0.0
 30
0.0
  0
VERTEX
  5
5B
330
5A
100
AcDbEntity
  8
Layer 1
 62
   250
420
  2301728
370
    35
100
AcDbVertex
100
AcDb2dVertex
 10
26.31169920668691
 20
-4.633606679728447
 30
0.0
  0
VERTEX
  5
5C
330
5A
100
AcDbEntity
  8
Layer 1
 62
   250
420
  2301728
370
    35
100
AcDbVertex
100
AcDb2dVertex
 10
26.31169920668691
 20
-7.978821523478447
 30
0.0
  0
SEQEND
  5
5D
330
5A
100
AcDbEntity
  8
Layer 1
 62
   250
420
  2301728
370
    35
  0
POLYLINE
  5
5E
330
1F
100
AcDbEntity
  8
Layer 1
 62
   250
420
  2301728
370
    35
100
AcDb2dPolyline
 66
     1
 10
0.0
 20
0.0
 30
0.0
  0
VERTEX
  5
5F
330
5E
100
AcDbEntity
  8
Layer 1
 62
   250
420
  2301728
370
    35
100
AcDbVertex
100
AcDb2dVertex
 10
26.31169920668691
 20
-7.978821523478447
 30
0.0
  0
VERTEX
  5
60
330
5E
100
AcDbEntity
  8
Layer 1
 62
   250
420
  2301728
370
    35
100
AcDbVertex
100
AcDb2dVertex
 10
26.31169920668691
 20
-4.633606679728447
 30
0.0
  0
SEQEND
  5
61
330
5E
100
AcDbEntity
  8
Layer 1
 62
   250
420
  2301728
370
    35
  0
POLYLINE
  5
62
330
1F
100
AcDbEntity
  8
Layer 1
 62
   250
420
  2301728
370
    35
100
AcDb2dPolyline
 66
     1
 10
0.0
 20
0.0
 30
0.0
  0
VERTEX
  5
63
330
62
100
AcDbEntity
  8
Layer 1
 62
   250
420
  2301728
370
    35
100
AcDbVertex
100
AcDb2dVertex
 10
26.31169920668691
 20
-4.633606679728447
 30
0.0
  0
VERTEX
  5
64
330
62
100
AcDbEntity
  8
Layer 1
 62
   250
420
  2301728
370
    35
100
AcDbVertex
100
AcDb2dVertex
 10
26.31169920668691
 20
-7.978821523478447
 30
0.0
  0
SEQEND
  5
65
330
62
100
AcDbEntity
  8
Layer 1
 62
   250
420
  2301728
370
    35
  0
POLYLINE
  5
66
330
1F
100
AcDbEntity
  8
Layer 1
 62
   250
420
  2301728
370
    35
100
AcDb2dPolyline
 66
     1
 10
0.0
 20
0.0
 30
0.0
  0
VERTEX
  5
67
330
66
100
AcDbEntity
  8
Layer 1
 62
   250
420
  2301728
370
    35
100
AcDbVertex
100
AcDb2dVertex
 10
26.31169920668691
 20
-7.978821523478447
 30
0.0
  0
VERTEX
  5
68
330
66
100
AcDbEntity
  8
Layer 1
 62
   250
420
  2301728
370
    35
100
AcDbVertex
100
AcDb2dVertex
 10
26.31169920668691
 20
-4.633606679728447
 30
0.0
  0
SEQEND
  5
69
330
66
100
AcDbEntity
  8
Layer 1
 62
   250
420
  2301728
370
    35
  0
POLYLINE
  5
6A
330
1F
100
AcDbEntity
  8
Layer 1
 62
   250
420
  2301728
370
    35
100
AcDb2dPolyline
 66
     1
 10
0.0
 20
0.0
 30
0.0
  0
VERTEX
  5
6B
330
6A
100
AcDbEntity
  8
Layer 1
 62
   250
420
  2301728
370
    35
100
AcDbVertex
100
AcDb2dVertex
 10
26.31169920668691
 20
-4.633606679728447
 30
0.0
  0
VERTEX
  5
6C
330
6A
100
AcDbEntity
  8
Layer 1
 62
   250
420
  2301728
370
    35
100
AcDbVertex
100
AcDb2dVertex
 10
26.31169920668691
 20
-7.978821523478447
 30
0.0
  0
SEQEND
  5
6D
330
6A
100
AcDbEntity
  8
Layer 1
 62
   250
420
  2301728
370
    35
  0
POLYLINE
  5
6E
330
1F
100
AcDbEntity
  8
Layer 1
 62
   250
420
  2301728
370
    35
100
AcDb2dPolyline
 66
     1
 10
0.0
 20
0.0
 30
0.0
  0
VERTEX
  5
6F
330
6E
100
AcDbEntity
  8
Layer 1
 62
   250
420
  2301728
370
    35
100
AcDbVertex
100
AcDb2dVertex
 10
26.31169920668691
 20
-7.978821523478447
 30
0.0
  0
VERTEX
  5
70
330
6E
100
AcDbEntity
  8
Layer 1
 62
   250
420
  2301728
370
    35
100
AcDbVertex
100
AcDb2dVertex
 10
26.31169920668691
 20
-4.633606679728447
 30
0.0
  0
SEQEND
  5
71
330
6E
100
AcDbEntity
  8
Layer 1
 62
   250
420
  2301728
370
    35
  0
POLYLINE
  5
72
330
1F
100
AcDbEntity
  8
Layer 1
 62
   250
420
  2301728
370
    35
100
AcDb2dPolyline
 66
     1
 10
0.0
 20
0.0
 30
0.0
  0
VERTEX
  5
73
330
72
100
AcDbEntity
  8
Layer 1
 62
   250
420
  2301728
370
    35
100
AcDbVertex
100
AcDb2dVertex
 10
26.31169920668691
 20
-4.633606679728447
 30
0.0
  0
VERTEX
  5
74
330
72
100
AcDbEntity
  8
Layer 1
 62
   250
420
  2301728
370
    35
100
AcDbVertex
100
AcDb2dVertex
 10
26.31169920668691
 20
-7.978821523478447
 30
0.0
  0
SEQEND
  5
75
330
72
100
AcDbEntity
  8
Layer 1
 62
   250
420
  2301728
370
    35
  0
POLYLINE
  5
76
330
1F
100
AcDbEntity
  8
Layer 1
 62
   250
420
  2301728
370
    35
100
AcDb2dPolyline
 66
     1
 10
0.0
 20
0.0
 30
0.0
  0
VERTEX
  5
77
330
76
100
AcDbEntity
  8
Layer 1
 62
   250
420
  2301728
370
    35
100
AcDbVertex
100
AcDb2dVertex
 10
26.31169920668691
 20
-7.978821523478447
 30
0.0
  0
VERTEX
  5
78
330
76
100
AcDbEntity
  8
Layer 1
 62
   250
420
  2301728
370
    35
100
AcDbVertex
100
AcDb2dVertex
 10
26.31169920668691
 20
-4.633606679728447
 30
0.0
  0
SEQEND
  5
79
330
76
100
AcDbEntity
  8
Layer 1
 62
   250
420
  2301728
370
    35
  0
SPLINE
  5
7A
330
1F
100
AcDbEntity
  8
Layer 1
 62
   250
420
  2301728
370
    35
100
AcDbSpline
210
0.0
220
0.0
230
1.0
 70
    11
 71
     3
 72
   137
 73
   133
 74
     0
 42
0.0000000001
 43
0.0000000001
 12
1.0
 22
0.0
 32
0.0
 13
1.0
 23
0.0
 33
0.0
 40
0.0
 40
0.0
 40
0.0
 40
0.0
 40
1.0
 40
1.0
 40
1.0
 40
2.0
 40
2.0
 40
2.0
 40
3.0
 40
3.0
 40
3.0
 40
4.0
 40
4.0
 40
4.0
 40
5.0
 40
5.0
 40
5.0
 40
6.0
 40
6.0
 40
6.0
 40
7.0
 40
7.0
 40
7.0
 40
8.0
 40
8.0
 40
8.0
 40
9.0
 40
9.0
 40
9.0
 40
10.0
 40
10.0
 40
10.0
 40
11.0
 40
11.0
 40
11.0
 40
12.0
 40
12.0
 40
12.0
 40
13.0
 40
13.0
 40
13.0
 40
14.0
 40
14.0
 40
14.0
 40
15.0
 40
15.0
 40
15.0
 40
16.0
 40
16.0
 40
16.0
 40
17.0
 40
17.0
 40
17.0
 40
18.0
 40
18.0
 40
18.0
 40
19.0
 40
19.0
 40
19.0
 40
20.0
 40
20.0
 40
20.0
 40
21.0
 40
21.0
 40
21.0
 40
22.0
 40
22.0
 40
22.0
 40
23.0
 40
23.0
 40
23.0
 40
24.0
 40
24.0
 40
24.0
 40
25.0
 40
25.0
 40
25.0
 40
26.0
 40
26.0
 40
26.0
 40
27.0
 40
27.0
 40
27.0
 40
28.0
 40
28.0
 40
28.0
 40
29.0
 40
29.0
 40
29.0
 40
30.0
 40
30.0
 40
30.0
 40
31.0
 40
31.0
 40
31.0
 40
32.0
 40
32.0
 40
32.0
 40
33.0
 40
33.0
 40
33.0
 40
34.0
 40
34.0
 40
34.0
 40
35.0
 40
35.0
 40
35.0
 40
36.0
 40
36.0
 40
36.0
 40
37.0
 40
37.0
 40
37.0
 40
38.0
 40
38.0
 40
38.0
 40
39.0
 40
39.0
 40
39.0
 40
40.0
 40
40.0
 40
40.0
 40
41.0
 40
41.0
 40
41.0
 40
42.0
 40
42.0
 40
42.0
 40
43.0
 40
43.0
 40
43.0
 40
44.0
 40
44.0
 40
44.0
 40
44.0
 10
44.93958837278038
 20
-7.439948910631225
 30
0.0
 10
45.00642865055816
 20
-7.572191749172892
 30
0.0
 10
45.09587906288455
 20
-7.680223975735392
 30
0.0
 10
45.20785822955122
 20
-7.764208350735392
 30
0.0
 10
45.31982383284983
 20
-7.848179162367336
 30
0.0
 10
45.45046619396094
 20
-7.909634783027059
 30
0.0
 10
45.59975818614844
 20
-7.948493832506225
 30
0.0
 10
45.749063741704
 20
-7.987352881985392
 30
0.0
 10
45.90768733111372
 20
-8.006816315145114
 30
0.0
 10
46.07565608111372
 20
-8.006816315145114
 30
0.0
 10
46.24361126774566
 20
-8.006816315145114
 30
0.0
 10
46.39596858111372
 20
-7.98268708337428
 30
0.0
 10
46.5328772182665
 20
-7.934496436672892
 30
0.0
 10
46.66970447521094
 20
-7.886305789971503
 30
0.0
 10
46.78634944048872
 20
-7.82253083337428
 30
0.0
 10
46.88279855073177
 20
-7.743212256985392
 30
0.0
 10
46.9791662807665
 20
-7.663893680596503
 30
0.0
 10
47.05381905854427
 20
-7.57372440976317
 30
0.0
 10
47.10674332069705
 20
-7.472609500909003
 30
0.0
 10
47.1595862026415
 20
-7.371562408895114
 30
0.0
 10
47.18758099430816
 20
-7.269660824693725
 30
0.0
 10
47.190714132329
 20
-7.16701325524928
 30
0.0
 10
47.19691259153038
 20
-6.961731679728447
 30
0.0
 10
47.14873550819705
 20
-6.78371247399928
 30
0.0
 10
47.04608793875261
 20
-6.63280644101317
 30
0.0
 10
46.94344036930816
 20
-6.481981788235392
 30
0.0
 10
46.787882101079
 20
-6.384800256117336
 30
0.0
 10
46.57953520437761
 20
-6.34120759118678
 30
0.0
 10
46.57953520437761
 20
-6.34120759118678
 30
0.0
 10
45.43646879812761
 20
-6.093933828165947
 30
0.0
 10
45.43646879812761
 20
-6.093933828165947
 30
0.0
 10
45.35554974430816
 20
-6.075270633721503
 30
0.0
 10
45.28322986583594
 20
-6.049608741360392
 30
0.0
 10
45.219522726079
 20
-6.016948151082614
 30
0.0
 10
45.15573420611372
 20
-5.984287560804836
 30
0.0
 10
45.10207752208594
 20
-5.939976037367336
 30
0.0
 10
45.05855267399566
 20
-5.883986454034003
 30
0.0
 10
45.01496000906511
 20
-5.82799687070067
 30
0.0
 10
44.98158056028038
 20
-5.760342790839559
 30
0.0
 10
44.95825156722483
 20
-5.68102421445067
 30
0.0
 10
44.93492257416927
 20
-5.601719201429836
 30
0.0
 10
44.9232580776415
 20
-5.507670807332614
 30
0.0
 10
44.9232580776415
 20
-5.398770525214559
 30
0.0
 10
44.9232580776415
 20
-5.289924496568725
 30
0.0
 10
44.94578683198177
 20
-5.185757829902059
 30
0.0
 10
44.99091215750261
 20
-5.08617558163817
 30
0.0
 10
45.03595610281511
 20
-4.986661150214559
 30
0.0
 10
45.10287776080122
 20
-4.899543637193725
 30
0.0
 10
45.19152793441233
 20
-4.824904422784003
 30
0.0
 10
45.28017810802344
 20
-4.750251645006225
 30
0.0
 10
45.38901057330122
 20
-4.691196740492336
 30
0.0
 10
45.51812027382205
 20
-4.647604075561781
 30
0.0
 10
45.64714859413455
 20
-4.604092790839559
 30
0.0
 10
45.79572172781511
 20
-4.582296458374281
 30
0.0
 10
45.96367691444705
 20
-4.582296458374281
 30
0.0
 10
46.131632101079
 20
-4.582296458374281
 30
0.0
 10
46.28633587712066
 20
-4.601759891534003
 30
0.0
 10
46.4278967495165
 20
-4.640605377645114
 30
0.0
 10
46.56940336844011
 20
-4.679532243964559
 30
0.0
 10
46.69150080767622
 20
-4.736254249172892
 30
0.0
 10
46.79414837712066
 20
-4.81090702695067
 30
0.0
 10
46.89679594656511
 20
-4.885546241360392
 30
0.0
 10
46.97530072087066
 20
-4.976529314277059
 30
0.0
 10
47.02975764361372
 20
-5.083842682332614
 30
0.0
 10
47.0841467495165
 20
-5.191142487020114
 30
0.0
 10
47.10980864187761
 20
-5.314786150214559
 30
0.0
 10
47.10674332069705
 20
-5.454746545179836
 30
0.0
 10
47.10980864187761
 20
-5.314786150214559
 30
0.0
 10
47.0841467495165
 20
-5.191142487020114
 30
0.0
 10
47.02975764361372
 20
-5.083842682332614
 30
0.0
 10
46.97530072087066
 20
-4.976529314277059
 30
0.0
 10
46.89679594656511
 20
-4.885546241360392
 30
0.0
 10
46.79414837712066
 20
-4.81090702695067
 30
0.0
 10
46.69150080767622
 20
-4.736254249172892
 30
0.0
 10
46.56940336844011
 20
-4.679532243964559
 30
0.0
 10
46.4278967495165
 20
-4.640605377645114
 30
0.0
 10
46.28633587712066
 20
-4.601759891534003
 30
0.0
 10
46.131632101079
 20
-4.582296458374281
 30
0.0
 10
45.96367691444705
 20
-4.582296458374281
 30
0.0
 10
45.79572172781511
 20
-4.582296458374281
 30
0.0
 10
45.64714859413455
 20
-4.604092790839559
 30
0.0
 10
45.51812027382205
 20
-4.647604075561781
 30
0.0
 10
45.38901057330122
 20
-4.691196740492336
 30
0.0
 10
45.28017810802344
 20
-4.750251645006225
 30
0.0
 10
45.19152793441233
 20
-4.824904422784003
 30
0.0
 10
45.10287776080122
 20
-4.899543637193725
 30
0.0
 10
45.03595610281511
 20
-4.986661150214559
 30
0.0
 10
44.99091215750261
 20
-5.08617558163817
 30
0.0
 10
44.94578683198177
 20
-5.185757829902059
 30
0.0
 10
44.9232580776415
 20
-5.289924496568725
 30
0.0
 10
44.9232580776415
 20
-5.398770525214559
 30
0.0
 10
44.9232580776415
 20
-5.619649973999281
 30
0.0
 10
44.96758316444705
 20
-5.781338884589559
 30
0.0
 10
45.05621977469011
 20
-5.883986454034003
 30
0.0
 10
45.14486994830122
 20
-5.986620460110392
 30
0.0
 10
45.27156536930816
 20
-6.056607439277059
 30
0.0
 10
45.43646879812761
 20
-6.093933828165947
 30
0.0
 10
45.43646879812761
 20
-6.093933828165947
 30
0.0
 10
46.57953520437761
 20
-6.34120759118678
 30
0.0
 10
46.57953520437761
 20
-6.34120759118678
 30
0.0
 10
46.79414837712066
 20
-6.384800256117336
 30
0.0
 10
46.95117148909983
 20
-6.481981788235392
 30
0.0
 10
47.05075373736372
 20
-6.63280644101317
 30
0.0
 10
47.15025460541927
 20
-6.78371247399928
 30
0.0
 10
47.19691259153038
 20
-6.961731679728447
 30
0.0
 10
47.190714132329
 20
-7.16701325524928
 30
0.0
 10
47.18758099430816
 20
-7.269660824693725
 30
0.0
 10
47.1595862026415
 20
-7.371562408895114
 30
0.0
 10
47.10674332069705
 20
-7.472609500909003
 30
0.0
 10
47.05381905854427
 20
-7.57372440976317
 30
0.0
 10
46.9791662807665
 20
-7.663893680596503
 30
0.0
 10
46.88279855073177
 20
-7.743212256985392
 30
0.0
 10
46.78634944048872
 20
-7.82253083337428
 30
0.0
 10
46.66970447521094
 20
-7.886305789971503
 30
0.0
 10
46.5328772182665
 20
-7.934496436672892
 30
0.0
 10
46.39596858111372
 20
-7.98268708337428
 30
0.0
 10
46.24361126774566
 20
-8.006816315145114
 30
0.0
 10
46.07565608111372
 20
-8.006816315145114
 30
0.0
 10
45.90768733111372
 20
-8.006816315145114
 30
0.0
 10
45.749063741704
 20
-7.987352881985392
 30
0.0
 10
45.59975818614844
 20
-7.948493832506225
 30
0.0
 10
45.45046619396094
 20
-7.909634783027059
 30
0.0
 10
45.31982383284983
 20
-7.848179162367336
 30
0.0
 10
45.20785822955122
 20
-7.764208350735392
 30
0.0
 10
45.09587906288455
 20
-7.680223975735392
 30
0.0
 10
45.00642865055816
 20
-7.572191749172892
 30
0.0
 10
44.93958837278038
 20
-7.439948910631225
 30
0.0
 10
44.87266671479427
 20
-7.307787452297892
 30
0.0
 10
44.8392737026415
 20
-7.148350060804836
 30
0.0
 10
44.8392737026415
 20
-6.961731679728447
 30
0.0
 10
44.8392737026415
 20
-7.148350060804836
 30
0.0
 10
44.87266671479427
 20
-7.307787452297892
 30
0.0
 10
44.93958837278038
 20
-7.439948910631225
 30
0.0
  0
POLYLINE
  5
7B
330
1F
100
AcDbEntity
  8
Layer 1
 62
   250
420
  2301728
370
    35
100
AcDb2dPolyline
 66
     1
 10
0.0
 20
0.0
 30
0.0
  0
VERTEX
  5
7C
330
7B
100
AcDbEntity
  8
Layer 1
 62
   250
420
  2301728
370
    35
100
AcDbVertex
100
AcDb2dVertex
 10
50.74586278684288
 20
-7.978821523478447
 30
0.0
  0
VERTEX
  5
7D
330
7B
100
AcDbEntity
  8
Layer 1
 62
   250
420
  2301728
370
    35
100
AcDbVertex
100
AcDb2dVertex
 10
50.74586278684288
 20
-4.614943485284003
 30
0.0
  0
VERTEX
  5
7E
330
7B
100
AcDbEntity
  8
Layer 1
 62
   250
420
  2301728
370
    35
100
AcDbVertex
100
AcDb2dVertex
 10
49.53747520003733
 20
-4.614943485284003
 30
0.0
  0
VERTEX
  5
7F
330
7B
100
AcDbEntity
  8
Layer 1
 62
   250
420
  2301728
370
    35
100
AcDbVertex
100
AcDb2dVertex
 10
51.96356840750261
 20
-4.614943485284003
 30
0.0
  0
VERTEX
  5
80
330
7B
100
AcDbEntity
  8
Layer 1
 62
   250
420
  2301728
370
    35
100
AcDbVertex
100
AcDb2dVertex
 10
50.74586278684288
 20
-4.614943485284003
 30
0.0
  0
VERTEX
  5
81
330
7B
100
AcDbEntity
  8
Layer 1
 62
   250
420
  2301728
370
    35
100
AcDbVertex
100
AcDb2dVertex
 10
50.74586278684288
 20
-7.978821523478447
 30
0.0
  0
SEQEND
  5
82
330
7B
100
AcDbEntity
  8
Layer 1
 62
   250
420
  2301728
370
    35
  0
SPLINE
  5
83
330
1F
100
AcDbEntity
  8
Layer 1
 62
   250
420
  2301728
370
    35
100
AcDbSpline
210
0.0
220
0.0
230
1.0
 70
    11
 71
     3
 72
    77
 73
    73
 74
     0
 42
0.0000000001
 43
0.0000000001
 12
1.0
 22
0.0
 32
0.0
 13
1.0
 23
0.0
 33
0.0
 40
0.0
 40
0.0
 40
0.0
 40
0.0
 40
1.0
 40
1.0
 40
1.0
 40
2.0
 40
2.0
 40
2.0
 40
3.0
 40
3.0
 40
3.0
 40
4.0
 40
4.0
 40
4.0
 40
5.0
 40
5.0
 40
5.0
 40
6.0
 40
6.0
 40
6.0
 40
7.0
 40
7.0
 40
7.0
 40
8.0
 40
8.0
 40
8.0
 40
9.0
 40
9.0
 40
9.0
 40
10.0
 40
10.0
 40
10.0
 40
11.0
 40
11.0
 40
11.0
 40
12.0
 40
12.0
 40
12.0
 40
13.0
 40
13.0
 40
13.0
 40
14.0
 40
14.0
 40
14.0
 40
15.0
 40
15.0
 40
15.0
 40
16.0
 40
16.0
 40
16.0
 40
17.0
 40
17.0
 40
17.0
 40
18.0
 40
18.0
 40
18.0
 40
19.0
 40
19.0
 40
19.0
 40
20.0
 40
20.0
 40
20.0
 40
21.0
 40
21.0
 40
21.0
 40
22.0
 40
22.0
 40
22.0
 40
23.0
 40
23.0
 40
23.0
 40
24.0
 40
24.0
 40
24.0
 40
24.0
 10
20.1736988871033
 20
-14.42589986549233
 30
0.0
 10
20.1736988871033
 20
-14.42589986549233
 30
0.0
 10
24.79315146956858
 20
-14.42589986549233
 30
0.0
 10
24.79315146956858
 20
-14.42589986549233
 30
0.0
 10
25.00935833805816
 20
-14.42589986549233
 30
0.0
 10
25.21388036496788
 20
-14.384802860284
 30
0.0
 10
25.40672433198177
 20
-14.30247321618678
 30
0.0
 10
25.59945979205122
 20
-14.22027920577011
 30
0.0
 10
25.76750992225955
 20
-14.10853061636039
 30
0.0
 10
25.91099001123525
 20
-13.96748515195067
 30
0.0
 10
26.05435481158247
 20
-13.82642612417289
 30
0.0
 10
26.16719525212066
 20
-13.65959669708955
 30
0.0
 10
26.24951133284983
 20
-13.46675273007567
 30
0.0
 10
26.33171890663455
 20
-13.27401727000622
 30
0.0
 10
26.37293120047136
 20
-13.067175907159
 30
0.0
 10
26.37293120047136
 20
-12.84612013458955
 30
0.0
 10
26.37293120047136
 20
-12.84612013458955
 30
0.0
 10
26.37293120047136
 20
-10.92075934899928
 30
0.0
 10
26.37293120047136
 20
-10.92075934899928
 30
0.0
 10
26.37293120047136
 20
-10.70455926219372
 30
0.0
 10
26.33171890663455
 20
-10.50002367191594
 30
0.0
 10
26.24951133284983
 20
-10.30717970490206
 30
0.0
 10
26.16719525212066
 20
-10.11444424483261
 30
0.0
 10
26.05435481158247
 20
-9.946394114624278
 30
0.0
 10
25.91099001123525
 20
-9.802920807332612
 30
0.0
 10
25.76750992225955
 20
-9.659556006985389
 30
0.0
 10
25.59945979205122
 20
-9.546708784763167
 30
0.0
 10
25.40672433198177
 20
-9.464392704034
 30
0.0
 10
25.21388036496788
 20
-9.382185130249278
 30
0.0
 10
25.00935833805816
 20
-9.3409796180965
 30
0.0
 10
24.79315146956858
 20
-9.3409796180965
 30
0.0
 10
24.79315146956858
 20
-9.3409796180965
 30
0.0
 10
20.1736988871033
 20
-9.3409796180965
 30
0.0
 10
20.1736988871033
 20
-9.3409796180965
 30
0.0
 10
20.1736988871033
 20
-9.3409796180965
 30
0.0
 10
20.1736988871033
 20
-14.42589986549233
 30
0.0
 10
20.1736988871033
 20
-14.42589986549233
 30
0.0
 10
20.1736988871033
 20
-14.42589986549233
 30
0.0
 10
20.1736988871033
 20
-9.3409796180965
 30
0.0
 10
20.1736988871033
 20
-9.3409796180965
 30
0.0
 10
20.1736988871033
 20
-9.3409796180965
 30
0.0
 10
24.79315146956858
 20
-9.3409796180965
 30
0.0
 10
24.79315146956858
 20
-9.3409796180965
 30
0.0
 10
25.00935833805816
 20
-9.3409796180965
 30
0.0
 10
25.21388036496788
 20
-9.382185130249278
 30
0.0
 10
25.40672433198177
 20
-9.464392704034
 30
0.0
 10
25.59945979205122
 20
-9.546708784763167
 30
0.0
 10
25.76750992225955
 20
-9.659556006985389
 30
0.0
 10
25.91099001123525
 20
-9.802920807332612
 30
0.0
 10
26.05435481158247
 20
-9.946394114624278
 30
0.0
 10
26.16719525212066
 20
-10.11444424483261
 30
0.0
 10
26.24951133284983
 20
-10.30717970490206
 30
0.0
 10
26.33171890663455
 20
-10.50002367191594
 30
0.0
 10
26.37293120047136
 20
-10.70455926219372
 30
0.0
 10
26.37293120047136
 20
-10.92075934899928
 30
0.0
 10
26.37293120047136
 20
-10.92075934899928
 30
0.0
 10
26.37293120047136
 20
-12.84612013458955
 30
0.0
 10
26.37293120047136
 20
-12.84612013458955
 30
0.0
 10
26.37293120047136
 20
-13.067175907159
 30
0.0
 10
26.33171890663455
 20
-13.27401727000622
 30
0.0
 10
26.24951133284983
 20
-13.46675273007567
 30
0.0
 10
26.16719525212066
 20
-13.65959669708955
 30
0.0
 10
26.05435481158247
 20
-13.82642612417289
 30
0.0
 10
25.91099001123525
 20
-13.96748515195067
 30
0.0
 10
25.76750992225955
 20
-14.10853061636039
 30
0.0
 10
25.59945979205122
 20
-14.22027920577011
 30
0.0
 10
25.40672433198177
 20
-14.30247321618678
 30
0.0
 10
25.21388036496788
 20
-14.384802860284
 30
0.0
 10
25.00935833805816
 20
-14.42589986549233
 30
0.0
 10
24.79315146956858
 20
-14.42589986549233
 30
0.0
 10
24.79315146956858
 20
-14.42589986549233
 30
0.0
 10
20.1736988871033
 20
-14.42589986549233
 30
0.0
 10
20.1736988871033
 20
-14.42589986549233
 30
0.0
  0
SPLINE
  5
84
330
1F
100
AcDbEntity
  8
Layer 1
 62
   250
420
  2301728
370
    35
100
AcDbSpline
210
0.0
220
0.0
230
1.0
 70
    11
 71
     3
 72
    32
 73
    28
 74
     0
 42
0.0000000001
 43
0.0000000001
 12
1.0
 22
0.0
 32
0.0
 13
1.0
 23
0.0
 33
0.0
 40
0.0
 40
0.0
 40
0.0
 40
0.0
 40
1.0
 40
1.0
 40
1.0
 40
2.0
 40
2.0
 40
2.0
 40
3.0
 40
3.0
 40
3.0
 40
4.0
 40
4.0
 40
4.0
 40
5.0
 40
5.0
 40
5.0
 40
6.0
 40
6.0
 40
6.0
 40
7.0
 40
7.0
 40
7.0
 40
8.0
 40
8.0
 40
8.0
 40
9.0
 40
9.0
 40
9.0
 40
9.0
 10
32.30784404769358
 20
-14.42589986549233
 30
0.0
 10
32.30784404769358
 20
-14.42589986549233
 30
0.0
 10
27.15239428640886
 20
-14.42589986549233
 30
0.0
 10
27.15239428640886
 20
-14.42589986549233
 30
0.0
 10
27.15239428640886
 20
-14.42589986549233
 30
0.0
 10
27.15239428640886
 20
-9.3409796180965
 30
0.0
 10
27.15239428640886
 20
-9.3409796180965
 30
0.0
 10
27.15239428640886
 20
-9.3409796180965
 30
0.0
 10
32.30784404769358
 20
-9.3409796180965
 30
0.0
 10
32.30784404769358
 20
-9.3409796180965
 30
0.0
 10
32.30784404769358
 20
-9.3409796180965
 30
0.0
 10
27.15239428640886
 20
-9.3409796180965
 30
0.0
 10
27.15239428640886
 20
-9.3409796180965
 30
0.0
 10
27.15239428640886
 20
-9.3409796180965
 30
0.0
 10
27.15239428640886
 20
-11.752966922784
 30
0.0
 10
27.15239428640886
 20
-11.752966922784
 30
0.0
 10
27.15239428640886
 20
-11.752966922784
 30
0.0
 10
32.0751102152283
 20
-11.752966922784
 30
0.0
 10
32.0751102152283
 20
-11.752966922784
 30
0.0
 10
32.0751102152283
 20
-11.752966922784
 30
0.0
 10
27.15239428640886
 20
-11.752966922784
 30
0.0
 10
27.15239428640886
 20
-11.752966922784
 30
0.0
 10
27.15239428640886
 20
-11.752966922784
 30
0.0
 10
27.15239428640886
 20
-14.42589986549233
 30
0.0
 10
27.15239428640886
 20
-14.42589986549233
 30
0.0
 10
27.15239428640886
 20
-14.42589986549233
 30
0.0
 10
32.30784404769358
 20
-14.42589986549233
 30
0.0
 10
32.30784404769358
 20
-14.42589986549233
 30
0.0
  0
POLYLINE
  5
85
330
1F
100
AcDbEntity
  8
Layer 1
 62
   250
420
  2301728
370
    35
100
AcDb2dPolyline
 66
     1
 10
0.0
 20
0.0
 30
0.0
  0
VERTEX
  5
86
330
85
100
AcDbEntity
  8
Layer 1
 62
   250
420
  2301728
370
    35
100
AcDbVertex
100
AcDb2dVertex
 10
35.83749011974219
 20
-14.42589986549233
 30
0.0
  0
VERTEX
  5
87
330
85
100
AcDbEntity
  8
Layer 1
 62
   250
420
  2301728
370
    35
100
AcDbVertex
100
AcDb2dVertex
 10
35.83749011974219
 20
-9.348032569485389
 30
0.0
  0
VERTEX
  5
88
330
85
100
AcDbEntity
  8
Layer 1
 62
   250
420
  2301728
370
    35
100
AcDbVertex
100
AcDb2dVertex
 10
32.93887629595747
 20
-9.348032569485389
 30
0.0
  0
VERTEX
  5
89
330
85
100
AcDbEntity
  8
Layer 1
 62
   250
420
  2301728
370
    35
100
AcDbVertex
100
AcDb2dVertex
 10
38.729044210454
 20
-9.348032569485389
 30
0.0
  0
VERTEX
  5
8A
330
85
100
AcDbEntity
  8
Layer 1
 62
   250
420
  2301728
370
    35
100
AcDbVertex
100
AcDb2dVertex
 10
35.83749011974219
 20
-9.348032569485389
 30
0.0
  0
VERTEX
  5
8B
330
85
100
AcDbEntity
  8
Layer 1
 62
   250
420
  2301728
370
    35
100
AcDbVertex
100
AcDb2dVertex
 10
35.83749011974219
 20
-14.42589986549233
 30
0.0
  0
SEQEND
  5
8C
330
85
100
AcDbEntity
  8
Layer 1
 62
   250
420
  2301728
370
    35
  0
SPLINE
  5
8D
330
1F
100
AcDbEntity
  8
Layer 1
 62
   250
420
  2301728
370
    35
100
AcDbSpline
210
0.0
220
0.0
230
1.0
 70
    11
 71
     3
 72
    65
 73
    61
 74
     0
 42
0.0000000001
 43
0.0000000001
 12
1.0
 22
0.0
 32
0.0
 13
1.0
 23
0.0
 33
0.0
 40
0.0
 40
0.0
 40
0.0
 40
0.0
 40
1.0
 40
1.0
 40
1.0
 40
2.0
 40
2.0
 40
2.0
 40
3.0
 40
3.0
 40
3.0
 40
4.0
 40
4.0
 40
4.0
 40
5.0
 40
5.0
 40
5.0
 40
6.0
 40
6.0
 40
6.0
 40
7.0
 40
7.0
 40
7.0
 40
8.0
 40
8.0
 40
8.0
 40
9.0
 40
9.0
 40
9.0
 40
10.0
 40
10.0
 40
10.0
 40
11.0
 40
11.0
 40
11.0
 40
12.0
 40
12.0
 40
12.0
 40
13.0
 40
13.0
 40
13.0
 40
14.0
 40
14.0
 40
14.0
 40
15.0
 40
15.0
 40
15.0
 40
16.0
 40
16.0
 40
16.0
 40
17.0
 40
17.0
 40
17.0
 40
18.0
 40
18.0
 40
18.0
 40
19.0
 40
19.0
 40
19.0
 40
20.0
 40
20.0
 40
20.0
 40
20.0
 10
40.66139013059288
 20
-14.42589986549233
 30
0.0
 10
40.42622845524566
 20
-14.42589986549233
 30
0.0
 10
40.20648832937761
 20
-14.38601000004094
 30
0.0
 10
40.00196630246788
 20
-14.30599969188122
 30
0.0
 10
39.79744427555816
 20
-14.226111454034
 30
0.0
 10
39.61870621132205
 20
-14.11558356774928
 30
0.0
 10
39.46596912364844
 20
-13.97453810333955
 30
0.0
 10
39.31312352903038
 20
-13.83347907556178
 30
0.0
 10
39.19201621566233
 20
-13.67017612417289
 30
0.0
 10
39.10275569048872
 20
-13.48437154517983
 30
0.0
 10
39.01338665837066
 20
-13.29870259986733
 30
0.0
 10
38.96876317746788
 20
-13.1000128212215
 30
0.0
 10
38.96876317746788
 20
-12.88843784292289
 30
0.0
 10
38.96876317746788
 20
-12.88843784292289
 30
0.0
 10
38.96876317746788
 20
-10.88549459205483
 30
0.0
 10
38.96876317746788
 20
-10.88549459205483
 30
0.0
 10
38.96876317746788
 20
-10.67391961375622
 30
0.0
 10
39.01338665837066
 20
-10.47533834205483
 30
0.0
 10
39.10275569048872
 20
-10.28954732642983
 30
0.0
 10
39.19201621566233
 20
-10.10386481774928
 30
0.0
 10
39.31312352903038
 20
-9.940453359415944
 30
0.0
 10
39.46596912364844
 20
-9.799394331638167
 30
0.0
 10
39.61870621132205
 20
-9.658348867228444
 30
0.0
 10
39.79744427555816
 20
-9.547929487888167
 30
0.0
 10
40.00196630246788
 20
-9.467919179728444
 30
0.0
 10
40.20648832937761
 20
-9.388030941881222
 30
0.0
 10
40.42622845524566
 20
-9.348032569485389
 30
0.0
 10
40.66139013059288
 20
-9.348032569485389
 30
0.0
 10
40.66139013059288
 20
-9.348032569485389
 30
0.0
 10
43.91967734847483
 20
-9.348032569485389
 30
0.0
 10
43.91967734847483
 20
-9.348032569485389
 30
0.0
 10
44.14999690142622
 20
-9.348032569485389
 30
0.0
 10
44.36862483111372
 20
-9.388030941881222
 30
0.0
 10
44.57557470090538
 20
-9.467919179728444
 30
0.0
 10
44.78241606375261
 20
-9.547929487888167
 30
0.0
 10
44.96347346392622
 20
-9.658348867228444
 30
0.0
 10
45.11862483111372
 20
-9.799394331638167
 30
0.0
 10
45.27377619830122
 20
-9.940453359415944
 30
0.0
 10
45.39599570784983
 20
-10.10386481774928
 30
0.0
 10
45.48536473996788
 20
-10.28954732642983
 30
0.0
 10
45.5746252651415
 20
-10.47533834205483
 30
0.0
 10
45.61935725298872
 20
-10.67391961375622
 30
0.0
 10
45.61935725298872
 20
-10.88549459205483
 30
0.0
 10
45.61935725298872
 20
-10.88549459205483
 30
0.0
 10
45.61935725298872
 20
-12.88843784292289
 30
0.0
 10
45.61935725298872
 20
-12.88843784292289
 30
0.0
 10
45.61935725298872
 20
-13.1000128212215
 30
0.0
 10
45.5746252651415
 20
-13.29870259986733
 30
0.0
 10
45.48536473996788
 20
-13.48437154517983
 30
0.0
 10
45.39599570784983
 20
-13.67017612417289
 30
0.0
 10
45.27377619830122
 20
-13.83347907556178
 30
0.0
 10
45.11862483111372
 20
-13.97453810333955
 30
0.0
 10
44.96347346392622
 20
-14.11558356774928
 30
0.0
 10
44.78241606375261
 20
-14.226111454034
 30
0.0
 10
44.57557470090538
 20
-14.30599969188122
 30
0.0
 10
44.36862483111372
 20
-14.38601000004094
 30
0.0
 10
44.14999690142622
 20
-14.42589986549233
 30
0.0
 10
43.91967734847483
 20
-14.42589986549233
 30
0.0
 10
43.91967734847483
 20
-14.42589986549233
 30
0.0
 10
40.66139013059288
 20
-14.42589986549233
 30
0.0
 10
40.66139013059288
 20
-14.42589986549233
 30
0.0
  0
SPLINE
  5
8E
330
1F
100
AcDbEntity
  8
Layer 1
 62
   250
420
  2301728
370
    35
100
AcDbSpline
210
0.0
220
0.0
230
1.0
 70
    11
 71
     3
 72
    65
 73
    61
 74
     0
 42
0.0000000001
 43
0.0000000001
 12
1.0
 22
0.0
 32
0.0
 13
1.0
 23
0.0
 33
0.0
 40
0.0
 40
0.0
 40
0.0
 40
0.0
 40
1.0
 40
1.0
 40
1.0
 40
2.0
 40
2.0
 40
2.0
 40
3.0
 40
3.0
 40
3.0
 40
4.0
 40
4.0
 40
4.0
 40
5.0
 40
5.0
 40
5.0
 40
6.0
 40
6.0
 40
6.0
 40
7.0
 40
7.0
 40
7.0
 40
8.0
 40
8.0
 40
8.0
 40
9.0
 40
9.0
 40
9.0
 40
10.0
 40
10.0
 40
10.0
 40
11.0
 40
11.0
 40
11.0
 40
12.0
 40
12.0
 40
12.0
 40
13.0
 40
13.0
 40
13.0
 40
14.0
 40
14.0
 40
14.0
 40
15.0
 40
15.0
 40
15.0
 40
16.0
 40
16.0
 40
16.0
 40
17.0
 40
17.0
 40
17.0
 40
18.0
 40
18.0
 40
18.0
 40
19.0
 40
19.0
 40
19.0
 40
20.0
 40
20.0
 40
20.0
 40
20.0
 10
40.66139013059288
 20
-14.42589986549233
 30
0.0
 10
40.42622845524566
 20
-14.42589986549233
 30
0.0
 10
40.20648832937761
 20
-14.38601000004094
 30
0.0
 10
40.00196630246788
 20
-14.30599969188122
 30
0.0
 10
39.79744427555816
 20
-14.226111454034
 30
0.0
 10
39.61870621132205
 20
-14.11558356774928
 30
0.0
 10
39.46596912364844
 20
-13.97453810333955
 30
0.0
 10
39.31312352903038
 20
-13.83347907556178
 30
0.0
 10
39.19201621566233
 20
-13.67017612417289
 30
0.0
 10
39.10275569048872
 20
-13.48437154517983
 30
0.0
 10
39.01338665837066
 20
-13.29870259986733
 30
0.0
 10
38.96876317746788
 20
-13.1000128212215
 30
0.0
 10
38.96876317746788
 20
-12.88843784292289
 30
0.0
 10
38.96876317746788
 20
-12.88843784292289
 30
0.0
 10
38.96876317746788
 20
-10.88549459205483
 30
0.0
 10
38.96876317746788
 20
-10.88549459205483
 30
0.0
 10
38.96876317746788
 20
-10.67391961375622
 30
0.0
 10
39.01338665837066
 20
-10.47533834205483
 30
0.0
 10
39.10275569048872
 20
-10.28954732642983
 30
0.0
 10
39.19201621566233
 20
-10.10386481774928
 30
0.0
 10
39.31312352903038
 20
-9.940453359415944
 30
0.0
 10
39.46596912364844
 20
-9.799394331638167
 30
0.0
 10
39.61870621132205
 20
-9.658348867228444
 30
0.0
 10
39.79744427555816
 20
-9.547929487888167
 30
0.0
 10
40.00196630246788
 20
-9.467919179728444
 30
0.0
 10
40.20648832937761
 20
-9.388030941881222
 30
0.0
 10
40.42622845524566
 20
-9.348032569485389
 30
0.0
 10
40.66139013059288
 20
-9.348032569485389
 30
0.0
 10
40.66139013059288
 20
-9.348032569485389
 30
0.0
 10
43.91967734847483
 20
-9.348032569485389
 30
0.0
 10
43.91967734847483
 20
-9.348032569485389
 30
0.0
 10
44.14999690142622
 20
-9.348032569485389
 30
0.0
 10
44.36862483111372
 20
-9.388030941881222
 30
0.0
 10
44.57557470090538
 20
-9.467919179728444
 30
0.0
 10
44.78241606375261
 20
-9.547929487888167
 30
0.0
 10
44.96347346392622
 20
-9.658348867228444
 30
0.0
 10
45.11862483111372
 20
-9.799394331638167
 30
0.0
 10
45.27377619830122
 20
-9.940453359415944
 30
0.0
 10
45.39599570784983
 20
-10.10386481774928
 30
0.0
 10
45.48536473996788
 20
-10.28954732642983
 30
0.0
 10
45.5746252651415
 20
-10.47533834205483
 30
0.0
 10
45.61935725298872
 20
-10.67391961375622
 30
0.0
 10
45.61935725298872
 20
-10.88549459205483
 30
0.0
 10
45.61935725298872
 20
-10.88549459205483
 30
0.0
 10
45.61935725298872
 20
-12.88843784292289
 30
0.0
 10
45.61935725298872
 20
-12.88843784292289
 30
0.0
 10
45.61935725298872
 20
-13.1000128212215
 30
0.0
 10
45.5746252651415
 20
-13.29870259986733
 30
0.0
 10
45.48536473996788
 20
-13.48437154517983
 30
0.0
 10
45.39599570784983
 20
-13.67017612417289
 30
0.0
 10
45.27377619830122
 20
-13.83347907556178
 30
0.0
 10
45.11862483111372
 20
-13.97453810333955
 30
0.0
 10
44.96347346392622
 20
-14.11558356774928
 30
0.0
 10
44.78241606375261
 20
-14.226111454034
 30
0.0
 10
44.57557470090538
 20
-14.30599969188122
 30
0.0
 10
44.36862483111372
 20
-14.38601000004094
 30
0.0
 10
44.14999690142622
 20
-14.42589986549233
 30
0.0
 10
43.91967734847483
 20
-14.42589986549233
 30
0.0
 10
43.91967734847483
 20
-14.42589986549233
 30
0.0
 10
40.66139013059288
 20
-14.42589986549233
 30
0.0
 10
40.66139013059288
 20
-14.42589986549233
 30
0.0
  0
SPLINE
  5
8F
330
1F
100
AcDbEntity
  8
Layer 1
 62
   250
420
  2301728
370
    35
100
AcDbSpline
210
0.0
220
0.0
230
1.0
 70
    11
 71
     3
 72
    29
 73
    25
 74
     0
 42
0.0000000001
 43
0.0000000001
 12
1.0
 22
0.0
 32
0.0
 13
1.0
 23
0.0
 33
0.0
 40
0.0
 40
0.0
 40
0.0
 40
0.0
 40
1.0
 40
1.0
 40
1.0
 40
2.0
 40
2.0
 40
2.0
 40
3.0
 40
3.0
 40
3.0
 40
4.0
 40
4.0
 40
4.0
 40
5.0
 40
5.0
 40
5.0
 40
6.0
 40
6.0
 40
6.0
 40
7.0
 40
7.0
 40
7.0
 40
8.0
 40
8.0
 40
8.0
 40
8.0
 10
45.90143461844011
 20
-14.42589986549233
 30
0.0
 10
45.90143461844011
 20
-14.42589986549233
 30
0.0
 10
48.95519980941233
 20
-11.752966922784
 30
0.0
 10
48.95519980941233
 20
-11.752966922784
 30
0.0
 10
48.95519980941233
 20
-11.752966922784
 30
0.0
 10
46.23290977034983
 20
-9.3409796180965
 30
0.0
 10
46.23290977034983
 20
-9.3409796180965
 30
0.0
 10
46.23290977034983
 20
-9.3409796180965
 30
0.0
 10
48.95519980941233
 20
-11.752966922784
 30
0.0
 10
48.95519980941233
 20
-11.752966922784
 30
0.0
 10
48.95519980941233
 20
-11.752966922784
 30
0.0
 10
51.67045046045399
 20
-9.3409796180965
 30
0.0
 10
51.67045046045399
 20
-9.3409796180965
 30
0.0
 10
51.67045046045399
 20
-9.3409796180965
 30
0.0
 10
48.95519980941233
 20
-11.752966922784
 30
0.0
 10
48.95519980941233
 20
-11.752966922784
 30
0.0
 10
48.95519980941233
 20
-11.752966922784
 30
0.0
 10
52.00897856375261
 20
-14.42589986549233
 30
0.0
 10
52.00897856375261
 20
-14.42589986549233
 30
0.0
 10
52.00897856375261
 20
-14.42589986549233
 30
0.0
 10
48.95519980941233
 20
-11.752966922784
 30
0.0
 10
48.95519980941233
 20
-11.752966922784
 30
0.0
 10
48.95519980941233
 20
-11.752966922784
 30
0.0
 10
45.90143461844011
 20
-14.42589986549233
 30
0.0
 10
45.90143461844011
 20
-14.42589986549233
 30
0.0
  0
SPLINE
  5
90
330
1F
100
AcDbEntity
  8
Layer 1
 62
   250
420
  2301728
370
    35
100
AcDbSpline
210
0.0
220
0.0
230
1.0
 70
    11
 71
     3
 72
    53
 73
    49
 74
     0
 42
0.0000000001
 43
0.0000000001
 12
1.0
 22
0.0
 32
0.0
 13
1.0
 23
0.0
 33
0.0
 40
0.0
 40
0.0
 40
0.0
 40
0.0
 40
1.0
 40
1.0
 40
1.0
 40
2.0
 40
2.0
 40
2.0
 40
3.0
 40
3.0
 40
3.0
 40
4.0
 40
4.0
 40
4.0
 40
5.0
 40
5.0
 40
5.0
 40
6.0
 40
6.0
 40
6.0
 40
7.0
 40
7.0
 40
7.0
 40
8.0
 40
8.0
 40
8.0
 40
9.0
 40
9.0
 40
9.0
 40
10.0
 40
10.0
 40
10.0
 40
11.0
 40
11.0
 40
11.0
 40
12.0
 40
12.0
 40
12.0
 40
13.0
 40
13.0
 40
13.0
 40
14.0
 40
14.0
 40
14.0
 40
15.0
 40
15.0
 40
15.0
 40
16.0
 40
16.0
 40
16.0
 40
16.0
 10
22.76286446870052
 20
-19.33586622833955
 30
0.0
 10
22.48796890663455
 20
-19.55286655386039
 30
0.0
 10
22.12626778901302
 20
-19.66137349830483
 30
0.0
 10
21.6778492777283
 20
-19.66137349830483
 30
0.0
 10
21.13890206635677
 20
-19.66137349830483
 30
0.0
 10
20.72210654769358
 20
-19.50132575524928
 30
0.0
 10
20.42736777816233
 20
-19.18125739587428
 30
0.0
 10
20.13255441010677
 20
-18.86117547313122
 30
0.0
 10
19.98522910628733
 20
-18.35393263458955
 30
0.0
 10
19.98522910628733
 20
-17.65951531688122
 30
0.0
 10
19.98522910628733
 20
-16.96876010854789
 30
0.0
 10
20.13255441010677
 20
-16.462439579034
 30
0.0
 10
20.42736777816233
 20
-16.14049947486733
 30
0.0
 10
20.72210654769358
 20
-15.818640750909
 30
0.0
 10
21.13890206635677
 20
-15.65767069882567
 30
0.0
 10
21.6778492777283
 20
-15.65767069882567
 30
0.0
 10
22.0648121683533
 20
-15.65767069882567
 30
0.0
 10
22.38853585541927
 20
-15.73903734379094
 30
0.0
 10
22.64893895871788
 20
-15.90179776045761
 30
0.0
 10
22.9093420620165
 20
-16.06454461375622
 30
0.0
 10
23.09922243311025
 20
-16.32139411462428
 30
0.0
 10
23.21857329031511
 20
-16.672156375909
 30
0.0
 10
23.09922243311025
 20
-16.32139411462428
 30
0.0
 10
22.9093420620165
 20
-16.06454461375622
 30
0.0
 10
22.64893895871788
 20
-15.90179776045761
 30
0.0
 10
22.38853585541927
 20
-15.73903734379094
 30
0.0
 10
22.0648121683533
 20
-15.65767069882567
 30
0.0
 10
21.6778492777283
 20
-15.65767069882567
 30
0.0
 10
21.13890206635677
 20
-15.65767069882567
 30
0.0
 10
20.72210654769358
 20
-15.818640750909
 30
0.0
 10
20.42736777816233
 20
-16.14049947486733
 30
0.0
 10
20.13255441010677
 20
-16.462439579034
 30
0.0
 10
19.98522910628733
 20
-16.96876010854789
 30
0.0
 10
19.98522910628733
 20
-17.65951531688122
 30
0.0
 10
19.98522910628733
 20
-18.35393263458955
 30
0.0
 10
20.13255441010677
 20
-18.86117547313122
 30
0.0
 10
20.42736777816233
 20
-19.18125739587428
 30
0.0
 10
20.72210654769358
 20
-19.50132575524928
 30
0.0
 10
21.13890206635677
 20
-19.66137349830483
 30
0.0
 10
21.6778492777283
 20
-19.66137349830483
 30
0.0
 10
22.12626778901302
 20
-19.66137349830483
 30
0.0
 10
22.48796890663455
 20
-19.55286655386039
 30
0.0
 10
22.76286446870052
 20
-19.33586622833955
 30
0.0
 10
23.03767865055816
 20
-19.11886590281872
 30
0.0
 10
23.21857329031511
 20
-18.7753057899715
 30
0.0
 10
23.30537206418663
 20
-18.30510450958955
 30
0.0
 10
23.21857329031511
 20
-18.7753057899715
 30
0.0
 10
23.03767865055816
 20
-19.11886590281872
 30
0.0
 10
22.76286446870052
 20
-19.33586622833955
 30
0.0
  0
SPLINE
  5
91
330
1F
100
AcDbEntity
  8
Layer 1
 62
   250
420
  2301728
370
    35
100
AcDbSpline
210
0.0
220
0.0
230
1.0
 70
    11
 71
     3
 72
    23
 73
    19
 74
     0
 42
0.0000000001
 43
0.0000000001
 12
1.0
 22
0.0
 32
0.0
 13
1.0
 23
0.0
 33
0.0
 40
0.0
 40
0.0
 40
0.0
 40
0.0
 40
1.0
 40
1.0
 40
1.0
 40
2.0
 40
2.0
 40
2.0
 40
3.0
 40
3.0
 40
3.0
 40
4.0
 40
4.0
 40
4.0
 40
5.0
 40
5.0
 40
5.0
 40
6.0
 40
6.0
 40
6.0
 40
6.0
 10
28.73038020220747
 20
-19.61797072052705
 30
0.0
 10
28.73038020220747
 20
-19.61797072052705
 30
0.0
 10
26.20229046696441
 20
-19.61797072052705
 30
0.0
 10
26.20229046696441
 20
-19.61797072052705
 30
0.0
 10
26.20229046696441
 20
-19.61797072052705
 30
0.0
 10
26.20229046696441
 20
-15.7281866493465
 30
0.0
 10
26.20229046696441
 20
-15.7281866493465
 30
0.0
 10
26.20229046696441
 20
-15.7281866493465
 30
0.0
 10
28.73038020220747
 20
-15.7281866493465
 30
0.0
 10
28.73038020220747
 20
-15.7281866493465
 30
0.0
 10
28.73038020220747
 20
-15.7281866493465
 30
0.0
 10
26.20229046696441
 20
-15.7281866493465
 30
0.0
 10
26.20229046696441
 20
-15.7281866493465
 30
0.0
 10
26.20229046696441
 20
-15.7281866493465
 30
0.0
 10
26.20229046696441
 20
-19.61797072052705
 30
0.0
 10
26.20229046696441
 20
-19.61797072052705
 30
0.0
 10
26.20229046696441
 20
-19.61797072052705
 30
0.0
 10
28.73038020220747
 20
-19.61797072052705
 30
0.0
 10
28.73038020220747
 20
-19.61797072052705
 30
0.0
  0
SPLINE
  5
92
330
1F
100
AcDbEntity
  8
Layer 1
 62
   250
420
  2301728
370
    35
100
AcDbSpline
210
0.0
220
0.0
230
1.0
 70
    27
 71
     3
 72
    11
 73
     7
 74
     0
 42
0.0000000001
 43
0.0000000001
 12
1.0
 22
0.0
 32
0.0
 13
1.0
 23
0.0
 33
0.0
 40
0.0
 40
0.0
 40
0.0
 40
0.0
 40
1.0
 40
1.0
 40
1.0
 40
2.0
 40
2.0
 40
2.0
 40
2.0
 10
26.20229046696441
 20
-17.4995399970929
 30
0.0
 10
26.20229046696441
 20
-17.4995399970929
 30
0.0
 10
28.73038020220747
 20
-17.4995399970929
 30
0.0
 10
28.73038020220747
 20
-17.4995399970929
 30
0.0
 10
28.73038020220747
 20
-17.4995399970929
 30
0.0
 10
26.20229046696441
 20
-17.4995399970929
 30
0.0
 10
26.20229046696441
 20
-17.4995399970929
 30
0.0
  0
SPLINE
  5
93
330
1F
100
AcDbEntity
  8
Layer 1
 62
   250
420
  2301728
370
    35
100
AcDbSpline
210
0.0
220
0.0
230
1.0
 70
    11
 71
     3
 72
    23
 73
    19
 74
     0
 42
0.0000000001
 43
0.0000000001
 12
1.0
 22
0.0
 32
0.0
 13
1.0
 23
0.0
 33
0.0
 40
0.0
 40
0.0
 40
0.0
 40
0.0
 40
1.0
 40
1.0
 40
1.0
 40
2.0
 40
2.0
 40
2.0
 40
3.0
 40
3.0
 40
3.0
 40
4.0
 40
4.0
 40
4.0
 40
5.0
 40
5.0
 40
5.0
 40
6.0
 40
6.0
 40
6.0
 40
6.0
 10
31.61647503727691
 20
-19.61797072052705
 30
0.0
 10
31.61647503727691
 20
-19.61797072052705
 30
0.0
 10
31.61647503727691
 20
-15.70648526045761
 30
0.0
 10
31.61647503727691
 20
-15.70648526045761
 30
0.0
 10
31.61647503727691
 20
-15.70648526045761
 30
0.0
 10
34.40496787581858
 20
-19.61797072052705
 30
0.0
 10
34.40496787581858
 20
-19.61797072052705
 30
0.0
 10
34.40496787581858
 20
-19.61797072052705
 30
0.0
 10
34.40496787581858
 20
-15.70648526045761
 30
0.0
 10
34.40496787581858
 20
-15.70648526045761
 30
0.0
 10
34.40496787581858
 20
-15.70648526045761
 30
0.0
 10
34.40496787581858
 20
-19.61797072052705
 30
0.0
 10
34.40496787581858
 20
-19.61797072052705
 30
0.0
 10
34.40496787581858
 20
-19.61797072052705
 30
0.0
 10
31.61647503727691
 20
-15.70648526045761
 30
0.0
 10
31.61647503727691
 20
-15.70648526045761
 30
0.0
 10
31.61647503727691
 20
-15.70648526045761
 30
0.0
 10
31.61647503727691
 20
-19.61797072052705
 30
0.0
 10
31.61647503727691
 20
-19.61797072052705
 30
0.0
  0
POLYLINE
  5
94
330
1F
100
AcDbEntity
  8
Layer 1
 62
   250
420
  2301728
370
    35
100
AcDb2dPolyline
 66
     1
 10
0.0
 20
0.0
 30
0.0
  0
VERTEX
  5
95
330
94
100
AcDbEntity
  8
Layer 1
 62
   250
420
  2301728
370
    35
100
AcDbVertex
100
AcDb2dVertex
 10
39.05962418007205
 20
-19.61797072052705
 30
0.0
  0
VERTEX
  5
96
330
94
100
AcDbEntity
  8
Layer 1
 62
   250
420
  2301728
370
    35
100
AcDbVertex
100
AcDb2dVertex
 10
39.05962418007205
 20
-15.70648526045761
 30
0.0
  0
VERTEX
  5
97
330
94
100
AcDbEntity
  8
Layer 1
 62
   250
420
  2301728
370
    35
100
AcDbVertex
100
AcDb2dVertex
 10
37.65452706635677
 20
-15.70648526045761
 30
0.0
  0
VERTEX
  5
98
330
94
100
AcDbEntity
  8
Layer 1
 62
   250
420
  2301728
370
    35
100
AcDbVertex
100
AcDb2dVertex
 10
40.47555842486372
 20
-15.70648526045761
 30
0.0
  0
VERTEX
  5
99
330
94
100
AcDbEntity
  8
Layer 1
 62
   250
420
  2301728
370
    35
100
AcDbVertex
100
AcDb2dVertex
 10
39.05962418007205
 20
-15.70648526045761
 30
0.0
  0
VERTEX
  5
9A
330
94
100
AcDbEntity
  8
Layer 1
 62
   250
420
  2301728
370
    35
100
AcDbVertex
100
AcDb2dVertex
 10
39.05962418007205
 20
-19.61797072052705
 30
0.0
  0
SEQEND
  5
9B
330
94
100
AcDbEntity
  8
Layer 1
 62
   250
420
  2301728
370
    35
  0
SPLINE
  5
9C
330
1F
100
AcDbEntity
  8
Layer 1
 62
   250
420
  2301728
370
    35
100
AcDbSpline
210
0.0
220
0.0
230
1.0
 70
    11
 71
     3
 72
    23
 73
    19
 74
     0
 42
0.0000000001
 43
0.0000000001
 12
1.0
 22
0.0
 32
0.0
 13
1.0
 23
0.0
 33
0.0
 40
0.0
 40
0.0
 40
0.0
 40
0.0
 40
1.0
 40
1.0
 40
1.0
 40
2.0
 40
2.0
 40
2.0
 40
3.0
 40
3.0
 40
3.0
 40
4.0
 40
4.0
 40
4.0
 40
5.0
 40
5.0
 40
5.0
 40
6.0
 40
6.0
 40
6.0
 40
6.0
 10
46.09042658892622
 20
-19.61797072052705
 30
0.0
 10
46.09042658892622
 20
-19.61797072052705
 30
0.0
 10
43.56235041705122
 20
-19.61797072052705
 30
0.0
 10
43.56235041705122
 20
-19.61797072052705
 30
0.0
 10
43.56235041705122
 20
-19.61797072052705
 30
0.0
 10
43.56235041705122
 20
-15.7281866493465
 30
0.0
 10
43.56235041705122
 20
-15.7281866493465
 30
0.0
 10
43.56235041705122
 20
-15.7281866493465
 30
0.0
 10
46.09042658892622
 20
-15.7281866493465
 30
0.0
 10
46.09042658892622
 20
-15.7281866493465
 30
0.0
 10
46.09042658892622
 20
-15.7281866493465
 30
0.0
 10
43.56235041705122
 20
-15.7281866493465
 30
0.0
 10
43.56235041705122
 20
-15.7281866493465
 30
0.0
 10
43.56235041705122
 20
-15.7281866493465
 30
0.0
 10
43.56235041705122
 20
-19.61797072052705
 30
0.0
 10
43.56235041705122
 20
-19.61797072052705
 30
0.0
 10
43.56235041705122
 20
-19.61797072052705
 30
0.0
 10
46.09042658892622
 20
-19.61797072052705
 30
0.0
 10
46.09042658892622
 20
-19.61797072052705
 30
0.0
  0
SPLINE
  5
9D
330
1F
100
AcDbEntity
  8
Layer 1
 62
   250
420
  2301728
370
    35
100
AcDbSpline
210
0.0
220
0.0
230
1.0
 70
    11
 71
     3
 72
    71
 73
    67
 74
     0
 42
0.0000000001
 43
0.0000000001
 12
1.0
 22
0.0
 32
0.0
 13
1.0
 23
0.0
 33
0.0
 40
0.0
 40
0.0
 40
0.0
 40
0.0
 40
1.0
 40
1.0
 40
1.0
 40
2.0
 40
2.0
 40
2.0
 40
3.0
 40
3.0
 40
3.0
 40
4.0
 40
4.0
 40
4.0
 40
5.0
 40
5.0
 40
5.0
 40
6.0
 40
6.0
 40
6.0
 40
7.0
 40
7.0
 40
7.0
 40
8.0
 40
8.0
 40
8.0
 40
9.0
 40
9.0
 40
9.0
 40
10.0
 40
10.0
 40
10.0
 40
11.0
 40
11.0
 40
11.0
 40
12.0
 40
12.0
 40
12.0
 40
13.0
 40
13.0
 40
13.0
 40
14.0
 40
14.0
 40
14.0
 40
15.0
 40
15.0
 40
15.0
 40
16.0
 40
16.0
 40
16.0
 40
17.0
 40
17.0
 40
17.0
 40
18.0
 40
18.0
 40
18.0
 40
19.0
 40
19.0
 40
19.0
 40
20.0
 40
20.0
 40
20.0
 40
21.0
 40
21.0
 40
21.0
 40
22.0
 40
22.0
 40
22.0
 40
22.0
 10
48.97654855073177
 20
-19.61797072052705
 30
0.0
 10
48.97654855073177
 20
-19.61797072052705
 30
0.0
 10
48.97654855073177
 20
-15.70648526045761
 30
0.0
 10
48.97654855073177
 20
-15.70648526045761
 30
0.0
 10
48.97654855073177
 20
-15.70648526045761
 30
0.0
 10
50.40333348996788
 20
-15.70648526045761
 30
0.0
 10
50.40333348996788
 20
-15.70648526045761
 30
0.0
 10
50.65288589882205
 20
-15.70648526045761
 30
0.0
 10
50.85633641965538
 20
-15.72734572052705
 30
0.0
 10
51.01365792573177
 20
-15.76887675351317
 30
0.0
 10
51.17099299517622
 20
-15.81050273007567
 30
0.0
 10
51.29482654552344
 20
-15.86924567712428
 30
0.0
 10
51.38528064708594
 20
-15.94520053823539
 30
0.0
 10
51.47563980507205
 20
-16.02114183597844
 30
0.0
 10
51.53895360715538
 20
-16.11251824656872
 30
0.0
 10
51.57515423649566
 20
-16.21916700958955
 30
0.0
 10
51.61125992225955
 20
-16.32588358945067
 30
0.0
 10
51.63296131114844
 20
-16.44430535594372
 30
0.0
 10
51.64025840316233
 20
-16.574500125909
 30
0.0
 10
51.64381200559288
 20
-16.70470845924233
 30
0.0
 10
51.62940770871788
 20
-16.83312642799233
 30
0.0
 10
51.59685562538455
 20
-16.95968621531872
 30
0.0
 10
51.56430354205122
 20
-17.08632738285344
 30
0.0
 10
51.50462472260677
 20
-17.19838792972844
 30
0.0
 10
51.41783273041927
 20
-17.29604417972844
 30
0.0
 10
51.33102717486372
 20
-17.39368686636039
 30
0.0
 10
51.21345990055816
 20
-17.47235440108261
 30
0.0
 10
51.06519872434288
 20
-17.53203322052705
 30
0.0
 10
50.91685616791927
 20
-17.59169847660344
 30
0.0
 10
50.73240792573177
 20
-17.62153788632567
 30
0.0
 10
50.51184043441233
 20
-17.62153788632567
 30
0.0
 10
50.51184043441233
 20
-17.62153788632567
 30
0.0
 10
48.97654855073177
 20
-17.62153788632567
 30
0.0
 10
48.97654855073177
 20
-17.62153788632567
 30
0.0
 10
48.97654855073177
 20
-17.62153788632567
 30
0.0
 10
50.51184043441233
 20
-17.62153788632567
 30
0.0
 10
50.51184043441233
 20
-17.62153788632567
 30
0.0
 10
50.72884075993316
 20
-17.62153788632567
 30
0.0
 10
50.91058989187761
 20
-17.59169847660344
 30
0.0
 10
51.05706070350955
 20
-17.53203322052705
 30
0.0
 10
51.20353151514149
 20
-17.47235440108261
 30
0.0
 10
51.32103097260677
 20
-17.39368686636039
 30
0.0
 10
51.40969470958594
 20
-17.29604417972844
 30
0.0
 10
51.49827706635677
 20
-17.19838792972844
 30
0.0
 10
51.55973268701649
 20
-17.08632738285344
 30
0.0
 10
51.59414295177344
 20
-16.95968621531872
 30
0.0
 10
51.62847183632205
 20
-16.83312642799233
 30
0.0
 10
51.64381200559288
 20
-16.70470845924233
 30
0.0
 10
51.64025840316233
 20
-16.574500125909
 30
0.0
 10
51.63296131114844
 20
-16.44430535594372
 30
0.0
 10
51.61041899344011
 20
-16.32588358945067
 30
0.0
 10
51.57244156288455
 20
-16.21916700958955
 30
0.0
 10
51.53446413232899
 20
-16.11251824656872
 30
0.0
 10
51.46935996566233
 20
-16.02114183597844
 30
0.0
 10
51.37714262625261
 20
-15.94520053823539
 30
0.0
 10
51.28491172347483
 20
-15.86924567712428
 30
0.0
 10
51.16014230073177
 20
-15.81050273007567
 30
0.0
 10
51.00280723128733
 20
-15.76887675351317
 30
0.0
 10
50.84548572521094
 20
-15.72734572052705
 30
0.0
 10
50.64560237017622
 20
-15.70648526045761
 30
0.0
 10
50.40333348996788
 20
-15.70648526045761
 30
0.0
 10
50.40333348996788
 20
-15.70648526045761
 30
0.0
 10
48.97654855073177
 20
-15.70648526045761
 30
0.0
 10
48.97654855073177
 20
-15.70648526045761
 30
0.0
 10
48.97654855073177
 20
-15.70648526045761
 30
0.0
 10
48.97654855073177
 20
-19.61797072052705
 30
0.0
 10
48.97654855073177
 20
-19.61797072052705
 30
0.0
  0
SPLINE
  5
9E
330
1F
100
AcDbEntity
  8
Layer 1
 62
   250
420
  2301728
370
    35
100
AcDbSpline
210
0.0
220
0.0
230
1.0
 70
    11
 71
     3
 72
    35
 73
    31
 74
     0
 42
0.0000000001
 43
0.0000000001
 12
1.0
 22
0.0
 32
0.0
 13
1.0
 23
0.0
 33
0.0
 40
0.0
 40
0.0
 40
0.0
 40
0.0
 40
1.0
 40
1.0
 40
1.0
 40
2.0
 40
2.0
 40
2.0
 40
3.0
 40
3.0
 40
3.0
 40
4.0
 40
4.0
 40
4.0
 40
5.0
 40
5.0
 40
5.0
 40
6.0
 40
6.0
 40
6.0
 40
7.0
 40
7.0
 40
7.0
 40
8.0
 40
8.0
 40
8.0
 40
9.0
 40
9.0
 40
9.0
 40
10.0
 40
10.0
 40
10.0
 40
10.0
 10
51.75960247868316
 20
-19.61797072052705
 30
0.0
 10
51.70536256982899
 20
-19.57821648875622
 30
0.0
 10
51.66916194048872
 20
-19.52761156254094
 30
0.0
 10
51.65110909760677
 20
-19.46607456167289
 30
0.0
 10
51.63296131114844
 20
-19.40461894101317
 30
0.0
 10
51.62398236149566
 20
-19.35756761722844
 30
0.0
 10
51.62398236149566
 20
-19.32501553389511
 30
0.0
 10
51.62398236149566
 20
-19.32501553389511
 30
0.0
 10
51.52632611149566
 20
-18.33765659292289
 30
0.0
 10
51.52632611149566
 20
-18.33765659292289
 30
0.0
 10
51.50819188840538
 20
-18.12429125004094
 30
0.0
 10
51.42325807764149
 20
-17.95162957469372
 30
0.0
 10
51.27134835541927
 20
-17.81956305993678
 30
0.0
 10
51.11945219656511
 20
-17.68757792538817
 30
0.0
 10
50.89160117659983
 20
-17.62153788632567
 30
0.0
 10
50.58779529552344
 20
-17.62153788632567
 30
0.0
 10
50.89160117659983
 20
-17.62153788632567
 30
0.0
 10
51.11945219656511
 20
-17.68757792538817
 30
0.0
 10
51.27134835541927
 20
-17.81956305993678
 30
0.0
 10
51.42325807764149
 20
-17.95162957469372
 30
0.0
 10
51.50819188840538
 20
-18.12429125004094
 30
0.0
 10
51.52632611149566
 20
-18.33765659292289
 30
0.0
 10
51.52632611149566
 20
-18.33765659292289
 30
0.0
 10
51.62398236149566
 20
-19.32501553389511
 30
0.0
 10
51.62398236149566
 20
-19.32501553389511
 30
0.0
 10
51.62398236149566
 20
-19.35756761722844
 30
0.0
 10
51.63296131114844
 20
-19.40461894101317
 30
0.0
 10
51.65110909760677
 20
-19.46607456167289
 30
0.0
 10
51.66916194048872
 20
-19.52761156254094
 30
0.0
 10
51.70536256982899
 20
-19.57821648875622
 30
0.0
 10
51.75960247868316
 20
-19.61797072052705
 30
0.0
  0
SPLINE
  5
9F
330
1F
100
AcDbEntity
  8
Layer 1
 62
   250
420
  2301728
370
    35
100
AcDbSpline
210
0.0
220
0.0
230
1.0
 70
    27
 71
     3
 72
    11
 73
     7
 74
     0
 42
0.0000000001
 43
0.0000000001
 12
1.0
 22
0.0
 32
0.0
 13
1.0
 23
0.0
 33
0.0
 40
0.0
 40
0.0
 40
0.0
 40
0.0
 40
1.0
 40
1.0
 40
1.0
 40
2.0
 40
2.0
 40
2.0
 40
2.0
 10
43.57335964935429
 20
-17.4995399970929
 30
0.0
 10
43.57335964935429
 20
-17.4995399970929
 30
0.0
 10
46.10144938459734
 20
-17.4995399970929
 30
0.0
 10
46.10144938459734
 20
-17.4995399970929
 30
0.0
 10
46.10144938459734
 20
-17.4995399970929
 30
0.0
 10
43.57335964935429
 20
-17.4995399970929
 30
0.0
 10
43.57335964935429
 20
-17.4995399970929
 30
0.0
  0
SPLINE
  5
A0
330
1F
100
AcDbEntity
  8
Layer 1
 62
   250
420
  2301728
370
    35
100
AcDbSpline
210
0.0
220
0.0
230
1.0
 70
    27
 71
     3
 72
    11
 73
     7
 74
     0
 42
0.0000000001
 43
0.0000000001
 12
1.0
 22
0.0
 32
0.0
 13
1.0
 23
0.0
 33
0.0
 40
0.0
 40
0.0
 40
0.0
 40
0.0
 40
1.0
 40
1.0
 40
1.0
 40
2.0
 40
2.0
 40
2.0
 40
2.0
 10
40.31370675385677
 20
-6.25111232413691
 30
0.0
 10
40.31370675385677
 20
-6.25111232413691
 30
0.0
 10
42.48786039969011
 20
-6.25111232413691
 30
0.0
 10
42.48786039969011
 20
-6.25111232413691
 30
0.0
 10
42.48786039969011
 20
-6.25111232413691
 30
0.0
 10
40.31370675385677
 20
-6.25111232413691
 30
0.0
 10
40.31370675385677
 20
-6.25111232413691
 30
0.0
  0
SPLINE
  5
A1
330
1F
100
AcDbEntity
  8
Layer 1
 62
   250
420
  2301728
370
    35
100
AcDbSpline
210
0.0
220
0.0
230
1.0
 70
    11
 71
     3
 72
    23
 73
    19
 74
     0
 42
0.0000000001
 43
0.0000000001
 12
1.0
 22
0.0
 32
0.0
 13
1.0
 23
0.0
 33
0.0
 40
0.0
 40
0.0
 40
0.0
 40
0.0
 40
1.0
 40
1.0
 40
1.0
 40
2.0
 40
2.0
 40
2.0
 40
3.0
 40
3.0
 40
3.0
 40
4.0
 40
4.0
 40
4.0
 40
5.0
 40
5.0
 40
5.0
 40
6.0
 40
6.0
 40
6.0
 40
6.0
 10
42.50036173043566
 20
-7.979405281051791
 30
0.0
 10
42.50036173043566
 20
-7.979405281051791
 30
0.0
 10
40.31370675385677
 20
-7.979405281051791
 30
0.0
 10
40.31370675385677
 20
-7.979405281051791
 30
0.0
 10
40.31370675385677
 20
-7.979405281051791
 30
0.0
 10
40.31370675385677
 20
-4.614943485284003
 30
0.0
 10
40.31370675385677
 20
-4.614943485284003
 30
0.0
 10
40.31370675385677
 20
-4.614943485284003
 30
0.0
 10
42.50036173043566
 20
-4.614943485284003
 30
0.0
 10
42.50036173043566
 20
-4.614943485284003
 30
0.0
 10
42.50036173043566
 20
-4.614943485284003
 30
0.0
 10
40.31370675385677
 20
-4.614943485284003
 30
0.0
 10
40.31370675385677
 20
-4.614943485284003
 30
0.0
 10
40.31370675385677
 20
-4.614943485284003
 30
0.0
 10
40.31370675385677
 20
-7.979405281051791
 30
0.0
 10
40.31370675385677
 20
-7.979405281051791
 30
0.0
 10
40.31370675385677
 20
-7.979405281051791
 30
0.0
 10
42.50036173043566
 20
-7.979405281051791
 30
0.0
 10
42.50036173043566
 20
-7.979405281051791
 30
0.0
  0
ENDSEC
  0
SECTION
  2
OBJECTS
  0
DICTIONARY
  5
C
330
0
100
AcDbDictionary
281
     1
  3
ACAD_GROUP
350
D
  3
ACAD_LAYOUT
350
1A
  3
ACAD_MATERIAL
350
3B
  3
ACAD_MLEADERSTYLE
350
A3
  3
ACAD_MLINESTYLE
350
17
  3
ACAD_PLOTSETTINGS
350
19
  3
ACAD_PLOTSTYLENAME
350
E
  3
ACAD_TABLESTYLE
350
A2
  3
ACAD_VISUALSTYLE
350
2A
  0
SUN
  5
3F
330
29
100
AcDbSun
 90
        1
290
     0
 63
     7
421
 16777215
 40
1.0
291
     1
 91
  2455826
 92
 54000000
292
     0
 70
     2
 71
   256
280
     1
  0
DICTIONARY
  5
D
102
{ACAD_REACTORS
330
C
102
}
330
C
100
AcDbDictionary
281
     1
  0
DICTIONARY
  5
1A
102
{ACAD_REACTORS
330
C
102
}
330
C
100
AcDbDictionary
281
     1
  3
Layout1
350
1E
  3
Layout2
350
26
  3
Model
350
22
  0
DICTIONARY
  5
3B
102
{ACAD_REACTORS
330
C
102
}
330
C
100
AcDbDictionary
281
     1
  3
ByBlock
350
3D
  3
ByLayer
350
3C
  3
Global
350
3E
  0
DICTIONARY
  5
A3
102
{ACAD_REACTORS
330
C
102
}
330
C
100
AcDbDictionary
281
     1
  0
DICTIONARY
  5
17
102
{ACAD_REACTORS
330
C
102
}
330
C
100
AcDbDictionary
281
     1
  3
Standard
350
18
  0
DICTIONARY
  5
19
102
{ACAD_REACTORS
330
C
102
}
330
C
100
AcDbDictionary
281
     1
  0
ACDBDICTIONARYWDFLT
  5
E
102
{ACAD_REACTORS
330
C
102
}
330
C
100
AcDbDictionary
281
     1
  3
Normal
350
F
100
AcDbDictionaryWithDefault
340
F
  0
DICTIONARY
  5
A2
102
{ACAD_REACTORS
330
C
102
}
330
C
100
AcDbDictionary
281
     1
  0
DICTIONARY
  5
2A
102
{ACAD_REACTORS
330
C
102
}
330
C
100
AcDbDictionary
281
     1
  3
2dWireframe
350
2F
  3
3D Hidden
350
31
  3
3dWireframe
350
30
  3
Basic
350
32
  3
Brighten
350
36
  3
ColorChange
350
3A
  3
Conceptual
350
34
  3
Dim
350
35
  3
Facepattern
350
39
  3
Flat
350
2B
  3
FlatWithEdges
350
2C
  3
Gouraud
350
2D
  3
GouraudWithEdges
350
2E
  3
Linepattern
350
38
  3
Realistic
350
33
  3
Thicken
350
37
  0
LAYOUT
  5
1E
102
{ACAD_REACTORS
330
1A
102
}
330
1A
100
AcDbPlotSettings
  1

  2
none_device
  4

  6

 40
0.0
 41
0.0
 42
0.0
 43
0.0
 44
0.0
 45
0.0
 46
0.0
 47
0.0
 48
0.0
 49
0.0
140
0.0
141
0.0
142
1.0
143
1.0
 70
   688
 72
     0
 73
     0
 74
     5
  7

 75
    16
 76
     0
 77
     2
 78
   300
147
1.0
148
0.0
149
0.0
100
AcDbLayout
  1
Layout1
 70
     1
 71
     1
 10
0.0
 20
0.0
 11
12.0
 21
9.0
 12
0.0
 22
0.0
 32
0.0
 14
1.000000000000000E+20
 24
1.000000000000000E+20
 34
1.000000000000000E+20
 15
-1.000000000000000E+20
 25
-1.000000000000000E+20
 35
-1.000000000000000E+20
146
0.0
 13
0.0
 23
0.0
 33
0.0
 16
1.0
 26
0.0
 36
0.0
 17
0.0
 27
1.0
 37
0.0
 76
     0
330
1B
  0
LAYOUT
  5
26
102
{ACAD_REACTORS
330
1A
102
}
330
1A
100
AcDbPlotSettings
  1

  2
none_device
  4

  6

 40
0.0
 41
0.0
 42
0.0
 43
0.0
 44
0.0
 45
0.0
 46
0.0
 47
0.0
 48
0.0
 49
0.0
140
0.0
141
0.0
142
1.0
143
1.0
 70
   688
 72
     0
 73
     0
 74
     5
  7

 75
    16
 76
     0
 77
     2
 78
   300
147
1.0
148
0.0
149
0.0
100
AcDbLayout
  1
Layout2
 70
     1
 71
     2
 10
0.0
 20
0.0
 11
0.0
 21
0.0
 12
0.0
 22
0.0
 32
0.0
 14
0.0
 24
0.0
 34
0.0
 15
0.0
 25
0.0
 35
0.0
146
0.0
 13
0.0
 23
0.0
 33
0.0
 16
1.0
 26
0.0
 36
0.0
 17
0.0
 27
1.0
 37
0.0
 76
     0
330
23
  0
LAYOUT
  5
22
102
{ACAD_REACTORS
330
1A
102
}
330
1A
100
AcDbPlotSettings
  1

  2
none_device
  4

  6

 40
0.0
 41
0.0
 42
0.0
 43
0.0
 44
0.0
 45
0.0
 46
0.0
 47
0.0
 48
0.0
 49
0.0
140
0.0
141
0.0
142
1.0
143
1.0
 70
  1712
 72
     0
 73
     0
 74
     0
  7

 75
     0
 76
     0
 77
     2
 78
   300
147
1.0
148
0.0
149
0.0
100
AcDbLayout
  1
Model
 70
     1
 71
     0
 10
0.0
 20
0.0
 11
12.0
 21
9.0
 12
0.0
 22
0.0
 32
0.0
 14
1.000000000000000E+20
 24
1.000000000000000E+20
 34
1.000000000000000E+20
 15
-1.000000000000000E+20
 25
-1.000000000000000E+20
 35
-1.000000000000000E+20
146
0.0
 13
0.0
 23
0.0
 33
0.0
 16
1.0
 26
0.0
 36
0.0
 17
0.0
 27
1.0
 37
0.0
 76
     0
330
1F
331
29
  0
MATERIAL
  5
3D
102
{ACAD_REACTORS
330
3B
102
}
330
3B
100
AcDbMaterial
  1
ByBlock
 72
     1
 94
      127
  0
MATERIAL
  5
3C
102
{ACAD_REACTORS
330
3B
102
}
330
3B
100
AcDbMaterial
  1
ByLayer
 72
     1
 94
      127
  0
MATERIAL
  5
3E
102
{ACAD_REACTORS
330
3B
102
}
330
3B
100
AcDbMaterial
  1
Global
 72
     1
 94
      127
  0
MLINESTYLE
  5
18
102
{ACAD_REACTORS
330
17
102
}
330
17
100
AcDbMlineStyle
  2
Standard
 70
     0
  3

 62
   256
 51
90.0
 52
90.0
 71
     2
 49
0.5
 62
   256
  6
BYLAYER
 49
-0.5
 62
   256
  6
BYLAYER
  0
ACDBPLACEHOLDER
  5
F
102
{ACAD_REACTORS
330
E
102
}
330
E
  0
VISUALSTYLE
  5
2F
102
{ACAD_REACTORS
330
2A
102
}
330
2A
100
AcDbVisualStyle
  2
2dWireframe
 70
     4
177
     2
291
     0
 71
     0
176
     1
 72
     2
176
     1
 73
     0
176
     1
 90
        0
176
     1
 40
-0.6
176
     1
 41
-30.0
176
     1
 62
     5
 63
     7
421
 16777215
176
     1
 74
     1
176
     1
 91
        4
176
     1
 64
     7
176
     1
 65
   257
176
     1
 75
     1
176
     1
175
     1
176
     1
 42
1.0
176
     1
 92
        0
176
     1
 66
   257
176
     1
 43
1.0
176
     1
 76
     1
176
     1
 77
     6
176
     1
 78
     2
176
     1
 67
     7
176
     1
 79
     5
176
     1
170
     0
176
     1
171
     0
176
     1
290
     0
176
     1
 93
        1
176
     1
 44
0.0
176
     1
173
     0
176
     1
  0
VISUALSTYLE
  5
31
102
{ACAD_REACTORS
330
2A
102
}
330
2A
100
AcDbVisualStyle
  2
3D Hidden
 70
     6
177
     2
291
     0
 71
     1
176
     1
 72
     2
176
     1
 73
     2
176
     1
 90
        0
176
     1
 40
-0.6
176
     1
 41
-30.0
176
     1
 62
     5
 63
     7
421
 16777215
176
     1
 74
     2
176
     1
 91
        2
176
     1
 64
     7
176
     1
 65
   257
176
     1
 75
     2
176
     1
175
     1
176
     1
 42
40.0
176
     1
 92
        0
176
     1
 66
   257
176
     1
 43
1.0
176
     1
 76
     1
176
     1
 77
     6
176
     1
 78
     2
176
     1
 67
     7
176
     1
 79
     3
176
     1
170
     0
176
     1
171
     0
176
     1
290
     0
176
     1
 93
        1
176
     1
 44
0.0
176
     1
173
     0
176
     1
  0
VISUALSTYLE
  5
30
102
{ACAD_REACTORS
330
2A
102
}
330
2A
100
AcDbVisualStyle
  2
3dWireframe
 70
     5
177
     2
291
     0
 71
     0
176
     1
 72
     2
176
     1
 73
     0
176
     1
 90
        0
176
     1
 40
-0.6
176
     1
 41
-30.0
176
     1
 62
     5
 63
     7
421
 16777215
176
     1
 74
     1
176
     1
 91
        4
176
     1
 64
     7
176
     1
 65
   257
176
     1
 75
     1
176
     1
175
     1
176
     1
 42
1.0
176
     1
 92
        0
176
     1
 66
   257
176
     1
 43
1.0
176
     1
 76
     1
176
     1
 77
     6
176
     1
 78
     2
176
     1
 67
     7
176
     1
 79
     5
176
     1
170
     0
176
     1
171
     0
176
     1
290
     0
176
     1
 93
        1
176
     1
 44
0.0
176
     1
173
     0
176
     1
  0
VISUALSTYLE
  5
32
102
{ACAD_REACTORS
330
2A
102
}
330
2A
100
AcDbVisualStyle
  2
Basic
 70
     7
177
     2
291
     1
 71
     1
176
     1
 72
     0
176
     1
 73
     1
176
     1
 90
        0
176
     1
 40
-0.6
176
     1
 41
-30.0
176
     1
 62
     5
 63
     7
421
 16777215
176
     1
 74
     0
176
     1
 91
        4
176
     1
 64
     7
176
     1
 65
   257
176
     1
 75
     1
176
     1
175
     1
176
     1
 42
1.0
176
     1
 92
        8
176
     1
 66
     7
176
     1
 43
1.0
176
     1
 76
     1
176
     1
 77
     6
176
     1
 78
     2
176
     1
 67
     7
176
     1
 79
     5
176
     1
170
     0
176
     1
171
     0
176
     1
290
     0
176
     1
 93
        1
176
     1
 44
0.0
176
     1
173
     0
176
     1
  0
VISUALSTYLE
  5
36
102
{ACAD_REACTORS
330
2A
102
}
330
2A
100
AcDbVisualStyle
  2
Brighten
 70
    12
177
     2
291
     1
 71
     2
176
     1
 72
     2
176
     1
 73
     0
176
     1
 90
        0
176
     1
 40
-0.6
176
     1
 41
-30.0
176
     1
 62
     5
 63
     7
421
 16777215
176
     1
 74
     1
176
     1
 91
        4
176
     1
 64
     7
176
     1
 65
   257
176
     1
 75
     1
176
     1
175
     1
176
     1
 42
1.0
176
     1
 92
        8
176
     1
 66
     7
176
     1
 43
1.0
176
     1
 76
     1
176
     1
 77
     6
176
     1
 78
     2
176
     1
 67
     7
176
     1
 79
     5
176
     1
170
     0
176
     1
171
     0
176
     1
290
     0
176
     1
 93
        1
176
     1
 44
50.0
176
     1
173
     0
176
     1
  0
VISUALSTYLE
  5
3A
102
{ACAD_REACTORS
330
2A
102
}
330
2A
100
AcDbVisualStyle
  2
ColorChange
 70
    16
177
     2
291
     1
 71
     2
176
     1
 72
     2
176
     1
 73
     3
176
     1
 90
        0
176
     1
 40
-0.6
176
     1
 41
-30.0
176
     1
 62
     5
 63
     8
421
  8421504
176
     1
 74
     1
176
     1
 91
        4
176
     1
 64
     7
176
     1
 65
   257
176
     1
 75
     1
176
     1
175
     1
176
     1
 42
1.0
176
     1
 92
        8
176
     1
 66
     8
424
  8421504
176
     1
 43
1.0
176
     1
 76
     1
176
     1
 77
     6
176
     1
 78
     2
176
     1
 67
     7
176
     1
 79
     5
176
     1
170
     0
176
     1
171
     0
176
     1
290
     0
176
     1
 93
        1
176
     1
 44
0.0
176
     1
173
     0
176
     1
  0
VISUALSTYLE
  5
34
102
{ACAD_REACTORS
330
2A
102
}
330
2A
100
AcDbVisualStyle
  2
Conceptual
 70
     9
177
     2
291
     0
 71
     3
176
     1
 72
     2
176
     1
 73
     0
176
     1
 90
        0
176
     1
 40
-0.6
176
     1
 41
-30.0
176
     1
 62
     5
 63
     7
421
 16777215
176
     1
 74
     2
176
     1
 91
        2
176
     1
 64
     7
176
     1
 65
   257
176
     1
 75
     1
176
     1
175
     1
176
     1
 42
40.0
176
     1
 92
        8
176
     1
 66
     7
176
     1
 43
1.0
176
     1
 76
     1
176
     1
 77
     6
176
     1
 78
     2
176
     1
 67
     7
176
     1
 79
     3
176
     1
170
     0
176
     1
171
     0
176
     1
290
     0
176
     1
 93
        1
176
     1
 44
0.0
176
     1
173
     0
176
     1
  0
VISUALSTYLE
  5
35
102
{ACAD_REACTORS
330
2A
102
}
330
2A
100
AcDbVisualStyle
  2
Dim
 70
    11
177
     2
291
     1
 71
     2
176
     1
 72
     2
176
     1
 73
     0
176
     1
 90
        0
176
     1
 40
-0.6
176
     1
 41
-30.0
176
     1
 62
     5
 63
     7
421
 16777215
176
     1
 74
     1
176
     1
 91
        4
176
     1
 64
     7
176
     1
 65
   257
176
     1
 75
     1
176
     1
175
     1
176
     1
 42
1.0
176
     1
 92
        8
176
     1
 66
     7
176
     1
 43
1.0
176
     1
 76
     1
176
     1
 77
     6
176
     1
 78
     2
176
     1
 67
     7
176
     1
 79
     5
176
     1
170
     0
176
     1
171
     0
176
     1
290
     0
176
     1
 93
        1
176
     1
 44
-50.0
176
     1
173
     0
176
     1
  0
VISUALSTYLE
  5
39
102
{ACAD_REACTORS
330
2A
102
}
330
2A
100
AcDbVisualStyle
  2
Facepattern
 70
    15
177
     2
291
     1
 71
     2
176
     1
 72
     2
176
     1
 73
     0
176
     1
 90
        0
176
     1
 40
-0.6
176
     1
 41
-30.0
176
     1
 62
     5
 63
     7
421
 16777215
176
     1
 74
     1
176
     1
 91
        4
176
     1
 64
     7
176
     1
 65
   257
176
     1
 75
     1
176
     1
175
     1
176
     1
 42
1.0
176
     1
 92
        8
176
     1
 66
     7
176
     1
 43
1.0
176
     1
 76
     1
176
     1
 77
     6
176
     1
 78
     2
176
     1
 67
     7
176
     1
 79
     5
176
     1
170
     0
176
     1
171
     0
176
     1
290
     0
176
     1
 93
        1
176
     1
 44
0.0
176
     1
173
     0
176
     1
  0
VISUALSTYLE
  5
2B
102
{ACAD_REACTORS
330
2A
102
}
330
2A
100
AcDbVisualStyle
  2
Flat
 70
     0
177
     2
291
     1
 71
     2
176
     1
 72
     1
176
     1
 73
     1
176
     1
 90
        2
176
     1
 40
-0.6
176
     1
 41
30.0
176
     1
 62
     5
 63
     7
421
 16777215
176
     1
 74
     0
176
     1
 91
        4
176
     1
 64
     7
176
     1
 65
   257
176
     1
 75
     1
176
     1
175
     1
176
     1
 42
1.0
176
     1
 92
        8
176
     1
 66
     7
176
     1
 43
1.0
176
     1
 76
     1
176
     1
 77
     6
176
     1
 78
     2
176
     1
 67
     7
176
     1
 79
     5
176
     1
170
     0
176
     1
171
     0
176
     1
290
     0
176
     1
 93
       13
176
     1
 44
0.0
176
     1
173
     0
176
     1
  0
VISUALSTYLE
  5
2C
102
{ACAD_REACTORS
330
2A
102
}
330
2A
100
AcDbVisualStyle
  2
FlatWithEdges
 70
     1
177
     2
291
     1
 71
     2
176
     1
 72
     1
176
     1
 73
     1
176
     1
 90
        2
176
     1
 40
-0.6
176
     1
 41
30.0
176
     1
 62
     5
 63
     7
421
 16777215
176
     1
 74
     1
176
     1
 91
        4
176
     1
 64
     7
176
     1
 65
   257
176
     1
 75
     1
176
     1
175
     1
176
     1
 42
1.0
176
     1
 92
        0
176
     1
 66
   257
176
     1
 43
1.0
176
     1
 76
     1
176
     1
 77
     6
176
     1
 78
     2
176
     1
 67
     7
176
     1
 79
     5
176
     1
170
     0
176
     1
171
     0
176
     1
290
     0
176
     1
 93
       13
176
     1
 44
0.0
176
     1
173
     0
176
     1
  0
VISUALSTYLE
  5
2D
102
{ACAD_REACTORS
330
2A
102
}
330
2A
100
AcDbVisualStyle
  2
Gouraud
 70
     2
177
     2
291
     1
 71
     2
176
     1
 72
     2
176
     1
 73
     1
176
     1
 90
        2
176
     1
 40
-0.6
176
     1
 41
30.0
176
     1
 62
     5
 63
     7
421
 16777215
176
     1
 74
     0
176
     1
 91
        4
176
     1
 64
     7
176
     1
 65
   257
176
     1
 75
     1
176
     1
175
     1
176
     1
 42
1.0
176
     1
 92
        0
176
     1
 66
     7
176
     1
 43
1.0
176
     1
 76
     1
176
     1
 77
     6
176
     1
 78
     2
176
     1
 67
     7
176
     1
 79
     5
176
     1
170
     0
176
     1
171
     0
176
     1
290
     0
176
     1
 93
       13
176
     1
 44
0.0
176
     1
173
     0
176
     1
  0
VISUALSTYLE
  5
2E
102
{ACAD_REACTORS
330
2A
102
}
330
2A
100
AcDbVisualStyle
  2
GouraudWithEdges
 70
     3
177
     2
291
     1
 71
     2
176
     1
 72
     2
176
     1
 73
     1
176
     1
 90
        2
176
     1
 40
-0.6
176
     1
 41
30.0
176
     1
 62
     5
 63
     7
421
 16777215
176
     1
 74
     1
176
     1
 91
        4
176
     1
 64
     7
176
     1
 65
   257
176
     1
 75
     1
176
     1
175
     1
176
     1
 42
1.0
176
     1
 92
        0
176
     1
 66
   257
176
     1
 43
1.0
176
     1
 76
     1
176
     1
 77
     6
176
     1
 78
     2
176
     1
 67
     7
176
     1
 79
     5
176
     1
170
     0
176
     1
171
     0
176
     1
290
     0
176
     1
 93
       13
176
     1
 44
0.0
176
     1
173
     0
176
     1
  0
VISUALSTYLE
  5
38
102
{ACAD_REACTORS
330
2A
102
}
330
2A
100
AcDbVisualStyle
  2
Linepattern
 70
    14
177
     2
291
     1
 71
     2
176
     1
 72
     2
176
     1
 73
     0
176
     1
 90
        0
176
     1
 40
-0.6
176
     1
 41
-30.0
176
     1
 62
     5
 63
     7
421
 16777215
176
     1
 74
     1
176
     1
 91
        4
176
     1
 64
     7
176
     1
 65
   257
176
     1
 75
     7
176
     1
175
     7
176
     1
 42
1.0
176
     1
 92
        8
176
     1
 66
     7
176
     1
 43
1.0
176
     1
 76
     1
176
     1
 77
     6
176
     1
 78
     2
176
     1
 67
     7
176
     1
 79
     5
176
     1
170
     0
176
     1
171
     0
176
     1
290
     0
176
     1
 93
        1
176
     1
 44
0.0
176
     1
173
     0
176
     1
  0
VISUALSTYLE
  5
33
102
{ACAD_REACTORS
330
2A
102
}
330
2A
100
AcDbVisualStyle
  2
Realistic
 70
     8
177
     2
291
     0
 71
     2
176
     1
 72
     2
176
     1
 73
     0
176
     1
 90
        0
176
     1
 40
-0.6
176
     1
 41
-30.0
176
     1
 62
     5
 63
     7
421
 16777215
176
     1
 74
     1
176
     1
 91
        0
176
     1
 64
     7
176
     1
 65
   257
176
     1
 75
     1
176
     1
175
     1
176
     1
 42
1.0
176
     1
 92
        8
176
     1
 66
     8
424
  7895160
176
     1
 43
1.0
176
     1
 76
     1
176
     1
 77
     6
176
     1
 78
     2
176
     1
 67
     7
176
     1
 79
     5
176
     1
170
     0
176
     1
171
     0
176
     1
290
     0
176
     1
 93
       13
176
     1
 44
0.0
176
     1
173
     0
176
     1
  0
VISUALSTYLE
  5
37
102
{ACAD_REACTORS
330
2A
102
}
330
2A
100
AcDbVisualStyle
  2
Thicken
 70
    13
177
     2
291
     1
 71
     2
176
     1
 72
     2
176
     1
 73
     0
176
     1
 90
        0
176
     1
 40
-0.6
176
     1
 41
-30.0
176
     1
 62
     5
 63
     7
421
 16777215
176
     1
 74
     1
176
     1
 91
        4
176
     1
 64
     7
176
     1
 65
   257
176
     1
 75
     1
176
     1
175
     1
176
     1
 42
1.0
176
     1
 92
       12
176
     1
 66
     7
176
     1
 43
1.0
176
     1
 76
     1
176
     1
 77
     6
176
     1
 78
     2
176
     1
 67
     7
176
     1
 79
     5
176
     1
170
     0
176
     1
171
     0
176
     1
290
     0
176
     1
 93
        1
176
     1
 44
0.0
176
     1
173
     0
176
     1
  0
ENDSEC
  0
EOF
