  0
SECTION
  2
HEADER
  9
$ACADVER
  1
AC1009
  9
$INSBASE
 10
0.0
 20
0.0
 30
0.0
  9
$EXTMIN
 10
57.0652221259970176
 20
49.8317685798586325
 30
-0.0000000349181948
  9
$EXTMAX
 10
169.5971300398379924
 20
88.5661472994439549
 30
0.0000000814935747
  9
$LIMMIN
 10
0.0
 20
0.0
  9
$LIMMAX
 10
420.0
 20
297.0
  9
$ORTHOMODE
 70
     1
  9
$REGENMODE
 70
     1
  9
$FILLMODE
 70
     1
  9
$QTEXTMODE
 70
     0
  9
$MIRRTEXT
 70
     0
  9
$DRAGMODE
 70
     2
  9
$LTSCALE
 40
1.0
  9
$OSMODE
 70
    37
  9
$ATTMODE
 70
     1
  9
$TEXTSIZE
 40
2.5
  9
$TRACEWID
 40
1.0
  9
$TEXTSTYLE
  7
STANDARD
  9
$CLAYER
  8
0
  9
$CELTYPE
  6
BYLAYER
  9
$CECOLOR
 62
   256
  9
$DIMSCALE
 40
1.0
  9
$DIMASZ
 40
2.5
  9
$DIMEXO
 40
0.625
  9
$DIMDLI
 40
3.75
  9
$DIMRND
 40
0.0
  9
$DIMDLE
 40
0.0
  9
$DIMEXE
 40
1.25
  9
$DIMTP
 40
0.0
  9
$DIMTM
 40
0.0
  9
$DIMTXT
 40
2.5
  9
$DIMCEN
 40
2.5
  9
$DIMTSZ
 40
0.0
  9
$DIMTOL
 70
     0
  9
$DIMLIM
 70
     0
  9
$DIMTIH
 70
     0
  9
$DIMTOH
 70
     0
  9
$DIMSE1
 70
     0
  9
$DIMSE2
 70
     0
  9
$DIMTAD
 70
     1
  9
$DIMZIN
 70
     8
  9
$DIMBLK
  1

  9
$DIMASO
 70
     1
  9
$DIMSHO
 70
     1
  9
$DIMPOST
  1

  9
$DIMAPOST
  1

  9
$DIMALT
 70
     0
  9
$DIMALTD
 70
     3
  9
$DIMALTF
 40
0.03937007874016
  9
$DIMLFAC
 40
1.0
  9
$DIMTOFL
 70
     1
  9
$DIMTVP
 40
0.0
  9
$DIMTIX
 70
     0
  9
$DIMSOXD
 70
     0
  9
$DIMSAH
 70
     0
  9
$DIMBLK1
  1

  9
$DIMBLK2
  1

  9
$DIMSTYLE
  2
ISO-25
  9
$DIMCLRD
 70
     0
  9
$DIMCLRE
 70
     0
  9
$DIMCLRT
 70
     0
  9
$DIMTFAC
 40
1.0
  9
$DIMGAP
 40
0.625
  9
$LUNITS
 70
     2
  9
$LUPREC
 70
     4
  9
$SKETCHINC
 40
1.0
  9
$FILLETRAD
 40
5.0
  9
$AUNITS
 70
     0
  9
$AUPREC
 70
     0
  9
$MENU
  1
.
  9
$ELEVATION
 40
0.0
  9
$PELEVATION
 40
0.0
  9
$THICKNESS
 40
0.0
  9
$LIMCHECK
 70
     0
  9
$BLIPMODE
 70
     0
  9
$CHAMFERA
 40
0.0
  9
$CHAMFERB
 40
0.0
  9
$SKPOLY
 70
     0
  9
$TDCREATE
 40
2459090.6119907409884036
  9
$TDUPDATE
 40
2459093.7097685178741813
  9
$TDINDWG
 40
0.0403935185
  9
$TDUSRTIMER
 40
0.0403935185
  9
$USRTIMER
 70
     1
  9
$ANGBASE
 50
0.0
  9
$ANGDIR
 70
     0
  9
$PDMODE
 70
     0
  9
$PDSIZE
 40
0.0
  9
$PLINEWID
 40
0.0
  9
$COORDS
 70
     1
  9
$SPLFRAME
 70
     0
  9
$SPLINETYPE
 70
     6
  9
$SPLINESEGS
 70
     8
  9
$ATTDIA
 70
     1
  9
$ATTREQ
 70
     1
  9
$HANDLING
 70
     1
  9
$HANDSEED
  5
570
  9
$SURFTAB1
 70
     6
  9
$SURFTAB2
 70
     6
  9
$SURFTYPE
 70
     6
  9
$SURFU
 70
     6
  9
$SURFV
 70
     6
  9
$UCSNAME
  2

  9
$UCSORG
 10
0.0
 20
0.0
 30
0.0
  9
$UCSXDIR
 10
1.0
 20
0.0
 30
0.0
  9
$UCSYDIR
 10
0.0
 20
1.0
 30
0.0
  9
$PUCSNAME
  2

  9
$PUCSORG
 10
0.0
 20
0.0
 30
0.0
  9
$PUCSXDIR
 10
1.0
 20
0.0
 30
0.0
  9
$PUCSYDIR
 10
0.0
 20
1.0
 30
0.0
  9
$USERI1
 70
     0
  9
$USERI2
 70
     0
  9
$USERI3
 70
     0
  9
$USERI4
 70
     0
  9
$USERI5
 70
     0
  9
$USERR1
 40
0.0
  9
$USERR2
 40
0.0
  9
$USERR3
 40
0.0
  9
$USERR4
 40
0.0
  9
$USERR5
 40
0.0
  9
$WORLDVIEW
 70
     1
  9
$SHADEDGE
 70
     3
  9
$SHADEDIF
 70
    70
  9
$TILEMODE
 70
     1
  9
$MAXACTVP
 70
    64
  9
$PLIMCHECK
 70
     0
  9
$PEXTMIN
 10
0.0
 20
0.0
 30
0.0
  9
$PEXTMAX
 10
0.0
 20
0.0
 30
0.0
  9
$PLIMMIN
 10
0.0
 20
0.0
  9
$PLIMMAX
 10
12.0
 20
9.0
  9
$UNITMODE
 70
     0
  9
$VISRETAIN
 70
     1
  9
$PLINEGEN
 70
     0
  9
$PSLTSCALE
 70
     1
  0
ENDSEC
  0
SECTION
  2
TABLES
  0
TABLE
  2
VPORT
 70
     1
  0
VPORT
  2
*ACTIVE
 70
     0
 10
0.0
 20
0.0
 11
1.0
 21
1.0
 12
172.8460617866130917
 22
50.0350177201480619
 13
0.0
 23
0.0
 14
10.0
 24
10.0
 15
10.0
 25
10.0
 16
0.0
 26
0.0
 36
1.0
 17
0.0
 27
0.0
 37
0.0
 40
73.309419202767458
 41
2.4808394160583931
 42
50.0
 43
0.0
 44
0.0
 50
0.0
 51
0.0
 71
     0
 72
  1000
 73
     1
 74
     3
 75
     0
 76
     1
 77
     0
 78
     0
  0
ENDTAB
  0
TABLE
  2
LTYPE
 70
     2
  0
LTYPE
  2
CONTINUOUS
 70
     0
  3
Solid line
 72
    65
 73
     0
 40
0.0
  0
ENDTAB
  0
TABLE
  2
LAYER
 70
     1
  0
LAYER
  2
0
 70
     0
 62
     7
  6
CONTINUOUS
  0
ENDTAB
  0
TABLE
  2
STYLE
 70
     2
  0
STYLE
  2
STANDARD
 70
     0
 40
0.0
 41
1.0
 50
0.0
 71
     0
 42
2.5
  3
txt
  4

  0
STYLE
  2
ANNOTATIVE
 70
     0
 40
0.0
 41
1.0
 50
0.0
 71
     0
 42
2.5
  3
txt
  4

  0
ENDTAB
  0
TABLE
  2
VIEW
 70
     0
  0
ENDTAB
  0
TABLE
  2
UCS
 70
     0
  0
ENDTAB
  0
TABLE
  2
APPID
 70
    10
  0
APPID
  2
ACAD
 70
     0
  0
APPID
  2
ACAD_PSEXT
 70
     0
  0
APPID
  2
ACADANNOPO
 70
     0
  0
APPID
  2
ACADANNOTATIVE
 70
     0
  0
APPID
  2
ACAD_DSTYLE_DIMJAG
 70
     0
  0
APPID
  2
ACAD_DSTYLE_DIMTALN
 70
     0
  0
APPID
  2
ACAD_MLEADERVER
 70
     0
  0
APPID
  2
ACAD_NAV_VCDISPLAY
 70
     0
  0
APPID
  2
ACAD_EXEMPT_FROM_CAD_STANDARDS
 70
     0
  0
APPID
  2
ACAD_DSTYLE_DIMRADIAL_EXTENSION
 70
     0
  0
ENDTAB
  0
TABLE
  2
DIMSTYLE
 70
     4
  0
DIMSTYLE
  2
STANDARD
 70
     0
  3

  4

  5

  6

  7

 40
1.0
 41
0.18
 42
0.0625
 43
0.38
 44
0.18
 45
0.0
 46
0.0
 47
0.0
 48
0.0
140
0.18
141
0.09
142
0.0
143
25.3999999999999986
144
1.0
145
0.0
146
1.0
147
0.09
 71
     0
 72
     0
 73
     1
 74
     1
 75
     0
 76
     0
 77
     0
 78
     0
170
     0
171
     2
172
     0
173
     0
174
     0
175
     0
176
     0
177
     0
178
     0
  0
DIMSTYLE
  2
ANNOTATIVE
 70
     0
  3

  4

  5

  6

  7

 40
0.0
 41
2.5
 42
0.625
 43
3.75
 44
1.25
 45
0.0
 46
0.0
 47
0.0
 48
0.0
140
2.5
141
2.5
142
0.0
143
0.03937007874016
144
1.0
145
0.0
146
1.0
147
0.625
 71
     0
 72
     0
 73
     0
 74
     0
 75
     0
 76
     0
 77
     1
 78
     8
170
     0
171
     3
172
     1
173
     0
174
     0
175
     0
176
     0
177
     0
178
     0
  0
DIMSTYLE
  2
ISO-25
 70
     0
  3

  4

  5

  6

  7

 40
1.0
 41
2.5
 42
0.625
 43
3.75
 44
1.25
 45
0.0
 46
0.0
 47
0.0
 48
0.0
140
2.5
141
2.5
142
0.0
143
0.03937007874016
144
1.0
145
0.0
146
1.0
147
0.625
 71
     0
 72
     0
 73
     0
 74
     0
 75
     0
 76
     0
 77
     1
 78
     8
170
     0
171
     3
172
     1
173
     0
174
     0
175
     0
176
     0
177
     0
178
     0
  0
ENDTAB
  0
ENDSEC
  0
SECTION
  2
BLOCKS
  0
BLOCK
  8
0
  2
$MODEL_SPACE
 70
     0
 10
0.0
 20
0.0
 30
0.0
  3
$MODEL_SPACE
  1

  0
ENDBLK
  5
21
  8
0
  0
BLOCK
 67
     1
  8
0
  2
$PAPER_SPACE
 70
     0
 10
0.0
 20
0.0
 30
0.0
  3
$PAPER_SPACE
  1

  0
ENDBLK
  5
D5
 67
     1
  8
0
  0
ENDSEC
  0
SECTION
  2
ENTITIES
  0
CIRCLE
  5
3BA
  8
0
 10
109.2771696091857052
 20
68.6551401339920062
 30
0.0
 40
1.5
  0
CIRCLE
  5
3BB
  8
0
 10
119.2771696091857052
 20
68.6551401339920062
 30
0.0
 40
1.5
  0
CIRCLE
  5
3BD
  8
0
 10
93.1145713124915346
 20
68.9004484808419733
 30
0.0
 40
1.5
  0
CIRCLE
  5
3C0
  8
0
 10
78.6899654694273067
 20
83.5650731248733649
 30
0.0
 40
1.5
  0
CIRCLE
  5
3C1
  8
0
 10
148.6899654694275057
 20
83.5650731248733649
 30
0.0
 40
1.5
  0
CIRCLE
  5
3C2
  8
0
 10
113.6899654694275057
 20
83.5650731248733649
 30
0.0
 40
1.5
  0
LINE
  5
427
  8
0
 10
119.0806439111501049
 20
51.51357617628463
 30
0.0
 11
109.0806439111501049
 21
51.51357617628463
 31
0.0
  0
LINE
  5
42A
  8
0
 10
109.0806439111501049
 20
61.51357617628463
 30
0.0
 11
119.0806439111501049
 21
61.51357617628463
 31
0.0
  0
ARC
  5
430
  8
0
 10
119.2771696091858047
 20
68.6551401339920062
 30
0.0
 40
1.5000000000000551
 50
180.0
 51
0.0
  0
ARC
  5
431
  8
0
 10
119.2771696091858047
 20
68.6551401339920062
 30
0.0
 40
1.5000000000000551
 50
0.0
 51
180.0
  0
ARC
  5
432
  8
0
 10
109.2771696091857052
 20
68.6551401339920062
 30
0.0
 40
1.5
 50
180.0
 51
0.0
  0
ARC
  5
433
  8
0
 10
109.2771696091857052
 20
68.6551401339920062
 30
0.0
 40
1.5
 50
0.0
 51
180.0
  0
LINE
  5
43E
  8
0
 10
119.2771696091857052
 20
63.6551401339919991
 30
0.0
 11
109.2771696091857052
 21
63.6551401339919991
 31
0.0
  0
LINE
  5
443
  8
0
 10
148.6899654694275057
 20
78.5650731248733649
 30
0.0
 11
78.6899654694273067
 21
78.5650731248733649
 31
0.0
  0
LINE
  5
448
  8
0
 10
78.6899654694273067
 20
78.5650731248733649
 30
0.0
 11
148.6899654694275057
 21
78.5650731248733649
 31
0.0
  0
LINE
  5
449
  8
0
 10
153.689965469427392
 20
83.5650731248733649
 30
0.0
 11
153.689965469427392
 21
83.5650731248733649
 31
0.0
  0
LINE
  5
44A
  8
0
 10
153.689965469427392
 20
83.5650731248733649
 30
0.0
 11
153.689965469427392
 21
83.5650731248733649
 31
0.0
  0
LINE
  5
44B
  8
0
 10
78.6899654694273067
 20
88.5650731248733649
 30
0.0
 11
148.6899654694275057
 21
88.5650731248733649
 31
0.0
  0
LINE
  5
44C
  8
0
 10
148.6899654694275057
 20
88.5650731248733649
 30
0.0
 11
78.6899654694273067
 21
88.5650731248733649
 31
0.0
  0
LINE
  5
450
  8
0
 10
93.1145713124915346
 20
63.9004484808419804
 30
0.0
 11
88.1145713124914209
 21
63.9004484808419804
 31
0.0
  0
LINE
  5
451
  8
0
 10
88.1145713124914209
 20
63.9004484808419804
 30
0.0
 11
88.1145713124914209
 21
73.9004484808419733
 31
0.0
  0
LINE
  5
452
  8
0
 10
88.1145713124914209
 20
73.9004484808419733
 30
0.0
 11
93.1145713124915346
 21
73.9004484808419733
 31
0.0
  0
LINE
  5
453
  8
0
 10
104.2771696091858047
 20
68.6551401339920062
 30
0.0
 11
104.2771696091858047
 21
68.6551401339920062
 31
0.0
  0
LINE
  5
454
  8
0
 10
124.2771696091857052
 20
68.6551401339920062
 30
0.0
 11
124.2771696091857052
 21
68.6551401339920062
 31
0.0
  0
LINE
  5
455
  8
0
 10
109.2771696091857052
 20
73.6551401339920631
 30
0.0
 11
119.2771696091857052
 21
73.6551401339920631
 31
0.0
  0
CIRCLE
  5
4EC
  8
0
 10
78.6899654694273067
 20
83.5650731248733649
 30
0.0
 40
5.0
  0
CIRCLE
  5
4F4
  8
0
 10
148.6899654694275057
 20
83.5650731248733649
 30
0.0
 40
5.0
  0
CIRCLE
  5
4FC
  8
0
 10
119.2771696091858047
 20
68.6551401339920062
 30
0.0
 40
5.0
  0
CIRCLE
  5
504
  8
0
 10
109.2771696091857052
 20
68.6551401339920062
 30
0.0
 40
5.0
  0
CIRCLE
  5
50C
  8
0
 10
93.1145713124915346
 20
68.9004484808419733
 30
0.0
 40
5.0
  0
CIRCLE
  5
514
  8
0
 10
92.8102259740812343
 20
56.4230931779334028
 30
0.0
 40
5.0
  0
ARC
  5
51D
  8
0
 10
108.5811706281943998
 20
56.51357617628463
 30
0.0
 40
5.0248854275880328
 50
84.2953828978066468
 51
275.7046171021934242
  0
ARC
  5
51F
  8
0
 10
119.3229915797611937
 20
56.5135761762846371
 30
0.0
 40
5.005869793800203
 50
267.2250719652236057
 51
92.7749280347763943
  0
ENDSEC
  0
EOF
