  0
SECTION
  2
HEADER
  9
$ACADVER
  1
AC1024
  9
$ACADMAINTVER
 70
     6
  9
$DWGCODEPAGE
  3
ANSI_1252
  9
$INSBASE
 10
0.0
 20
0.0
 30
0.0
  9
$EXTMIN
 10
1.000000000000000E+20
 20
1.000000000000000E+20
 30
1.000000000000000E+20
  9
$EXTMAX
 10
-1.000000000000000E+20
 20
-1.000000000000000E+20
 30
-1.000000000000000E+20
  9
$LIMMIN
 10
0.0
 20
0.0
  9
$LIMMAX
 10
12.0
 20
9.0
  9
$ORTHOMODE
 70
     0
  9
$REGENMODE
 70
     1
  9
$FILLMODE
 70
     1
  9
$QTEXTMODE
 70
     0
  9
$MIRRTEXT
 70
     1
  9
$LTSCALE
 40
1.0
  9
$ATTMODE
 70
     1
  9
$TEXTSIZE
 40
0.2
  9
$TRACEWID
 40
0.05
  9
$TEXTSTYLE
  7
Standard
  9
$CLAYER
  8
0
  9
$CELTYPE
  6
ByLayer
  9
$CECOLOR
 62
   256
  9
$CELTSCALE
 40
1.0
  9
$DISPSILH
 70
     0
  9
$DIMSCALE
 40
1.0
  9
$DIMASZ
 40
0.18
  9
$DIMEXO
 40
0.0625
  9
$DIMDLI
 40
0.38
  9
$DIMRND
 40
0.0
  9
$DIMDLE
 40
0.0
  9
$DIMEXE
 40
0.18
  9
$DIMTP
 40
0.0
  9
$DIMTM
 40
0.0
  9
$DIMTXT
 40
0.18
  9
$DIMCEN
 40
0.09
  9
$DIMTSZ
 40
0.0
  9
$DIMTOL
 70
     0
  9
$DIMLIM
 70
     0
  9
$DIMTIH
 70
     1
  9
$DIMTOH
 70
     1
  9
$DIMSE1
 70
     0
  9
$DIMSE2
 70
     0
  9
$DIMTAD
 70
     0
  9
$DIMZIN
 70
     0
  9
$DIMBLK
  1

  9
$DIMASO
 70
     1
  9
$DIMSHO
 70
     1
  9
$DIMPOST
  1

  9
$DIMAPOST
  1

  9
$DIMALT
 70
     0
  9
$DIMALTD
 70
     2
  9
$DIMALTF
 40
25.4
  9
$DIMLFAC
 40
1.0
  9
$DIMTOFL
 70
     0
  9
$DIMTVP
 40
0.0
  9
$DIMTIX
 70
     0
  9
$DIMSOXD
 70
     0
  9
$DIMSAH
 70
     0
  9
$DIMBLK1
  1

  9
$DIMBLK2
  1

  9
$DIMSTYLE
  2
Standard
  9
$DIMCLRD
 70
     0
  9
$DIMCLRE
 70
     0
  9
$DIMCLRT
 70
     0
  9
$DIMTFAC
 40
1.0
  9
$DIMGAP
 40
0.09
  9
$DIMJUST
 70
     0
  9
$DIMSD1
 70
     0
  9
$DIMSD2
 70
     0
  9
$DIMTOLJ
 70
     1
  9
$DIMTZIN
 70
     0
  9
$DIMALTZ
 70
     0
  9
$DIMALTTZ
 70
     0
  9
$DIMUPT
 70
     0
  9
$DIMDEC
 70
     4
  9
$DIMTDEC
 70
     4
  9
$DIMALTU
 70
     2
  9
$DIMALTTD
 70
     2
  9
$DIMTXSTY
  7
Standard
  9
$DIMAUNIT
 70
     0
  9
$DIMADEC
 70
     0
  9
$DIMALTRND
 40
0.0
  9
$DIMAZIN
 70
     0
  9
$DIMDSEP
 70
    46
  9
$DIMATFIT
 70
     3
  9
$DIMFRAC
 70
     0
  9
$DIMLDRBLK
  1

  9
$DIMLUNIT
 70
     2
  9
$DIMLWD
 70
    -2
  9
$DIMLWE
 70
    -2
  9
$DIMTMOVE
 70
     0
  9
$DIMFXL
 40
1.0
  9
$DIMFXLON
 70
     0
  9
$DIMJOGANG
 40
0.7853981633974483
  9
$DIMTFILL
 70
     0
  9
$DIMTFILLCLR
 70
     0
  9
$DIMARCSYM
 70
     0
  9
$DIMLTYPE
  6

  9
$DIMLTEX1
  6

  9
$DIMLTEX2
  6

  9
$DIMTXTDIRECTION
 70
     0
  9
$LUNITS
 70
     2
  9
$LUPREC
 70
     4
  9
$SKETCHINC
 40
0.1
  9
$FILLETRAD
 40
0.5
  9
$AUNITS
 70
     0
  9
$AUPREC
 70
     0
  9
$MENU
  1
.
  9
$ELEVATION
 40
0.0
  9
$PELEVATION
 40
0.0
  9
$THICKNESS
 40
0.0
  9
$LIMCHECK
 70
     0
  9
$CHAMFERA
 40
0.5
  9
$CHAMFERB
 40
0.5
  9
$CHAMFERC
 40
1.0
  9
$CHAMFERD
 40
0.0
  9
$SKPOLY
 70
     0
  9
$TDCREATE
 40
2459106.60521022
  9
$TDUCREATE
 40
2459106.771876886
  9
$TDUPDATE
 40
2459106.605211192
  9
$TDUUPDATE
 40
2459106.771877859
  9
$TDINDWG
 40
0.0000000116
  9
$TDUSRTIMER
 40
0.0000000116
  9
$USRTIMER
 70
     1
  9
$ANGBASE
 50
0.0
  9
$ANGDIR
 70
     0
  9
$PDMODE
 70
     0
  9
$PDSIZE
 40
0.0
  9
$PLINEWID
 40
0.0
  9
$SPLFRAME
 70
     0
  9
$SPLINETYPE
 70
     6
  9
$SPLINESEGS
 70
     8
  9
$HANDSEED
  5
63
  9
$SURFTAB1
 70
     6
  9
$SURFTAB2
 70
     6
  9
$SURFTYPE
 70
     6
  9
$SURFU
 70
     6
  9
$SURFV
 70
     6
  9
$UCSBASE
  2

  9
$UCSNAME
  2

  9
$UCSORG
 10
0.0
 20
0.0
 30
0.0
  9
$UCSXDIR
 10
1.0
 20
0.0
 30
0.0
  9
$UCSYDIR
 10
0.0
 20
1.0
 30
0.0
  9
$UCSORTHOREF
  2

  9
$UCSORTHOVIEW
 70
     0
  9
$UCSORGTOP
 10
0.0
 20
0.0
 30
0.0
  9
$UCSORGBOTTOM
 10
0.0
 20
0.0
 30
0.0
  9
$UCSORGLEFT
 10
0.0
 20
0.0
 30
0.0
  9
$UCSORGRIGHT
 10
0.0
 20
0.0
 30
0.0
  9
$UCSORGFRONT
 10
0.0
 20
0.0
 30
0.0
  9
$UCSORGBACK
 10
0.0
 20
0.0
 30
0.0
  9
$PUCSBASE
  2

  9
$PUCSNAME
  2

  9
$PUCSORG
 10
0.0
 20
0.0
 30
0.0
  9
$PUCSXDIR
 10
1.0
 20
0.0
 30
0.0
  9
$PUCSYDIR
 10
0.0
 20
1.0
 30
0.0
  9
$PUCSORTHOREF
  2

  9
$PUCSORTHOVIEW
 70
     0
  9
$PUCSORGTOP
 10
0.0
 20
0.0
 30
0.0
  9
$PUCSORGBOTTOM
 10
0.0
 20
0.0
 30
0.0
  9
$PUCSORGLEFT
 10
0.0
 20
0.0
 30
0.0
  9
$PUCSORGRIGHT
 10
0.0
 20
0.0
 30
0.0
  9
$PUCSORGFRONT
 10
0.0
 20
0.0
 30
0.0
  9
$PUCSORGBACK
 10
0.0
 20
0.0
 30
0.0
  9
$USERI1
 70
     0
  9
$USERI2
 70
     0
  9
$USERI3
 70
     0
  9
$USERI4
 70
     0
  9
$USERI5
 70
     0
  9
$USERR1
 40
0.0
  9
$USERR2
 40
0.0
  9
$USERR3
 40
0.0
  9
$USERR4
 40
0.0
  9
$USERR5
 40
0.0
  9
$WORLDVIEW
 70
     1
  9
$SHADEDGE
 70
     3
  9
$SHADEDIF
 70
    70
  9
$TILEMODE
 70
     1
  9
$MAXACTVP
 70
    64
  9
$PINSBASE
 10
0.0
 20
0.0
 30
0.0
  9
$PLIMCHECK
 70
     0
  9
$PEXTMIN
 10
1.000000000000000E+20
 20
1.000000000000000E+20
 30
1.000000000000000E+20
  9
$PEXTMAX
 10
-1.000000000000000E+20
 20
-1.000000000000000E+20
 30
-1.000000000000000E+20
  9
$PLIMMIN
 10
0.0
 20
0.0
  9
$PLIMMAX
 10
12.0
 20
9.0
  9
$UNITMODE
 70
     0
  9
$VISRETAIN
 70
     1
  9
$PLINEGEN
 70
     0
  9
$PSLTSCALE
 70
     1
  9
$TREEDEPTH
 70
  3020
  9
$CMLSTYLE
  2
Standard
  9
$CMLJUST
 70
     0
  9
$CMLSCALE
 40
1.0
  9
$PROXYGRAPHICS
 70
     1
  9
$MEASUREMENT
 70
     0
  9
$CELWEIGHT
370
    -1
  9
$ENDCAPS
280
     0
  9
$JOINSTYLE
280
     0
  9
$LWDISPLAY
290
     1
  9
$INSUNITS
 70
     1
  9
$HYPERLINKBASE
  1

  9
$STYLESHEET
  1

  9
$XEDIT
290
     1
  9
$CEPSNTYPE
380
     0
  9
$PSTYLEMODE
290
     1
  9
$FINGERPRINTGUID
  2
{00964630-8B1A-401D-A0DB-059A954D39CB}
  9
$VERSIONGUID
  2
{FAEB1C32-E019-11D5-929B-00C0DF256EC4}
  9
$EXTNAMES
290
     1
  9
$PSVPSCALE
 40
0.0
  9
$OLESTARTUP
290
     0
  9
$SORTENTS
280
   127
  9
$INDEXCTL
280
     0
  9
$HIDETEXT
280
     1
  9
$XCLIPFRAME
280
     2
  9
$HALOGAP
280
     0
  9
$OBSCOLOR
 70
   257
  9
$OBSLTYPE
280
     0
  9
$INTERSECTIONDISPLAY
280
     0
  9
$INTERSECTIONCOLOR
 70
   257
  9
$DIMASSOC
280
     2
  9
$PROJECTNAME
  1

  9
$CAMERADISPLAY
290
     0
  9
$LENSLENGTH
 40
50.0
  9
$CAMERAHEIGHT
 40
0.0
  9
$STEPSPERSEC
 40
2.0
  9
$STEPSIZE
 40
6.0
  9
$3DDWFPREC
 40
2.0
  9
$PSOLWIDTH
 40
0.25
  9
$PSOLHEIGHT
 40
4.0
  9
$LOFTANG1
 40
1.570796326794897
  9
$LOFTANG2
 40
1.570796326794897
  9
$LOFTMAG1
 40
0.0
  9
$LOFTMAG2
 40
0.0
  9
$LOFTPARAM
 70
     7
  9
$LOFTNORMALS
280
     1
  9
$LATITUDE
 40
37.795
  9
$LONGITUDE
 40
-122.394
  9
$NORTHDIRECTION
 40
0.0
  9
$TIMEZONE
 70
 -8000
  9
$LIGHTGLYPHDISPLAY
280
     1
  9
$TILEMODELIGHTSYNCH
280
     1
  9
$CMATERIAL
347
3C
  9
$SOLIDHIST
280
     1
  9
$SHOWHIST
280
     1
  9
$DWFFRAME
280
     2
  9
$DGNFRAME
280
     2
  9
$REALWORLDSCALE
290
     1
  9
$INTERFERECOLOR
 62
   256
  9
$CSHADOW
280
     0
  9
$SHADOWPLANELOCATION
 40
0.0
  0
ENDSEC
  0
SECTION
  2
CLASSES
  0
CLASS
  1
ACDBDICTIONARYWDFLT
  2
AcDbDictionaryWithDefault
  3
ObjectDBX Classes
 90
        0
 91
        4
280
     0
281
     0
  0
CLASS
  1
VISUALSTYLE
  2
AcDbVisualStyle
  3
ObjectDBX Classes
 90
     4095
 91
        4
280
     0
281
     0
  0
CLASS
  1
MATERIAL
  2
AcDbMaterial
  3
ObjectDBX Classes
 90
     1153
 91
        4
280
     0
281
     0
  0
CLASS
  1
SUN
  2
AcDbSun
  3
SCENEOE
 90
     1024
 91
        4
280
     0
281
     0
  0
ENDSEC
  0
SECTION
  2
TABLES
  0
TABLE
  2
VPORT
  5
8
330
0
100
AcDbSymbolTable
 70
     1
  0
VPORT
  5
29
330
8
100
AcDbSymbolTableRecord
100
AcDbViewportTableRecord
  2
*Active
 70
     0
 10
0.0
 20
0.0
 11
1.0
 21
1.0
 12
0.0
 22
0.0
 13
0.0
 23
0.0
 14
0.5
 24
0.5
 15
0.5
 25
0.5
 16
0.0
 26
0.0
 36
1.0
 17
36.00000000000001
 27
-12.0
 37
0.0
 40
24.0
 41
1.767295597484277
 42
50.0
 43
0.0
 44
0.0
 50
0.0
 51
0.0
 71
     0
 72
   100
 73
     1
 74
     3
 75
     0
 76
     0
 77
     0
 78
     0
281
     0
 65
     1
110
0.0
120
0.0
130
0.0
111
1.0
121
0.0
131
0.0
112
0.0
122
1.0
132
0.0
 79
     0
146
0.0
 60
     3
 61
     5
292
     1
282
     1
141
0.0
142
0.0
 63
   250
361
3F
  0
ENDTAB
  0
TABLE
  2
LTYPE
  5
5
330
0
100
AcDbSymbolTable
 70
     1
  0
LTYPE
  5
14
330
5
100
AcDbSymbolTableRecord
100
AcDbLinetypeTableRecord
  2
ByBlock
 70
     0
  3

 72
    65
 73
     0
 40
0.0
  0
LTYPE
  5
15
330
5
100
AcDbSymbolTableRecord
100
AcDbLinetypeTableRecord
  2
ByLayer
 70
     0
  3

 72
    65
 73
     0
 40
0.0
  0
LTYPE
  5
16
330
5
100
AcDbSymbolTableRecord
100
AcDbLinetypeTableRecord
  2
Continuous
 70
     0
  3
Solid line
 72
    65
 73
     0
 40
0.0
  0
ENDTAB
  0
TABLE
  2
LAYER
  5
2
330
0
100
AcDbSymbolTable
 70
     2
  0
LAYER
  5
10
330
2
100
AcDbSymbolTableRecord
100
AcDbLayerTableRecord
  2
0
 70
     0
 62
     7
  6
Continuous
370
    -3
390
F
347
3E
  0
LAYER
  5
40
330
2
100
AcDbSymbolTableRecord
100
AcDbLayerTableRecord
  2
Layer 1
 70
     0
 62
     7
  6
Continuous
370
    -3
390
F
347
3E
  0
ENDTAB
  0
TABLE
  2
STYLE
  5
3
330
0
100
AcDbSymbolTable
 70
     1
  0
STYLE
  5
11
330
3
100
AcDbSymbolTableRecord
100
AcDbTextStyleTableRecord
  2
Standard
 70
     0
 40
0.0
 41
1.0
 50
0.0
 71
     0
 42
0.2
  3
txt
  4

  0
ENDTAB
  0
TABLE
  2
VIEW
  5
6
330
0
100
AcDbSymbolTable
 70
     0
  0
ENDTAB
  0
TABLE
  2
UCS
  5
7
330
0
100
AcDbSymbolTable
 70
     0
  0
ENDTAB
  0
TABLE
  2
APPID
  5
9
330
0
100
AcDbSymbolTable
 70
     1
  0
APPID
  5
12
330
9
100
AcDbSymbolTableRecord
100
AcDbRegAppTableRecord
  2
ACAD
 70
     0
  0
ENDTAB
  0
TABLE
  2
DIMSTYLE
  5
A
330
0
100
AcDbSymbolTable
 70
     1
100
AcDbDimStyleTable
  0
DIMSTYLE
105
27
330
A
100
AcDbSymbolTableRecord
100
AcDbDimStyleTableRecord
  2
Standard
 70
     0
178
     0
340
11
  0
ENDTAB
  0
TABLE
  2
BLOCK_RECORD
  5
1
330
0
100
AcDbSymbolTable
 70
     2
  0
BLOCK_RECORD
  5
1F
330
1
100
AcDbSymbolTableRecord
100
AcDbBlockTableRecord
  2
*Model_Space
340
22
 70
     0
280
     1
281
     0
  0
BLOCK_RECORD
  5
1B
330
1
100
AcDbSymbolTableRecord
100
AcDbBlockTableRecord
  2
*Paper_Space
340
1E
 70
     0
280
     1
281
     0
  0
BLOCK_RECORD
  5
23
330
1
100
AcDbSymbolTableRecord
100
AcDbBlockTableRecord
  2
*Paper_Space0
340
26
 70
     0
280
     1
281
     0
  0
BLOCK_RECORD
  5
42
330
1
100
AcDbSymbolTableRecord
100
AcDbBlockTableRecord
  2
block 2
340
0
102
{BLKREFS
331
43
102
}
 70
     0
280
     1
281
     0
  0
ENDTAB
  0
ENDSEC
  0
SECTION
  2
BLOCKS
  0
BLOCK
  5
20
330
1F
100
AcDbEntity
  8
0
100
AcDbBlockBegin
  2
*Model_Space
 70
     0
 10
0.0
 20
0.0
 30
0.0
  3
*Model_Space
  1

  0
ENDBLK
  5
21
330
1F
100
AcDbEntity
  8
0
100
AcDbBlockEnd
  0
BLOCK
  5
1C
330
1B
100
AcDbEntity
 67
     1
  8
0
100
AcDbBlockBegin
  2
*Paper_Space
 70
     0
 10
0.0
 20
0.0
 30
0.0
  3
*Paper_Space
  1

  0
ENDBLK
  5
1D
330
1B
100
AcDbEntity
 67
     1
  8
0
100
AcDbBlockEnd
  0
BLOCK
  5
24
330
23
100
AcDbEntity
  8
0
100
AcDbBlockBegin
  2
*Paper_Space0
 70
     0
 10
0.0
 20
0.0
 30
0.0
  3
*Paper_Space0
  1

  0
ENDBLK
  5
25
330
23
100
AcDbEntity
  8
0
100
AcDbBlockEnd
  0
BLOCK
  5
44
330
42
100
AcDbEntity
  8
0
100
AcDbBlockBegin
  2
block 2
 70
     0
 10
0.0
 20
0.0
 30
0.0
  3
block 2
  1

  0
SPLINE
  5
46
330
42
100
AcDbEntity
  8
Layer 1
 62
   250
420
  2301728
370
    35
100
AcDbSpline
210
0.0
220
0.0
230
1.0
 70
    11
 71
     3
 72
   257
 73
   253
 74
     0
 42
0.0000000001
 43
0.0000000001
 12
1.0
 22
0.0
 32
0.0
 13
1.0
 23
0.0
 33
0.0
 40
0.0
 40
0.0
 40
0.0
 40
0.0
 40
1.0
 40
1.0
 40
1.0
 40
2.0
 40
2.0
 40
2.0
 40
3.0
 40
3.0
 40
3.0
 40
4.0
 40
4.0
 40
4.0
 40
5.0
 40
5.0
 40
5.0
 40
6.0
 40
6.0
 40
6.0
 40
7.0
 40
7.0
 40
7.0
 40
8.0
 40
8.0
 40
8.0
 40
9.0
 40
9.0
 40
9.0
 40
10.0
 40
10.0
 40
10.0
 40
11.0
 40
11.0
 40
11.0
 40
12.0
 40
12.0
 40
12.0
 40
13.0
 40
13.0
 40
13.0
 40
14.0
 40
14.0
 40
14.0
 40
15.0
 40
15.0
 40
15.0
 40
16.0
 40
16.0
 40
16.0
 40
17.0
 40
17.0
 40
17.0
 40
18.0
 40
18.0
 40
18.0
 40
19.0
 40
19.0
 40
19.0
 40
20.0
 40
20.0
 40
20.0
 40
21.0
 40
21.0
 40
21.0
 40
22.0
 40
22.0
 40
22.0
 40
23.0
 40
23.0
 40
23.0
 40
24.0
 40
24.0
 40
24.0
 40
25.0
 40
25.0
 40
25.0
 40
26.0
 40
26.0
 40
26.0
 40
27.0
 40
27.0
 40
27.0
 40
28.0
 40
28.0
 40
28.0
 40
29.0
 40
29.0
 40
29.0
 40
30.0
 40
30.0
 40
30.0
 40
31.0
 40
31.0
 40
31.0
 40
32.0
 40
32.0
 40
32.0
 40
33.0
 40
33.0
 40
33.0
 40
34.0
 40
34.0
 40
34.0
 40
35.0
 40
35.0
 40
35.0
 40
36.0
 40
36.0
 40
36.0
 40
37.0
 40
37.0
 40
37.0
 40
38.0
 40
38.0
 40
38.0
 40
39.0
 40
39.0
 40
39.0
 40
40.0
 40
40.0
 40
40.0
 40
41.0
 40
41.0
 40
41.0
 40
42.0
 40
42.0
 40
42.0
 40
43.0
 40
43.0
 40
43.0
 40
44.0
 40
44.0
 40
44.0
 40
45.0
 40
45.0
 40
45.0
 40
46.0
 40
46.0
 40
46.0
 40
47.0
 40
47.0
 40
47.0
 40
48.0
 40
48.0
 40
48.0
 40
49.0
 40
49.0
 40
49.0
 40
50.0
 40
50.0
 40
50.0
 40
51.0
 40
51.0
 40
51.0
 40
52.0
 40
52.0
 40
52.0
 40
53.0
 40
53.0
 40
53.0
 40
54.0
 40
54.0
 40
54.0
 40
55.0
 40
55.0
 40
55.0
 40
56.0
 40
56.0
 40
56.0
 40
57.0
 40
57.0
 40
57.0
 40
58.0
 40
58.0
 40
58.0
 40
59.0
 40
59.0
 40
59.0
 40
60.0
 40
60.0
 40
60.0
 40
61.0
 40
61.0
 40
61.0
 40
62.0
 40
62.0
 40
62.0
 40
63.0
 40
63.0
 40
63.0
 40
64.0
 40
64.0
 40
64.0
 40
65.0
 40
65.0
 40
65.0
 40
66.0
 40
66.0
 40
66.0
 40
67.0
 40
67.0
 40
67.0
 40
68.0
 40
68.0
 40
68.0
 40
69.0
 40
69.0
 40
69.0
 40
70.0
 40
70.0
 40
70.0
 40
71.0
 40
71.0
 40
71.0
 40
72.0
 40
72.0
 40
72.0
 40
73.0
 40
73.0
 40
73.0
 40
74.0
 40
74.0
 40
74.0
 40
75.0
 40
75.0
 40
75.0
 40
76.0
 40
76.0
 40
76.0
 40
77.0
 40
77.0
 40
77.0
 40
78.0
 40
78.0
 40
78.0
 40
79.0
 40
79.0
 40
79.0
 40
80.0
 40
80.0
 40
80.0
 40
81.0
 40
81.0
 40
81.0
 40
82.0
 40
82.0
 40
82.0
 40
83.0
 40
83.0
 40
83.0
 40
84.0
 40
84.0
 40
84.0
 40
84.0
 10
28.90217424449088
 20
-10.52919243628
 30
0.0
 10
29.03043801485018
 20
-10.45818064967665
 30
0.0
 10
29.12904643403463
 20
-10.38943065254888
 30
0.0
 10
29.19780343360657
 20
-10.32293544245263
 30
0.0
 10
29.26655343073435
 20
-10.25655227146361
 30
0.0
 10
29.31123602715643
 20
-10.19124047443665
 30
0.0
 10
29.33186522776115
 20
-10.12700005137194
 30
0.0
 10
29.35248742592186
 20
-10.06286466497013
 30
0.0
 10
29.36044220252976
 20
-9.991859880810832
 30
0.0
 10
29.35592562602268
 20
-9.913873659787074
 30
0.0
 10
29.35131101529671
 20
-9.840607086152216
 30
0.0
 10
29.30318321632962
 20
-9.779804863188321
 30
0.0
 10
29.2115492315656
 20
-9.731684066665416
 30
0.0
 10
29.11981021013851
 20
-9.683556267698323
 30
0.0
 10
29.0052992401824
 20
-9.6469264821029
 30
0.0
 10
28.86779924592699
 20
-9.621682670772215
 30
0.0
 10
28.73029925167144
 20
-9.596543896104295
 30
0.0
 10
28.57904645701282
 20
-9.580431272006662
 30
0.0
 10
28.41404086195088
 20
-9.573554871805122
 30
0.0
 10
28.24904226933323
 20
-9.566678471603456
 30
0.0
 10
28.08855325077852
 20
-9.56560709764124
 30
0.0
 10
27.93279088205685
 20
-9.570116671704302
 30
0.0
 10
27.83653528412268
 20
-9.57473828487443
 30
0.0
 10
27.69785187679782
 20
-9.58966749590277
 30
0.0
 10
27.51684569674546
 20
-9.614806270570549
 30
0.0
 10
27.33573448003004
 20
-9.640050081901386
 30
0.0
 10
27.13753729947365
 20
-9.67560849353443
 30
0.0
 10
26.92215612085741
 20
-9.721369466362905
 30
0.0
 10
26.70666290313394
 20
-9.7672354758543
 30
0.0
 10
26.48558873738531
 20
-9.826861288193186
 30
0.0
 10
26.25870954539727
 20
-9.900120859383883
 30
0.0
 10
26.03183035340935
 20
-9.9734924696818
 30
0.0
 10
25.82439694895685
 20
-10.05825005424415
 30
0.0
 10
25.63651436870282
 20
-10.15449864973416
 30
0.0
 10
25.44852675178575
 20
-10.25074724522416
 30
0.0
 10
25.29158096999476
 20
-10.35967726715513
 30
0.0
 10
25.16557198666685
 20
-10.48106463731291
 30
0.0
 10
25.03945796667602
 20
-10.60255704413374
 30
0.0
 10
24.96726976944755
 20
-10.73888062776402
 30
0.0
 10
24.94900739498129
 20
-10.89013342242278
 30
0.0
 10
24.9352545945781
 20
-10.98187244384971
 30
0.0
 10
24.95695516914505
 20
-11.06319182831138
 30
0.0
 10
25.01431919200824
 20
-11.13419661247056
 30
0.0
 10
25.07157817820838
 20
-11.20531343573694
 30
0.0
 10
25.14838098616282
 20
-11.26718703266305
 30
0.0
 10
25.24463658409699
 20
-11.31982440569305
 30
0.0
 10
25.34088517958699
 20
-11.37256681538611
 30
0.0
 10
25.45196495188657
 20
-11.41843982732179
 30
0.0
 10
25.5780789718774
 20
-11.4573243999486
 30
0.0
 10
25.70408095276116
 20
-11.49632101168264
 30
0.0
 10
25.83127334915838
 20
-11.53187942331568
 30
0.0
 10
25.95964215618073
 20
-11.56388759574095
 30
0.0
 10
26.06964355207393
 20
-11.59138619410318
 30
0.0
 10
26.21852952059407
 20
-11.62125161860416
 30
0.0
 10
26.40652413995518
 20
-11.65326679347346
 30
0.0
 10
26.59440672020921
 20
-11.68538700500596
 30
0.0
 10
26.7869039111892
 20
-11.71632380346902
 30
0.0
 10
26.98402971778351
 20
-11.74607718886263
 30
0.0
 10
27.18104348527059
 20
-11.7759426133636
 30
0.0
 10
27.36441649146171
 20
-11.80344121172583
 30
0.0
 10
27.53403669724949
 20
-11.82857998639361
 30
0.0
 10
27.70354486393018
 20
-11.85382379772444
 30
0.0
 10
27.82278948616365
 20
-11.87326958525999
 30
0.0
 10
27.8915394832913
 20
-11.88701538321902
 30
0.0
 10
28.01528667714352
 20
-11.9100044075182
 30
0.0
 10
28.13216447323838
 20
-11.95007239321444
 30
0.0
 10
28.24216586913156
 20
-12.00733137941458
 30
0.0
 10
28.35216726502477
 20
-12.06469540227777
 30
0.0
 10
28.44497766041393
 20
-12.13451677336762
 30
0.0
 10
28.52060405774338
 20
-12.2170195708986
 30
0.0
 10
28.59623045507267
 20
-12.29952236842958
 30
0.0
 10
28.650051241172
 20
-12.39351617688804
 30
0.0
 10
28.68217145270435
 20
-12.49889595961112
 30
0.0
 10
28.71417962512962
 20
-12.6043877814414
 30
0.0
 10
28.71654645126824
 20
-12.71889875139749
 30
0.0
 10
28.68904785290601
 20
-12.84265294769388
 30
0.0
 10
28.65230602820351
 20
-12.98015294194945
 30
0.0
 10
28.56637203301602
 20
-13.13140573660806
 30
0.0
 10
28.4312318624549
 20
-13.29640432922583
 30
0.0
 10
28.29598665523102
 20
-13.46140992428764
 30
0.0
 10
28.11605184914074
 20
-13.62415372987387
 30
0.0
 10
27.8915394832913
 20
-13.78453771176568
 30
0.0
 10
27.66691507833477
 20
-13.9450267303204
 30
0.0
 10
27.39996790065061
 20
-14.09284132487831
 30
0.0
 10
27.09059291357587
 20
-14.22797449299514
 30
0.0
 10
26.78121092405685
 20
-14.36322670266319
 30
0.0
 10
26.4340227383174
 20
-14.46752810897998
 30
0.0
 10
26.04902135391338
 20
-14.54079468261484
 30
0.0
 10
25.66852954357226
 20
-14.61416629291277
 30
0.0
 10
25.3168247813256
 20
-14.65992726574111
 30
0.0
 10
24.99369699384754
 20
-14.67829467687029
 30
0.0
 10
24.67056920636963
 20
-14.69655705133651
 30
0.0
 10
24.38750940458768
 20
-14.68968065113485
 30
0.0
 10
24.14462262516505
 20
-14.65767247870973
 30
0.0
 10
23.90163080907935
 20
-14.62565730384027
 30
0.0
 10
23.70225721789782
 20
-14.56722190701501
 30
0.0
 10
23.54649484917616
 20
-14.48235228334541
 30
0.0
 10
23.39062044134726
 20
-14.39760170122708
 30
0.0
 10
23.28975023268726
 20
-14.28877671595903
 30
0.0
 10
23.2439892598588
 20
-14.15578629576652
 30
0.0
 10
23.19350163719726
 20
-14.0182863015111
 30
0.0
 10
23.18780865006491
 20
-13.89228432062737
 30
0.0
 10
23.22680526179893
 20
-13.77766131156401
 30
0.0
 10
23.26568983442574
 20
-13.66315034160791
 30
0.0
 10
23.32305385728893
 20
-13.56345654357291
 30
0.0
 10
23.39868025461823
 20
-13.4785939223475
 30
0.0
 10
23.47430665194755
 20
-13.39383633778498
 30
0.0
 10
23.55906423651004
 20
-13.32164814055651
 30
0.0
 10
23.65305804496852
 20
-13.26202933066194
 30
0.0
 10
23.74694681676407
 20
-13.20251555743026
 30
0.0
 10
23.82600441175004
 20
-13.15890433497028
 30
0.0
 10
23.89024483481477
 20
-13.13140573660806
 30
0.0
 10
23.95438022121657
 20
-13.10390713824583
 30
0.0
 10
24.04600720353643
 20
-13.07533016347722
 30
0.0
 10
24.1652518257699
 20
-13.04546473897623
 30
0.0
 10
24.28438440889616
 20
-13.01571135358262
 30
0.0
 10
24.41726278998144
 20
-12.98821275522027
 30
0.0
 10
24.56400601057713
 20
-12.9629619414454
 30
0.0
 10
24.71063719206573
 20
-12.9378301692218
 30
0.0
 10
24.86758297385672
 20
-12.9148411449225
 30
0.0
 10
25.0349483926131
 20
-12.89421194431763
 30
0.0
 10
25.20220177226227
 20
-12.87358974615694
 30
0.0
 10
25.36838377794921
 20
-12.85639874565292
 30
0.0
 10
25.53338937301115
 20
-12.84265294769388
 30
0.0
 10
25.36838377794921
 20
-12.85639874565292
 30
0.0
 10
25.20220177226227
 20
-12.87358974615694
 30
0.0
 10
25.0349483926131
 20
-12.89421194431763
 30
0.0
 10
24.86758297385672
 20
-12.9148411449225
 30
0.0
 10
24.71063719206573
 20
-12.9378301692218
 30
0.0
 10
24.56400601057713
 20
-12.9629619414454
 30
0.0
 10
24.41726278998144
 20
-12.98821275522027
 30
0.0
 10
24.28438440889616
 20
-13.01571135358262
 30
0.0
 10
24.1652518257699
 20
-13.04546473897623
 30
0.0
 10
24.04600720353643
 20
-13.07533016347722
 30
0.0
 10
23.95438022121657
 20
-13.10390713824583
 30
0.0
 10
23.89024483481477
 20
-13.13140573660806
 30
0.0
 10
23.82600441175004
 20
-13.15890433497028
 30
0.0
 10
23.74694681676407
 20
-13.20251555743026
 30
0.0
 10
23.65305804496852
 20
-13.26202933066194
 30
0.0
 10
23.55906423651004
 20
-13.32164814055651
 30
0.0
 10
23.47430665194755
 20
-13.39383633778498
 30
0.0
 10
23.39868025461823
 20
-13.4785939223475
 30
0.0
 10
23.32305385728893
 20
-13.56345654357291
 30
0.0
 10
23.26568983442574
 20
-13.66315034160791
 30
0.0
 10
23.22680526179893
 20
-13.77766131156401
 30
0.0
 10
23.18780865006491
 20
-13.89228432062737
 30
0.0
 10
23.19350163719726
 20
-14.0182863015111
 30
0.0
 10
23.2439892598588
 20
-14.15578629576652
 30
0.0
 10
23.28975023268726
 20
-14.28877671595903
 30
0.0
 10
23.39062044134726
 20
-14.39760170122708
 30
0.0
 10
23.54649484917616
 20
-14.48235228334541
 30
0.0
 10
23.70225721789782
 20
-14.56722190701501
 30
0.0
 10
23.90163080907935
 20
-14.62565730384027
 30
0.0
 10
24.14462262516505
 20
-14.65767247870973
 30
0.0
 10
24.38750940458768
 20
-14.68968065113485
 30
0.0
 10
24.67056920636963
 20
-14.69655705133651
 30
0.0
 10
24.99369699384754
 20
-14.67829467687029
 30
0.0
 10
25.3168247813256
 20
-14.65992726574111
 30
0.0
 10
25.66852954357226
 20
-14.61416629291277
 30
0.0
 10
26.04902135391338
 20
-14.54079468261484
 30
0.0
 10
26.4340227383174
 20
-14.46752810897998
 30
0.0
 10
26.78121092405685
 20
-14.36322670266319
 30
0.0
 10
27.09059291357587
 20
-14.22797449299514
 30
0.0
 10
27.39996790065061
 20
-14.09284132487831
 30
0.0
 10
27.66691507833477
 20
-13.9450267303204
 30
0.0
 10
27.8915394832913
 20
-13.78453771176568
 30
0.0
 10
28.11605184914074
 20
-13.62415372987387
 30
0.0
 10
28.29598665523102
 20
-13.46140992428764
 30
0.0
 10
28.4312318624549
 20
-13.29640432922583
 30
0.0
 10
28.56637203301602
 20
-13.13140573660806
 30
0.0
 10
28.65230602820351
 20
-12.98015294194945
 30
0.0
 10
28.68904785290601
 20
-12.84265294769388
 30
0.0
 10
28.71654645126824
 20
-12.71889875139749
 30
0.0
 10
28.71417962512962
 20
-12.6043877814414
 30
0.0
 10
28.68217145270435
 20
-12.49889595961112
 30
0.0
 10
28.650051241172
 20
-12.39351617688804
 30
0.0
 10
28.59623045507267
 20
-12.29952236842958
 30
0.0
 10
28.52060405774338
 20
-12.2170195708986
 30
0.0
 10
28.44497766041393
 20
-12.13451677336762
 30
0.0
 10
28.35216726502477
 20
-12.06469540227777
 30
0.0
 10
28.24216586913156
 20
-12.00733137941458
 30
0.0
 10
28.13216447323838
 20
-11.95007239321444
 30
0.0
 10
28.01528667714352
 20
-11.9100044075182
 30
0.0
 10
27.8915394832913
 20
-11.88701538321902
 30
0.0
 10
27.82278948616365
 20
-11.87326958525999
 30
0.0
 10
27.70354486393018
 20
-11.85382379772444
 30
0.0
 10
27.53403669724949
 20
-11.82857998639361
 30
0.0
 10
27.36441649146171
 20
-11.80344121172583
 30
0.0
 10
27.18104348527059
 20
-11.7759426133636
 30
0.0
 10
26.98402971778351
 20
-11.74607718886263
 30
0.0
 10
26.7869039111892
 20
-11.71632380346902
 30
0.0
 10
26.59440672020921
 20
-11.68538700500596
 30
0.0
 10
26.40652413995518
 20
-11.65326679347346
 30
0.0
 10
26.21852952059407
 20
-11.62125161860416
 30
0.0
 10
26.06964355207393
 20
-11.59138619410318
 30
0.0
 10
25.95964215618073
 20
-11.56388759574095
 30
0.0
 10
25.83127334915838
 20
-11.53187942331568
 30
0.0
 10
25.70408095276116
 20
-11.49632101168264
 30
0.0
 10
25.5780789718774
 20
-11.4573243999486
 30
0.0
 10
25.45196495188657
 20
-11.41843982732179
 30
0.0
 10
25.34088517958699
 20
-11.37256681538611
 30
0.0
 10
25.24463658409699
 20
-11.31982440569305
 30
0.0
 10
25.14838098616282
 20
-11.26718703266305
 30
0.0
 10
25.07157817820838
 20
-11.20531343573694
 30
0.0
 10
25.01431919200824
 20
-11.13419661247056
 30
0.0
 10
24.95695516914505
 20
-11.06319182831138
 30
0.0
 10
24.9352545945781
 20
-10.98187244384971
 30
0.0
 10
24.94900739498129
 20
-10.89013342242278
 30
0.0
 10
24.96726976944755
 20
-10.73888062776402
 30
0.0
 10
25.03945796667602
 20
-10.60255704413374
 30
0.0
 10
25.16557198666685
 20
-10.48106463731291
 30
0.0
 10
25.29158096999476
 20
-10.35967726715513
 30
0.0
 10
25.44852675178575
 20
-10.25074724522416
 30
0.0
 10
25.63651436870282
 20
-10.15449864973416
 30
0.0
 10
25.82439694895685
 20
-10.05825005424415
 30
0.0
 10
26.03183035340935
 20
-9.9734924696818
 30
0.0
 10
26.25870954539727
 20
-9.900120859383883
 30
0.0
 10
26.48558873738531
 20
-9.826861288193186
 30
0.0
 10
26.70666290313394
 20
-9.7672354758543
 30
0.0
 10
26.92215612085741
 20
-9.721369466362905
 30
0.0
 10
27.13753729947365
 20
-9.67560849353443
 30
0.0
 10
27.33573448003004
 20
-9.640050081901386
 30
0.0
 10
27.51684569674546
 20
-9.614806270570549
 30
0.0
 10
27.69785187679782
 20
-9.58966749590277
 30
0.0
 10
27.83653528412268
 20
-9.57473828487443
 30
0.0
 10
27.93279088205685
 20
-9.570116671704302
 30
0.0
 10
28.08855325077852
 20
-9.56560709764124
 30
0.0
 10
28.24904226933323
 20
-9.566678471603456
 30
0.0
 10
28.41404086195088
 20
-9.573554871805122
 30
0.0
 10
28.57904645701282
 20
-9.580431272006662
 30
0.0
 10
28.73029925167144
 20
-9.596543896104295
 30
0.0
 10
28.86779924592699
 20
-9.621682670772215
 30
0.0
 10
29.0052992401824
 20
-9.6469264821029
 30
0.0
 10
29.11981021013851
 20
-9.683556267698323
 30
0.0
 10
29.2115492315656
 20
-9.731684066665416
 30
0.0
 10
29.30318321632962
 20
-9.779804863188321
 30
0.0
 10
29.35131101529671
 20
-9.840607086152216
 30
0.0
 10
29.35592562602268
 20
-9.913873659787074
 30
0.0
 10
29.36044220252976
 20
-9.991859880810832
 30
0.0
 10
29.35248742592186
 20
-10.06286466497013
 30
0.0
 10
29.33186522776115
 20
-10.12700005137194
 30
0.0
 10
29.31123602715643
 20
-10.19124047443665
 30
0.0
 10
29.26655343073435
 20
-10.25655227146361
 30
0.0
 10
29.19780343360657
 20
-10.32293544245263
 30
0.0
 10
29.12904643403463
 20
-10.38943065254888
 30
0.0
 10
29.03043801485018
 20
-10.45818064967665
 30
0.0
 10
28.90217424449088
 20
-10.52919243628
 30
0.0
 10
28.77380543746852
 20
-10.60030225710221
 30
0.0
 10
28.60192344220491
 20
-10.67700703083791
 30
0.0
 10
28.38654226358866
 20
-10.75950282592472
 30
0.0
 10
28.60192344220491
 20
-10.67700703083791
 30
0.0
 10
28.77380543746852
 20
-10.60030225710221
 30
0.0
 10
28.90217424449088
 20
-10.52919243628
 30
0.0
  0
SPLINE
  5
47
330
42
100
AcDbEntity
  8
Layer 1
 62
   250
420
  2301728
370
    35
100
AcDbSpline
210
0.0
220
0.0
230
1.0
 70
    11
 71
     3
 72
    53
 73
    49
 74
     0
 42
0.0000000001
 43
0.0000000001
 12
1.0
 22
0.0
 32
0.0
 13
1.0
 23
0.0
 33
0.0
 40
0.0
 40
0.0
 40
0.0
 40
0.0
 40
1.0
 40
1.0
 40
1.0
 40
2.0
 40
2.0
 40
2.0
 40
3.0
 40
3.0
 40
3.0
 40
4.0
 40
4.0
 40
4.0
 40
5.0
 40
5.0
 40
5.0
 40
6.0
 40
6.0
 40
6.0
 40
7.0
 40
7.0
 40
7.0
 40
8.0
 40
8.0
 40
8.0
 40
9.0
 40
9.0
 40
9.0
 40
10.0
 40
10.0
 40
10.0
 40
11.0
 40
11.0
 40
11.0
 40
12.0
 40
12.0
 40
12.0
 40
13.0
 40
13.0
 40
13.0
 40
14.0
 40
14.0
 40
14.0
 40
15.0
 40
15.0
 40
15.0
 40
16.0
 40
16.0
 40
16.0
 40
16.0
 10
29.42458459137588
 20
-14.63016687790319
 30
0.0
 10
29.33746718311894
 20
-14.52478709518012
 30
0.0
 10
29.28020819691879
 20
-14.38041070072303
 30
0.0
 10
29.25270959855643
 20
-14.19703769453208
 30
0.0
 10
29.22520399775004
 20
-14.01377672744818
 30
0.0
 10
29.22746578722573
 20
-13.79946692279403
 30
0.0
 10
29.2595859987581
 20
-13.55422031967679
 30
0.0
 10
29.29159417118338
 20
-13.30907875322262
 30
0.0
 10
29.35808938127962
 20
-13.04664815204554
 30
0.0
 10
29.45895958993962
 20
-12.76702655036459
 30
0.0
 10
29.55972476193685
 20
-12.48750998534653
 30
0.0
 10
29.68121716875755
 20
-12.22389597110012
 30
0.0
 10
29.8233387761831
 20
-11.97639458095152
 30
0.0
 10
29.96534834450157
 20
-11.72889319080291
 30
0.0
 10
30.11778455222962
 20
-11.51232859911722
 30
0.0
 10
30.28052835781573
 20
-11.32670080589471
 30
0.0
 10
30.44316712673907
 20
-11.14107301267222
 30
0.0
 10
30.60709434539462
 20
-10.99444183118359
 30
0.0
 10
30.77209994045658
 20
-10.88669522232193
 30
0.0
 10
30.93709853307421
 20
-10.77905365012318
 30
0.0
 10
31.09060611476435
 20
-10.72512782736082
 30
0.0
 10
31.23272772218991
 20
-10.72512782736082
 30
0.0
 10
31.37474429295255
 20
-10.72512782736082
 30
0.0
 10
31.49054371264102
 20
-10.77905365012318
 30
0.0
 10
31.57991590792935
 20
-10.88669522232193
 30
0.0
 10
31.66929510566198
 20
-10.99444183118359
 30
0.0
 10
31.72880887889366
 20
-11.14107301267222
 30
0.0
 10
31.75866730095031
 20
-11.32670080589471
 30
0.0
 10
31.78842768878823
 20
-11.51232859911722
 30
0.0
 10
31.78617290175685
 20
-11.72889319080291
 30
0.0
 10
31.75179790319296
 20
-11.97639458095152
 30
0.0
 10
31.71742290462907
 20
-12.22389597110012
 30
0.0
 10
31.64974428146351
 20
-12.48750998534653
 30
0.0
 10
31.54897910946629
 20
-12.76702655036459
 30
0.0
 10
31.44810890080629
 20
-13.04664815204554
 30
0.0
 10
31.32553811757907
 20
-13.30907875322262
 30
0.0
 10
31.18116172312213
 20
-13.55422031967679
 30
0.0
 10
31.03678532866504
 20
-13.79946692279403
 30
0.0
 10
30.88435612338115
 20
-14.01377672744818
 30
0.0
 10
30.72397214148949
 20
-14.19703769453208
 30
0.0
 10
30.56348312293463
 20
-14.38041070072303
 30
0.0
 10
30.39966094094214
 20
-14.52478709518012
 30
0.0
 10
30.23240756129295
 20
-14.63016687790319
 30
0.0
 10
30.06504214253656
 20
-14.73555366307055
 30
0.0
 10
29.91035114777713
 20
-14.78829607276346
 30
0.0
 10
29.76833457701448
 20
-14.78829607276346
 30
0.0
 10
29.6262199720331
 20
-14.78829607276346
 30
0.0
 10
29.51159696296976
 20
-14.73555366307055
 30
0.0
 10
29.42458459137588
 20
-14.63016687790319
 30
0.0
  0
SPLINE
  5
48
330
42
100
AcDbEntity
  8
Layer 1
 62
   250
420
  2301728
370
    35
100
AcDbSpline
210
0.0
220
0.0
230
1.0
 70
    11
 71
     3
 72
    53
 73
    49
 74
     0
 42
0.0000000001
 43
0.0000000001
 12
1.0
 22
0.0
 32
0.0
 13
1.0
 23
0.0
 33
0.0
 40
0.0
 40
0.0
 40
0.0
 40
0.0
 40
1.0
 40
1.0
 40
1.0
 40
2.0
 40
2.0
 40
2.0
 40
3.0
 40
3.0
 40
3.0
 40
4.0
 40
4.0
 40
4.0
 40
5.0
 40
5.0
 40
5.0
 40
6.0
 40
6.0
 40
6.0
 40
7.0
 40
7.0
 40
7.0
 40
8.0
 40
8.0
 40
8.0
 40
9.0
 40
9.0
 40
9.0
 40
10.0
 40
10.0
 40
10.0
 40
11.0
 40
11.0
 40
11.0
 40
12.0
 40
12.0
 40
12.0
 40
13.0
 40
13.0
 40
13.0
 40
14.0
 40
14.0
 40
14.0
 40
15.0
 40
15.0
 40
15.0
 40
16.0
 40
16.0
 40
16.0
 40
16.0
 10
29.42458459137588
 20
-14.63016687790319
 30
0.0
 10
29.33746718311894
 20
-14.52478709518012
 30
0.0
 10
29.28020819691879
 20
-14.38041070072303
 30
0.0
 10
29.25270959855643
 20
-14.19703769453208
 30
0.0
 10
29.22520399775004
 20
-14.01377672744818
 30
0.0
 10
29.22746578722573
 20
-13.79946692279403
 30
0.0
 10
29.2595859987581
 20
-13.55422031967679
 30
0.0
 10
29.29159417118338
 20
-13.30907875322262
 30
0.0
 10
29.35808938127962
 20
-13.04664815204554
 30
0.0
 10
29.45895958993962
 20
-12.76702655036459
 30
0.0
 10
29.55972476193685
 20
-12.48750998534653
 30
0.0
 10
29.68121716875755
 20
-12.22389597110012
 30
0.0
 10
29.8233387761831
 20
-11.97639458095152
 30
0.0
 10
29.96534834450157
 20
-11.72889319080291
 30
0.0
 10
30.11778455222962
 20
-11.51232859911722
 30
0.0
 10
30.28052835781573
 20
-11.32670080589471
 30
0.0
 10
30.44316712673907
 20
-11.14107301267222
 30
0.0
 10
30.60709434539462
 20
-10.99444183118359
 30
0.0
 10
30.77209994045658
 20
-10.88669522232193
 30
0.0
 10
30.93709853307421
 20
-10.77905365012318
 30
0.0
 10
31.09060611476435
 20
-10.72512782736082
 30
0.0
 10
31.23272772218991
 20
-10.72512782736082
 30
0.0
 10
31.37474429295255
 20
-10.72512782736082
 30
0.0
 10
31.49054371264102
 20
-10.77905365012318
 30
0.0
 10
31.57991590792935
 20
-10.88669522232193
 30
0.0
 10
31.66929510566198
 20
-10.99444183118359
 30
0.0
 10
31.72880887889366
 20
-11.14107301267222
 30
0.0
 10
31.75866730095031
 20
-11.32670080589471
 30
0.0
 10
31.78842768878823
 20
-11.51232859911722
 30
0.0
 10
31.78617290175685
 20
-11.72889319080291
 30
0.0
 10
31.75179790319296
 20
-11.97639458095152
 30
0.0
 10
31.71742290462907
 20
-12.22389597110012
 30
0.0
 10
31.64974428146351
 20
-12.48750998534653
 30
0.0
 10
31.54897910946629
 20
-12.76702655036459
 30
0.0
 10
31.44810890080629
 20
-13.04664815204554
 30
0.0
 10
31.32553811757907
 20
-13.30907875322262
 30
0.0
 10
31.18116172312213
 20
-13.55422031967679
 30
0.0
 10
31.03678532866504
 20
-13.79946692279403
 30
0.0
 10
30.88435612338115
 20
-14.01377672744818
 30
0.0
 10
30.72397214148949
 20
-14.19703769453208
 30
0.0
 10
30.56348312293463
 20
-14.38041070072303
 30
0.0
 10
30.39966094094214
 20
-14.52478709518012
 30
0.0
 10
30.23240756129295
 20
-14.63016687790319
 30
0.0
 10
30.06504214253656
 20
-14.73555366307055
 30
0.0
 10
29.91035114777713
 20
-14.78829607276346
 30
0.0
 10
29.76833457701448
 20
-14.78829607276346
 30
0.0
 10
29.6262199720331
 20
-14.78829607276346
 30
0.0
 10
29.51159696296976
 20
-14.73555366307055
 30
0.0
 10
29.42458459137588
 20
-14.63016687790319
 30
0.0
  0
SPLINE
  5
49
330
42
100
AcDbEntity
  8
Layer 1
 62
   250
420
  2301728
370
    35
100
AcDbSpline
210
0.0
220
0.0
230
1.0
 70
    11
 71
     3
 72
   137
 73
   133
 74
     0
 42
0.0000000001
 43
0.0000000001
 12
1.0
 22
0.0
 32
0.0
 13
1.0
 23
0.0
 33
0.0
 40
0.0
 40
0.0
 40
0.0
 40
0.0
 40
1.0
 40
1.0
 40
1.0
 40
2.0
 40
2.0
 40
2.0
 40
3.0
 40
3.0
 40
3.0
 40
4.0
 40
4.0
 40
4.0
 40
5.0
 40
5.0
 40
5.0
 40
6.0
 40
6.0
 40
6.0
 40
7.0
 40
7.0
 40
7.0
 40
8.0
 40
8.0
 40
8.0
 40
9.0
 40
9.0
 40
9.0
 40
10.0
 40
10.0
 40
10.0
 40
11.0
 40
11.0
 40
11.0
 40
12.0
 40
12.0
 40
12.0
 40
13.0
 40
13.0
 40
13.0
 40
14.0
 40
14.0
 40
14.0
 40
15.0
 40
15.0
 40
15.0
 40
16.0
 40
16.0
 40
16.0
 40
17.0
 40
17.0
 40
17.0
 40
18.0
 40
18.0
 40
18.0
 40
19.0
 40
19.0
 40
19.0
 40
20.0
 40
20.0
 40
20.0
 40
21.0
 40
21.0
 40
21.0
 40
22.0
 40
22.0
 40
22.0
 40
23.0
 40
23.0
 40
23.0
 40
24.0
 40
24.0
 40
24.0
 40
25.0
 40
25.0
 40
25.0
 40
26.0
 40
26.0
 40
26.0
 40
27.0
 40
27.0
 40
27.0
 40
28.0
 40
28.0
 40
28.0
 40
29.0
 40
29.0
 40
29.0
 40
30.0
 40
30.0
 40
30.0
 40
31.0
 40
31.0
 40
31.0
 40
32.0
 40
32.0
 40
32.0
 40
33.0
 40
33.0
 40
33.0
 40
34.0
 40
34.0
 40
34.0
 40
35.0
 40
35.0
 40
35.0
 40
36.0
 40
36.0
 40
36.0
 40
37.0
 40
37.0
 40
37.0
 40
38.0
 40
38.0
 40
38.0
 40
39.0
 40
39.0
 40
39.0
 40
40.0
 40
40.0
 40
40.0
 40
41.0
 40
41.0
 40
41.0
 40
42.0
 40
42.0
 40
42.0
 40
43.0
 40
43.0
 40
43.0
 40
44.0
 40
44.0
 40
44.0
 40
44.0
 10
32.25023188114685
 20
-14.63016687790319
 30
0.0
 10
32.50687146097282
 20
-14.4606587112225
 30
0.0
 10
32.74287483774977
 20
-14.29790790319208
 30
0.0
 10
32.9583680554731
 20
-14.14204049780751
 30
0.0
 10
33.17374923408949
 20
-13.98627812908583
 30
0.0
 10
33.37774443844116
 20
-13.82696552115625
 30
0.0
 10
33.57024863186532
 20
-13.66422171556999
 30
0.0
 10
33.76275282528949
 20
-13.5015829466468
 30
0.0
 10
33.95181181616865
 20
-13.33077932778956
 30
0.0
 10
34.13743960939116
 20
-13.15202793476874
 30
0.0
 10
34.32306740261366
 20
-12.97327654174776
 30
0.0
 10
34.51664297000004
 20
-12.78077234832361
 30
0.0
 10
34.71838338732018
 20
-12.57452235694041
 30
0.0
 10
34.90165135684838
 20
-12.38201816351625
 30
0.0
 10
35.04151117479824
 20
-12.20907179673471
 30
0.0
 10
35.1377667727324
 20
-12.05545217593749
 30
0.0
 10
35.23401536822241
 20
-11.90195159669152
 30
0.0
 10
35.2969673415549
 20
-11.76788280009263
 30
0.0
 10
35.32682576361157
 20
-11.65326679347346
 30
0.0
 10
35.35658615144949
 20
-11.53874882107319
 30
0.0
 10
35.36227913858171
 20
-11.44250022558319
 30
0.0
 10
35.34401676411559
 20
-11.36451400455943
 30
0.0
 10
35.32564935298642
 20
-11.28663282019859
 30
0.0
 10
35.29352914145407
 20
-11.22475222082818
 30
0.0
 10
35.2477681686256
 20
-11.1788862113368
 30
0.0
 10
35.21102634392309
 20
-11.13763481257138
 30
0.0
 10
35.15720555782366
 20
-11.10325981400749
 30
0.0
 10
35.08620077366449
 20
-11.07576121564527
 30
0.0
 10
35.01508395039809
 20
-11.04825561483874
 30
0.0
 10
34.92463337870337
 20
-11.04256262770653
 30
0.0
 10
34.81463898525435
 20
-11.05857021514124
 30
0.0
 10
34.70463758936116
 20
-11.07468283923888
 30
0.0
 10
34.57508536926949
 20
-11.12044381206735
 30
0.0
 10
34.42619239830533
 20
-11.19607020939667
 30
0.0
 10
34.27720139312227
 20
-11.27169660672596
 30
0.0
 10
34.1065028109281
 20
-11.39201260292166
 30
0.0
 10
33.91399861750394
 20
-11.55701119553929
 30
0.0
 10
33.83601239648017
 20
-11.62576119266708
 30
0.0
 10
33.76156941222018
 20
-11.69107999213818
 30
0.0
 10
33.69056462806088
 20
-11.75295358906429
 30
0.0
 10
33.61944780479449
 20
-11.8148271859904
 30
0.0
 10
33.5427500335031
 20
-11.89045358331972
 30
0.0
 10
33.46024723597212
 20
-11.97983278105236
 30
0.0
 10
33.37774443844116
 20
-12.06920497634069
 30
0.0
 10
33.28375062998268
 20
-12.18157319837249
 30
0.0
 10
33.17837084725948
 20
-12.31670636648929
 30
0.0
 10
33.07287902542935
 20
-12.45195157371333
 30
0.0
 10
32.94805345517074
 20
-12.62500997960193
 30
0.0
 10
32.80367706071365
 20
-12.83577654749236
 30
0.0
 10
32.65930066625658
 20
-13.04664815204554
 30
0.0
 10
32.4908638735381
 20
-13.30220935546527
 30
0.0
 10
32.29835968011394
 20
-13.60234811864388
 30
0.0
 10
32.10585548668976
 20
-13.90259191848554
 30
0.0
 10
31.88123808417741
 20
-14.26578769165972
 30
0.0
 10
31.62460550679574
 20
-14.69204747727362
 30
0.0
 10
31.86748528377421
 20
-14.19703769453208
 30
0.0
 10
32.09780267586309
 20
-13.72265711239541
 30
0.0
 10
32.31555068061796
 20
-13.26890573086348
 30
0.0
 10
32.53318664626574
 20
-12.81515434933165
 30
0.0
 10
32.74524166388837
 20
-12.37289397872736
 30
0.0
 10
32.95149165527157
 20
-11.94201958238763
 30
0.0
 10
33.15774164665476
 20
-11.51125022271097
 30
0.0
 10
33.36281522741281
 20
-11.08606881350346
 30
0.0
 10
33.56681043176449
 20
-10.66669243053555
 30
0.0
 10
33.77070059945324
 20
-10.24730904512333
 30
0.0
 10
33.98038879093726
 20
-9.826861288193186
 30
0.0
 10
34.1958820086606
 20
-9.40511807908653
 30
0.0
 10
33.98038879093726
 20
-9.826861288193186
 30
0.0
 10
33.77070059945324
 20
-10.24730904512333
 30
0.0
 10
33.56681043176449
 20
-10.66669243053555
 30
0.0
 10
33.36281522741281
 20
-11.08606881350346
 30
0.0
 10
33.15774164665476
 20
-11.51125022271097
 30
0.0
 10
32.95149165527157
 20
-11.94201958238763
 30
0.0
 10
32.74524166388837
 20
-12.37289397872736
 30
0.0
 10
32.53318664626574
 20
-12.81515434933165
 30
0.0
 10
32.31555068061796
 20
-13.26890573086348
 30
0.0
 10
32.09780267586309
 20
-13.72265711239541
 30
0.0
 10
31.86748528377421
 20
-14.19703769453208
 30
0.0
 10
31.62460550679574
 20
-14.69204747727362
 30
0.0
 10
31.88123808417741
 20
-14.26578769165972
 30
0.0
 10
32.10585548668976
 20
-13.90259191848554
 30
0.0
 10
32.29835968011394
 20
-13.60234811864388
 30
0.0
 10
32.4908638735381
 20
-13.30220935546527
 30
0.0
 10
32.65930066625658
 20
-13.04664815204554
 30
0.0
 10
32.80367706071365
 20
-12.83577654749236
 30
0.0
 10
32.94805345517074
 20
-12.62500997960193
 30
0.0
 10
33.07287902542935
 20
-12.45195157371333
 30
0.0
 10
33.17837084725948
 20
-12.31670636648929
 30
0.0
 10
33.28375062998268
 20
-12.18157319837249
 30
0.0
 10
33.37774443844116
 20
-12.06920497634069
 30
0.0
 10
33.46024723597212
 20
-11.97983278105236
 30
0.0
 10
33.5427500335031
 20
-11.89045358331972
 30
0.0
 10
33.61944780479449
 20
-11.81375581202832
 30
0.0
 10
33.69056462806088
 20
-11.74951538896347
 30
0.0
 10
33.76156941222018
 20
-11.68538700500596
 30
0.0
 10
33.83601239648017
 20
-11.62125161860416
 30
0.0
 10
33.91399861750394
 20
-11.55701119553929
 30
0.0
 10
34.1065028109281
 20
-11.39201260292166
 30
0.0
 10
34.27720139312227
 20
-11.27169660672596
 30
0.0
 10
34.42619239830533
 20
-11.19607020939667
 30
0.0
 10
34.57508536926949
 20
-11.12044381206735
 30
0.0
 10
34.70463758936116
 20
-11.07468283923888
 30
0.0
 10
34.81463898525435
 20
-11.05857021514124
 30
0.0
 10
34.92463337870337
 20
-11.04256262770653
 30
0.0
 10
35.01508395039809
 20
-11.04825561483874
 30
0.0
 10
35.08620077366449
 20
-11.07576121564527
 30
0.0
 10
35.15720555782366
 20
-11.10325981400749
 30
0.0
 10
35.21102634392309
 20
-11.13763481257138
 30
0.0
 10
35.2477681686256
 20
-11.1788862113368
 30
0.0
 10
35.29352914145407
 20
-11.22475222082818
 30
0.0
 10
35.32564935298642
 20
-11.28663282019859
 30
0.0
 10
35.34401676411559
 20
-11.36451400455943
 30
0.0
 10
35.36227913858171
 20
-11.44250022558319
 30
0.0
 10
35.35658615144949
 20
-11.53874882107319
 30
0.0
 10
35.32682576361157
 20
-11.65326679347346
 30
0.0
 10
35.2969673415549
 20
-11.76788280009263
 30
0.0
 10
35.23401536822241
 20
-11.90195159669152
 30
0.0
 10
35.1377667727324
 20
-12.05545217593749
 30
0.0
 10
35.04151117479824
 20
-12.20907179673471
 30
0.0
 10
34.90165135684838
 20
-12.38201816351625
 30
0.0
 10
34.71838338732018
 20
-12.57452235694041
 30
0.0
 10
34.51664297000004
 20
-12.78077234832361
 30
0.0
 10
34.32306740261366
 20
-12.97327654174776
 30
0.0
 10
34.13743960939116
 20
-13.15202793476874
 30
0.0
 10
33.95181181616865
 20
-13.33077932778956
 30
0.0
 10
33.76275282528949
 20
-13.5015829466468
 30
0.0
 10
33.57024863186532
 20
-13.66422171556999
 30
0.0
 10
33.37774443844116
 20
-13.82696552115625
 30
0.0
 10
33.17374923408949
 20
-13.98627812908583
 30
0.0
 10
32.9583680554731
 20
-14.14204049780751
 30
0.0
 10
32.74287483774977
 20
-14.29790790319208
 30
0.0
 10
32.50687146097282
 20
-14.4606587112225
 30
0.0
 10
32.25023188114685
 20
-14.63016687790319
 30
0.0
  0
SPLINE
  5
4A
330
42
100
AcDbEntity
  8
Layer 1
 62
   250
420
  2301728
370
    35
100
AcDbSpline
210
0.0
220
0.0
230
1.0
 70
    11
 71
     3
 72
   161
 73
   157
 74
     0
 42
0.0000000001
 43
0.0000000001
 12
1.0
 22
0.0
 32
0.0
 13
1.0
 23
0.0
 33
0.0
 40
0.0
 40
0.0
 40
0.0
 40
0.0
 40
1.0
 40
1.0
 40
1.0
 40
2.0
 40
2.0
 40
2.0
 40
3.0
 40
3.0
 40
3.0
 40
4.0
 40
4.0
 40
4.0
 40
5.0
 40
5.0
 40
5.0
 40
6.0
 40
6.0
 40
6.0
 40
7.0
 40
7.0
 40
7.0
 40
8.0
 40
8.0
 40
8.0
 40
9.0
 40
9.0
 40
9.0
 40
10.0
 40
10.0
 40
10.0
 40
11.0
 40
11.0
 40
11.0
 40
12.0
 40
12.0
 40
12.0
 40
13.0
 40
13.0
 40
13.0
 40
14.0
 40
14.0
 40
14.0
 40
15.0
 40
15.0
 40
15.0
 40
16.0
 40
16.0
 40
16.0
 40
17.0
 40
17.0
 40
17.0
 40
18.0
 40
18.0
 40
18.0
 40
19.0
 40
19.0
 40
19.0
 40
20.0
 40
20.0
 40
20.0
 40
21.0
 40
21.0
 40
21.0
 40
22.0
 40
22.0
 40
22.0
 40
23.0
 40
23.0
 40
23.0
 40
24.0
 40
24.0
 40
24.0
 40
25.0
 40
25.0
 40
25.0
 40
26.0
 40
26.0
 40
26.0
 40
27.0
 40
27.0
 40
27.0
 40
28.0
 40
28.0
 40
28.0
 40
29.0
 40
29.0
 40
29.0
 40
30.0
 40
30.0
 40
30.0
 40
31.0
 40
31.0
 40
31.0
 40
32.0
 40
32.0
 40
32.0
 40
33.0
 40
33.0
 40
33.0
 40
34.0
 40
34.0
 40
34.0
 40
35.0
 40
35.0
 40
35.0
 40
36.0
 40
36.0
 40
36.0
 40
37.0
 40
37.0
 40
37.0
 40
38.0
 40
38.0
 40
38.0
 40
39.0
 40
39.0
 40
39.0
 40
40.0
 40
40.0
 40
40.0
 40
41.0
 40
41.0
 40
41.0
 40
42.0
 40
42.0
 40
42.0
 40
43.0
 40
43.0
 40
43.0
 40
44.0
 40
44.0
 40
44.0
 40
45.0
 40
45.0
 40
45.0
 40
46.0
 40
46.0
 40
46.0
 40
47.0
 40
47.0
 40
47.0
 40
48.0
 40
48.0
 40
48.0
 40
49.0
 40
49.0
 40
49.0
 40
50.0
 40
50.0
 40
50.0
 40
51.0
 40
51.0
 40
51.0
 40
52.0
 40
52.0
 40
52.0
 40
52.0
 10
37.30339868470003
 20
-13.61953211670374
 30
0.0
 10
37.2071290818774
 20
-13.75703211095917
 30
0.0
 10
37.09819905994643
 20
-13.90377533155485
 30
0.0
 10
36.97683269712115
 20
-14.05953770027653
 30
0.0
 10
36.855326285412
 20
-14.21541210810541
 30
0.0
 10
36.7224479043267
 20
-14.35409551543014
 30
0.0
 10
36.57805750498129
 20
-14.47548288558791
 30
0.0
 10
36.43370211785686
 20
-14.59697529240874
 30
0.0
 10
36.2790041206531
 20
-14.68742586410346
 30
0.0
 10
36.11399852559116
 20
-14.74704467399806
 30
0.0
 10
35.94900693541768
 20
-14.80655844722972
 30
0.0
 10
35.7771249401542
 20
-14.80891827092415
 30
0.0
 10
35.59837354713324
 20
-14.7539210741997
 30
0.0
 10
35.47913592734393
 20
-14.7218008626672
 30
0.0
 10
35.38975672961143
 20
-14.66218205277262
 30
0.0
 10
35.33024995882393
 20
-14.57516968117875
 30
0.0
 10
35.27063114892935
 20
-14.48815730958485
 30
0.0
 10
35.23055616078894
 20
-14.38847051399403
 30
0.0
 10
35.20993396262838
 20
-14.27610229196221
 30
0.0
 10
35.18931176446767
 20
-14.1638461090375
 30
0.0
 10
35.18587356436685
 20
-14.04471352591125
 30
0.0
 10
35.19961936232587
 20
-13.91859950592026
 30
0.0
 10
35.21337216272907
 20
-13.79259052259234
 30
0.0
 10
35.23399436088976
 20
-13.67001973936527
 30
0.0
 10
35.26149996169615
 20
-13.55078211957609
 30
0.0
 10
35.28899856005852
 20
-13.43164953644972
 30
0.0
 10
35.31875194545226
 20
-13.32390292758805
 30
0.0
 10
35.35087215698463
 20
-13.22765433209805
 30
0.0
 10
35.38288733185407
 20
-13.13140573660806
 30
0.0
 10
35.41038593021629
 20
-13.05577933927874
 30
0.0
 10
35.43337495451561
 20
-13.00077514010998
 30
0.0
 10
35.45625193970768
 20
-12.94577794338554
 30
0.0
 10
35.50094153857393
 20
-12.85758215872223
 30
0.0
 10
35.56743674867018
 20
-12.73608975190152
 30
0.0
 10
35.63382692210352
 20
-12.61470238174373
 30
0.0
 10
35.71976091729102
 20
-12.47719538504417
 30
0.0
 10
35.8252527391213
 20
-12.32358276669096
 30
0.0
 10
35.93063252184434
 20
-12.17007518500082
 30
0.0
 10
36.05321730995991
 20
-12.00969120310901
 30
0.0
 10
36.19307012546561
 20
-11.84232578435262
 30
0.0
 10
36.33283891164087
 20
-11.67507240470347
 30
0.0
 10
36.48868530969295
 20
-11.51812662291249
 30
0.0
 10
36.66057430740062
 20
-11.3713834023168
 30
0.0
 10
36.83244229777574
 20
-11.22475222082818
 30
0.0
 10
37.0157102673038
 20
-11.09875023994457
 30
0.0
 10
37.21057428442241
 20
-10.9932584181143
 30
0.0
 10
37.40532626243395
 20
-10.88787863539124
 30
0.0
 10
37.61041384808032
 20
-10.821383425295
 30
0.0
 10
37.82589306091533
 20
-10.79387782448861
 30
0.0
 10
37.9679026292338
 20
-10.77561545002235
 30
0.0
 10
38.06758942482462
 20
-10.78936825042554
 30
0.0
 10
38.12495344768768
 20
-10.83512922325402
 30
0.0
 10
38.18220543144366
 20
-10.88100223518957
 30
0.0
 10
38.20747025010713
 20
-10.94856881924804
 30
0.0
 10
38.20057984501712
 20
-11.03794801698055
 30
0.0
 10
38.1937174497038
 20
-11.12732021226902
 30
0.0
 10
38.15696862255714
 20
-11.23281203409916
 30
0.0
 10
38.0905854515681
 20
-11.35419940425693
 30
0.0
 10
38.02409024147184
 20
-11.47569181107777
 30
0.0
 10
37.93933265690935
 20
-11.60170079440569
 30
0.0
 10
37.83620065877353
 20
-11.73232438845943
 30
0.0
 10
37.73306866063783
 20
-11.86295498495749
 30
0.0
 10
37.61621187187559
 20
-11.99132379197985
 30
0.0
 10
37.48557427293336
 20
-12.11733277530776
 30
0.0
 10
37.35493667399115
 20
-12.2434467952986
 30
0.0
 10
37.21852906103047
 20
-12.35451956515403
 30
0.0
 10
37.07651949271199
 20
-12.45077516308818
 30
0.0
 10
37.02601786516198
 20
-12.48750998534653
 30
0.0
 10
36.95039146783268
 20
-12.53670915827582
 30
0.0
 10
36.84964030072393
 20
-12.5985897576461
 30
0.0
 10
36.74874908473129
 20
-12.6604633545722
 30
0.0
 10
36.63189229596906
 20
-12.72577515159916
 30
0.0
 10
36.49902091732798
 20
-12.79452514872678
 30
0.0
 10
36.36603049713545
 20
-12.86327514585459
 30
0.0
 10
36.22164009778991
 20
-12.92977035595082
 30
0.0
 10
36.06587772906838
 20
-12.99390574235263
 30
0.0
 10
35.91001032368366
 20
-13.05813916297317
 30
0.0
 10
35.74962634179198
 20
-13.11077653600319
 30
0.0
 10
35.58462774917421
 20
-13.15202793476874
 30
0.0
 10
35.74962634179198
 20
-13.11077653600319
 30
0.0
 10
35.91001032368366
 20
-13.05813916297317
 30
0.0
 10
36.06587772906838
 20
-12.99390574235263
 30
0.0
 10
36.22164009778991
 20
-12.92977035595082
 30
0.0
 10
36.36603049713545
 20
-12.86327514585459
 30
0.0
 10
36.49902091732798
 20
-12.79452514872678
 30
0.0
 10
36.63189229596906
 20
-12.72577515159916
 30
0.0
 10
36.74874908473129
 20
-12.6604633545722
 30
0.0
 10
36.84964030072393
 20
-12.5985897576461
 30
0.0
 10
36.95039146783268
 20
-12.53670915827582
 30
0.0
 10
37.02601786516198
 20
-12.48750998534653
 30
0.0
 10
37.07651949271199
 20
-12.45077516308818
 30
0.0
 10
37.21852906103047
 20
-12.3500099910911
 30
0.0
 10
37.35493667399115
 20
-12.23764176905916
 30
0.0
 10
37.48557427293336
 20
-12.11389457520694
 30
0.0
 10
37.61621187187559
 20
-11.99014037891055
 30
0.0
 10
37.73306866063783
 20
-11.86295498495749
 30
0.0
 10
37.83620065877353
 20
-11.73232438845943
 30
0.0
 10
37.93933265690935
 20
-11.60170079440569
 30
0.0
 10
38.02409024147184
 20
-11.47569181107777
 30
0.0
 10
38.0905854515681
 20
-11.35419940425693
 30
0.0
 10
38.15696862255714
 20
-11.23281203409916
 30
0.0
 10
38.1937174497038
 20
-11.12732021226902
 30
0.0
 10
38.20057984501712
 20
-11.03794801698055
 30
0.0
 10
38.20747025010713
 20
-10.94856881924804
 30
0.0
 10
38.18220543144366
 20
-10.88100223518957
 30
0.0
 10
38.12495344768768
 20
-10.83512922325402
 30
0.0
 10
38.06758942482462
 20
-10.78936825042554
 30
0.0
 10
37.9679026292338
 20
-10.77561545002235
 30
0.0
 10
37.82589306091533
 20
-10.79387782448861
 30
0.0
 10
37.61041384808032
 20
-10.821383425295
 30
0.0
 10
37.40532626243395
 20
-10.88787863539124
 30
0.0
 10
37.21057428442241
 20
-10.9932584181143
 30
0.0
 10
37.0157102673038
 20
-11.09875023994457
 30
0.0
 10
36.83244229777574
 20
-11.22475222082818
 30
0.0
 10
36.66057430740062
 20
-11.3713834023168
 30
0.0
 10
36.48868530969295
 20
-11.51812662291249
 30
0.0
 10
36.33283891164087
 20
-11.67507240470347
 30
0.0
 10
36.19307012546561
 20
-11.84232578435262
 30
0.0
 10
36.05321730995991
 20
-12.00969120310901
 30
0.0
 10
35.93063252184434
 20
-12.17007518500082
 30
0.0
 10
35.8252527391213
 20
-12.32358276669096
 30
0.0
 10
35.71976091729102
 20
-12.47719538504417
 30
0.0
 10
35.63382692210352
 20
-12.61470238174373
 30
0.0
 10
35.56743674867018
 20
-12.73608975190152
 30
0.0
 10
35.50094153857393
 20
-12.85758215872223
 30
0.0
 10
35.45625193970768
 20
-12.94577794338554
 30
0.0
 10
35.43337495451561
 20
-13.00077514010998
 30
0.0
 10
35.41038593021629
 20
-13.05126976521569
 30
0.0
 10
35.38288733185407
 20
-13.12571274947582
 30
0.0
 10
35.35087215698463
 20
-13.22421613199721
 30
0.0
 10
35.31875194545226
 20
-13.32283155362582
 30
0.0
 10
35.28899856005852
 20
-13.43164953644972
 30
0.0
 10
35.26149996169615
 20
-13.55078211957609
 30
0.0
 10
35.23399436088976
 20
-13.67001973936527
 30
0.0
 10
35.21337216272907
 20
-13.79259052259234
 30
0.0
 10
35.19961936232587
 20
-13.91859950592026
 30
0.0
 10
35.18587356436685
 20
-14.04471352591125
 30
0.0
 10
35.18931176446767
 20
-14.1638461090375
 30
0.0
 10
35.20993396262838
 20
-14.27610229196221
 30
0.0
 10
35.23055616078894
 20
-14.38847051399403
 30
0.0
 10
35.27063114892935
 20
-14.48815730958485
 30
0.0
 10
35.33024995882393
 20
-14.57516968117875
 30
0.0
 10
35.38975672961143
 20
-14.66218205277262
 30
0.0
 10
35.47913592734393
 20
-14.7218008626672
 30
0.0
 10
35.59837354713324
 20
-14.7539210741997
 30
0.0
 10
35.7771249401542
 20
-14.80891827092415
 30
0.0
 10
35.94900693541768
 20
-14.80655844722972
 30
0.0
 10
36.11399852559116
 20
-14.74704467399806
 30
0.0
 10
36.2790041206531
 20
-14.68742586410346
 30
0.0
 10
36.43370211785686
 20
-14.59697529240874
 30
0.0
 10
36.57805750498129
 20
-14.47548288558791
 30
0.0
 10
36.7224479043267
 20
-14.35409551543014
 30
0.0
 10
36.855326285412
 20
-14.21541210810541
 30
0.0
 10
36.97683269712115
 20
-14.05953770027653
 30
0.0
 10
37.09819905994643
 20
-13.90377533155485
 30
0.0
 10
37.2071290818774
 20
-13.75703211095917
 30
0.0
 10
37.30339868470003
 20
-13.61953211670374
 30
0.0
  0
SPLINE
  5
4B
330
42
100
AcDbEntity
  8
Layer 1
 62
   250
420
  2301728
370
    35
100
AcDbSpline
210
0.0
220
0.0
230
1.0
 70
    11
 71
     3
 72
    35
 73
    31
 74
     0
 42
0.0000000001
 43
0.0000000001
 12
1.0
 22
0.0
 32
0.0
 13
1.0
 23
0.0
 33
0.0
 40
0.0
 40
0.0
 40
0.0
 40
0.0
 40
1.0
 40
1.0
 40
1.0
 40
2.0
 40
2.0
 40
2.0
 40
3.0
 40
3.0
 40
3.0
 40
4.0
 40
4.0
 40
4.0
 40
5.0
 40
5.0
 40
5.0
 40
6.0
 40
6.0
 40
6.0
 40
7.0
 40
7.0
 40
7.0
 40
8.0
 40
8.0
 40
8.0
 40
9.0
 40
9.0
 40
9.0
 40
10.0
 40
10.0
 40
10.0
 40
10.0
 10
41.1602048996124
 20
-10.83512922325402
 30
0.0
 10
40.82557209631838
 20
-10.9588834195504
 30
0.0
 10
40.51158249851768
 20
-11.15138061053041
 30
0.0
 10
40.2183201355406
 20
-11.41263480108221
 30
0.0
 10
39.92494573345645
 20
-11.67388899163416
 30
0.0
 10
39.64650054240047
 20
-11.97875440464597
 30
0.0
 10
39.38299856726128
 20
-12.3270209667918
 30
0.0
 10
39.11937054812658
 20
-12.67539256560056
 30
0.0
 10
38.86736658635906
 20
-13.05470096287235
 30
0.0
 10
38.62673459396797
 20
-13.46484812438846
 30
0.0
 10
38.38610260157672
 20
-13.87509332012332
 30
0.0
 10
38.15117059876184
 20
-14.28877671595903
 30
0.0
 10
37.92203661974241
 20
-14.70579327523263
 30
0.0
 10
37.92203661974241
 20
-14.70579327523263
 30
0.0
 10
39.5308061593749
 20
-10.821383425295
 30
0.0
 10
39.5308061593749
 20
-10.821383425295
 30
0.0
 10
39.5308061593749
 20
-10.821383425295
 30
0.0
 10
37.92203661974241
 20
-14.70579327523263
 30
0.0
 10
37.92203661974241
 20
-14.70579327523263
 30
0.0
 10
38.15117059876184
 20
-14.28877671595903
 30
0.0
 10
38.38610260157672
 20
-13.87509332012332
 30
0.0
 10
38.62673459396797
 20
-13.46484812438846
 30
0.0
 10
38.86736658635906
 20
-13.05470096287235
 30
0.0
 10
39.11937054812658
 20
-12.67539256560056
 30
0.0
 10
39.38299856726128
 20
-12.3270209667918
 30
0.0
 10
39.64650054240047
 20
-11.97875440464597
 30
0.0
 10
39.92494573345645
 20
-11.67388899163416
 30
0.0
 10
40.2183201355406
 20
-11.41263480108221
 30
0.0
 10
40.51158249851768
 20
-11.15138061053041
 30
0.0
 10
40.82557209631838
 20
-10.9588834195504
 30
0.0
 10
41.1602048996124
 20
-10.83512922325402
 30
0.0
  0
SPLINE
  5
4C
330
42
100
AcDbEntity
  8
Layer 1
 62
   250
420
  2301728
370
    35
100
AcDbSpline
210
0.0
220
0.0
230
1.0
 70
    11
 71
     3
 72
    65
 73
    61
 74
     0
 42
0.0000000001
 43
0.0000000001
 12
1.0
 22
0.0
 32
0.0
 13
1.0
 23
0.0
 33
0.0
 40
0.0
 40
0.0
 40
0.0
 40
0.0
 40
1.0
 40
1.0
 40
1.0
 40
2.0
 40
2.0
 40
2.0
 40
3.0
 40
3.0
 40
3.0
 40
4.0
 40
4.0
 40
4.0
 40
5.0
 40
5.0
 40
5.0
 40
6.0
 40
6.0
 40
6.0
 40
7.0
 40
7.0
 40
7.0
 40
8.0
 40
8.0
 40
8.0
 40
9.0
 40
9.0
 40
9.0
 40
10.0
 40
10.0
 40
10.0
 40
11.0
 40
11.0
 40
11.0
 40
12.0
 40
12.0
 40
12.0
 40
13.0
 40
13.0
 40
13.0
 40
14.0
 40
14.0
 40
14.0
 40
15.0
 40
15.0
 40
15.0
 40
16.0
 40
16.0
 40
16.0
 40
17.0
 40
17.0
 40
17.0
 40
18.0
 40
18.0
 40
18.0
 40
19.0
 40
19.0
 40
19.0
 40
20.0
 40
20.0
 40
20.0
 40
20.0
 10
46.93523266811823
 20
-14.05266130007499
 30
0.0
 10
46.93523266811823
 20
-13.82352732105541
 30
0.0
 10
46.93631104452462
 20
-13.57720934397609
 30
0.0
 10
46.93867787066324
 20
-13.31359532972985
 30
0.0
 10
46.94093265769475
 20
-13.05008635214638
 30
0.0
 10
46.94436385535143
 20
-12.77626277426068
 30
0.0
 10
46.94898546852144
 20
-12.49201955940943
 30
0.0
 10
46.95349504258449
 20
-12.2078883836654
 30
0.0
 10
46.96037144278603
 20
-11.93063360812304
 30
0.0
 10
46.96961466912631
 20
-11.66013619123096
 30
0.0
 10
46.98787704359253
 20
-11.02763341667819
 30
0.0
 10
47.00623745227742
 20
-10.36311546725597
 30
0.0
 10
47.02461186585088
 20
-9.66637226963846
 30
0.0
 10
46.41960068721616
 20
-10.39061406561819
 30
0.0
 10
45.83974228813754
 20
-11.07576121564527
 30
0.0
 10
45.28521873216449
 20
-11.72201679060125
 30
0.0
 10
45.05146313997476
 20
-11.99701677911221
 30
0.0
 10
44.81083114758351
 20
-12.27663838079317
 30
0.0
 10
44.56333675987907
 20
-12.56077655898139
 30
0.0
 10
44.31582836728628
 20
-12.84501277138833
 30
0.0
 10
44.07746516681492
 20
-13.11765293620485
 30
0.0
 10
43.84833118779534
 20
-13.37890712675666
 30
0.0
 10
43.61908516966865
 20
-13.64016131730861
 30
0.0
 10
43.40488040167754
 20
-13.88078630725568
 30
0.0
 10
43.20550681049601
 20
-14.10078909904208
 30
0.0
 10
43.00613321931435
 20
-14.32079189082846
 30
0.0
 10
42.83532960045727
 20
-14.50190310754387
 30
0.0
 10
42.69332003213879
 20
-14.6439196783064
 30
0.0
 10
42.83532960045727
 20
-14.50190310754387
 30
0.0
 10
43.00613321931435
 20
-14.32079189082846
 30
0.0
 10
43.20550681049601
 20
-14.10078909904208
 30
0.0
 10
43.40488040167754
 20
-13.88078630725568
 30
0.0
 10
43.61908516966865
 20
-13.64016131730861
 30
0.0
 10
43.84833118779534
 20
-13.37890712675666
 30
0.0
 10
44.07746516681492
 20
-13.11765293620485
 30
0.0
 10
44.31582836728628
 20
-12.84501277138833
 30
0.0
 10
44.56333675987907
 20
-12.56077655898139
 30
0.0
 10
44.81083114758351
 20
-12.27663838079317
 30
0.0
 10
45.05146313997476
 20
-11.99701677911221
 30
0.0
 10
45.28521873216449
 20
-11.72201679060125
 30
0.0
 10
45.83974228813754
 20
-11.07576121564527
 30
0.0
 10
46.41960068721616
 20
-10.39061406561819
 30
0.0
 10
47.02461186585088
 20
-9.66637226963846
 30
0.0
 10
47.00623745227742
 20
-10.36311546725597
 30
0.0
 10
46.98787704359253
 20
-11.02763341667819
 30
0.0
 10
46.96961466912631
 20
-11.66013619123096
 30
0.0
 10
46.96037144278603
 20
-11.93063360812304
 30
0.0
 10
46.95349504258449
 20
-12.2078883836654
 30
0.0
 10
46.94898546852144
 20
-12.49201955940943
 30
0.0
 10
46.94436385535143
 20
-12.77626277426068
 30
0.0
 10
46.94093265769475
 20
-13.05008635214638
 30
0.0
 10
46.93867787066324
 20
-13.31359532972985
 30
0.0
 10
46.93631104452462
 20
-13.57720934397609
 30
0.0
 10
46.93523266811823
 20
-13.82352732105541
 30
0.0
 10
46.93523266811823
 20
-14.05266130007499
 30
0.0
 10
46.93523266811823
 20
-14.28190731820167
 30
0.0
 10
46.93974224218128
 20
-14.47892108568875
 30
0.0
 10
46.94898546852144
 20
-14.6439196783064
 30
0.0
 10
46.93974224218128
 20
-14.47892108568875
 30
0.0
 10
46.93523266811823
 20
-14.28190731820167
 30
0.0
 10
46.93523266811823
 20
-14.05266130007499
 30
0.0
  0
SPLINE
  5
4D
330
42
100
AcDbEntity
  8
Layer 1
 62
   250
420
  2301728
370
    35
100
AcDbSpline
210
0.0
220
0.0
230
1.0
 70
    11
 71
     3
 72
    35
 73
    31
 74
     0
 42
0.0000000001
 43
0.0000000001
 12
1.0
 22
0.0
 32
0.0
 13
1.0
 23
0.0
 33
0.0
 40
0.0
 40
0.0
 40
0.0
 40
0.0
 40
1.0
 40
1.0
 40
1.0
 40
2.0
 40
2.0
 40
2.0
 40
3.0
 40
3.0
 40
3.0
 40
4.0
 40
4.0
 40
4.0
 40
5.0
 40
5.0
 40
5.0
 40
6.0
 40
6.0
 40
6.0
 40
7.0
 40
7.0
 40
7.0
 40
8.0
 40
8.0
 40
8.0
 40
9.0
 40
9.0
 40
9.0
 40
10.0
 40
10.0
 40
10.0
 40
10.0
 10
45.76646871205851
 20
-12.29952236842958
 30
0.0
 10
45.523483898417
 20
-12.3132681663886
 30
0.0
 10
45.27146593176116
 20
-12.32594959282958
 30
0.0
 10
45.01021874365352
 20
-12.33733556709416
 30
0.0
 10
44.7489575506574
 20
-12.3488265780218
 30
0.0
 10
44.49114156020644
 20
-12.35914117832415
 30
0.0
 10
44.23677077230033
 20
-12.36827236555721
 30
0.0
 10
43.98238597950588
 20
-12.37750858945333
 30
0.0
 10
43.73596996820768
 20
-12.38438498965484
 30
0.0
 10
43.49770480195505
 20
-12.38889456371791
 30
0.0
 10
43.25932759659533
 20
-12.39351617688804
 30
0.0
 10
43.04157959184047
 20
-12.39577096391943
 30
0.0
 10
42.84457282679755
 20
-12.39577096391943
 30
0.0
 10
43.04157959184047
 20
-12.39577096391943
 30
0.0
 10
43.25932759659533
 20
-12.39351617688804
 30
0.0
 10
43.49770480195505
 20
-12.38889456371791
 30
0.0
 10
43.73596996820768
 20
-12.38438498965484
 30
0.0
 10
43.98238597950588
 20
-12.37750858945333
 30
0.0
 10
44.23677077230033
 20
-12.36827236555721
 30
0.0
 10
44.49114156020644
 20
-12.35914117832415
 30
0.0
 10
44.7489575506574
 20
-12.3488265780218
 30
0.0
 10
45.01021874365352
 20
-12.33733556709416
 30
0.0
 10
45.27146593176116
 20
-12.32594959282958
 30
0.0
 10
45.523483898417
 20
-12.3132681663886
 30
0.0
 10
45.76646871205851
 20
-12.29952236842958
 30
0.0
 10
46.33474506843491
 20
-12.27202377006721
 30
0.0
 10
46.91460346751339
 20
-12.23764176905916
 30
0.0
 10
47.5058618457449
 20
-12.19639737273792
 30
0.0
 10
46.91460346751339
 20
-12.23764176905916
 30
0.0
 10
46.33474506843491
 20
-12.27202377006721
 30
0.0
 10
45.76646871205851
 20
-12.29952236842958
 30
0.0
  0
SPLINE
  5
4E
330
42
100
AcDbEntity
  8
Layer 1
 62
   250
420
  2301728
370
    35
100
AcDbSpline
210
0.0
220
0.0
230
1.0
 70
    11
 71
     3
 72
    41
 73
    37
 74
     0
 42
0.0000000001
 43
0.0000000001
 12
1.0
 22
0.0
 32
0.0
 13
1.0
 23
0.0
 33
0.0
 40
0.0
 40
0.0
 40
0.0
 40
0.0
 40
1.0
 40
1.0
 40
1.0
 40
2.0
 40
2.0
 40
2.0
 40
3.0
 40
3.0
 40
3.0
 40
4.0
 40
4.0
 40
4.0
 40
5.0
 40
5.0
 40
5.0
 40
6.0
 40
6.0
 40
6.0
 40
7.0
 40
7.0
 40
7.0
 40
8.0
 40
8.0
 40
8.0
 40
9.0
 40
9.0
 40
9.0
 40
10.0
 40
10.0
 40
10.0
 40
11.0
 40
11.0
 40
11.0
 40
12.0
 40
12.0
 40
12.0
 40
12.0
 10
48.04890139323477
 20
-14.63016687790319
 30
0.0
 10
48.15428817840198
 20
-14.40565451205389
 30
0.0
 10
48.27685896162908
 20
-14.13065452354292
 30
0.0
 10
48.41672578202325
 20
-13.80515990992623
 30
0.0
 10
48.55648056331018
 20
-13.47977733541681
 30
0.0
 10
48.69968054714213
 20
-13.13828213680972
 30
0.0
 10
48.84640976284948
 20
-12.78077234832361
 30
0.0
 10
48.99304094433796
 20
-12.4232695622818
 30
0.0
 10
49.13860775430852
 20
-12.06469540227777
 30
0.0
 10
49.28298414876559
 20
-11.70482579009721
 30
0.0
 10
49.42736054322268
 20
-11.34506821702388
 30
0.0
 10
49.55680772665144
 20
-11.01731881637569
 30
0.0
 10
49.67142373327061
 20
-10.72168962726
 30
0.0
 10
49.78594170567087
 20
-10.42606744058847
 30
0.0
 10
49.88111892719878
 20
-10.18092587413429
 30
0.0
 10
49.9567453245281
 20
-9.986061857015683
 30
0.0
 10
50.03235771696907
 20
-9.791302876559989
 30
0.0
 10
50.07704731583532
 20
-9.677863280565967
 30
0.0
 10
50.09080011623852
 20
-9.645743069033603
 30
0.0
 10
50.07704731583532
 20
-9.677863280565967
 30
0.0
 10
50.03235771696907
 20
-9.791302876559989
 30
0.0
 10
49.9567453245281
 20
-9.986061857015683
 30
0.0
 10
49.88111892719878
 20
-10.18092587413429
 30
0.0
 10
49.78594170567087
 20
-10.42606744058847
 30
0.0
 10
49.67142373327061
 20
-10.72168962726
 30
0.0
 10
49.55680772665144
 20
-11.01731881637569
 30
0.0
 10
49.42736054322268
 20
-11.34506821702388
 30
0.0
 10
49.28298414876559
 20
-11.70482579009721
 30
0.0
 10
49.13860775430852
 20
-12.06469540227777
 30
0.0
 10
48.99304094433796
 20
-12.4232695622818
 30
0.0
 10
48.84640976284948
 20
-12.78077234832361
 30
0.0
 10
48.69968054714213
 20
-13.13828213680972
 30
0.0
 10
48.55648056331018
 20
-13.47977733541681
 30
0.0
 10
48.41672578202325
 20
-13.80515990992623
 30
0.0
 10
48.27685896162908
 20
-14.13065452354292
 30
0.0
 10
48.15428817840198
 20
-14.40565451205389
 30
0.0
 10
48.04890139323477
 20
-14.63016687790319
 30
0.0
  0
SPLINE
  5
4F
330
42
100
AcDbEntity
  8
Layer 1
 62
   250
420
  2301728
370
    35
100
AcDbSpline
210
0.0
220
0.0
230
1.0
 70
    11
 71
     3
 72
    29
 73
    25
 74
     0
 42
0.0000000001
 43
0.0000000001
 12
1.0
 22
0.0
 32
0.0
 13
1.0
 23
0.0
 33
0.0
 40
0.0
 40
0.0
 40
0.0
 40
0.0
 40
1.0
 40
1.0
 40
1.0
 40
2.0
 40
2.0
 40
2.0
 40
3.0
 40
3.0
 40
3.0
 40
4.0
 40
4.0
 40
4.0
 40
5.0
 40
5.0
 40
5.0
 40
6.0
 40
6.0
 40
6.0
 40
7.0
 40
7.0
 40
7.0
 40
8.0
 40
8.0
 40
8.0
 40
8.0
 10
48.59203897494338
 20
-11.29575700498748
 30
0.0
 10
48.83030414119601
 20
-11.27750163296542
 30
0.0
 10
49.09499653184866
 20
-11.26482020652444
 30
0.0
 10
49.38610214201309
 20
-11.25795080876694
 30
0.0
 10
49.67710971795865
 20
-11.25107440856541
 30
0.0
 10
49.95780969604601
 20
-11.24763620846458
 30
0.0
 10
50.22830011049392
 20
-11.24763620846458
 30
0.0
 10
50.49869249072309
 20
-11.24763620846458
 30
0.0
 10
50.74050089373948
 20
-11.24999603215902
 30
0.0
 10
50.95362728532434
 20
-11.25451260866624
 30
0.0
 10
51.16675367690921
 20
-11.25912721939207
 30
0.0
 10
51.31456126902281
 20
-11.2613820064236
 30
0.0
 10
51.39706406655379
 20
-11.2613820064236
 30
0.0
 10
51.31456126902281
 20
-11.2613820064236
 30
0.0
 10
51.16675367690921
 20
-11.25912721939207
 30
0.0
 10
50.95362728532434
 20
-11.25451260866624
 30
0.0
 10
50.74050089373948
 20
-11.24999603215902
 30
0.0
 10
50.49869249072309
 20
-11.24763620846458
 30
0.0
 10
50.22830011049392
 20
-11.24763620846458
 30
0.0
 10
49.95780969604601
 20
-11.24763620846458
 30
0.0
 10
49.67710971795865
 20
-11.25107440856541
 30
0.0
 10
49.38610214201309
 20
-11.25795080876694
 30
0.0
 10
49.09499653184866
 20
-11.26482020652444
 30
0.0
 10
48.83030414119601
 20
-11.27750163296542
 30
0.0
 10
48.59203897494338
 20
-11.29575700498748
 30
0.0
  0
SPLINE
  5
50
330
42
100
AcDbEntity
  8
Layer 1
 62
   250
420
  2301728
370
    35
100
AcDbSpline
210
0.0
220
0.0
230
1.0
 70
    11
 71
     3
 72
    41
 73
    37
 74
     0
 42
0.0000000001
 43
0.0000000001
 12
1.0
 22
0.0
 32
0.0
 13
1.0
 23
0.0
 33
0.0
 40
0.0
 40
0.0
 40
0.0
 40
0.0
 40
1.0
 40
1.0
 40
1.0
 40
2.0
 40
2.0
 40
2.0
 40
3.0
 40
3.0
 40
3.0
 40
4.0
 40
4.0
 40
4.0
 40
5.0
 40
5.0
 40
5.0
 40
6.0
 40
6.0
 40
6.0
 40
7.0
 40
7.0
 40
7.0
 40
8.0
 40
8.0
 40
8.0
 40
9.0
 40
9.0
 40
9.0
 40
10.0
 40
10.0
 40
10.0
 40
11.0
 40
11.0
 40
11.0
 40
12.0
 40
12.0
 40
12.0
 40
12.0
 10
52.27707523369935
 20
-9.611368070469716
 30
0.0
 10
52.19457243616837
 20
-9.611368070469716
 30
0.0
 10
52.07651122700423
 20
-9.611368070469716
 30
0.0
 10
51.92300364531405
 20
-9.611368070469716
 30
0.0
 10
51.76939802940518
 20
-9.611368070469716
 30
0.0
 10
51.59751603414171
 20
-9.611368070469716
 30
0.0
 10
51.40737166441198
 20
-9.611368070469716
 30
0.0
 10
51.21712926046353
 20
-9.611368070469716
 30
0.0
 10
51.01657925865685
 20
-9.612551483539011
 30
0.0
 10
50.80580568832227
 20
-9.614806270570549
 30
0.0
 10
50.59493408376892
 20
-9.617166094264991
 30
0.0
 10
50.39212929493073
 20
-9.619427883740677
 30
0.0
 10
50.19736331203087
 20
-9.621682670772215
 30
0.0
 10
50.00249929491241
 20
-9.624042494466657
 30
0.0
 10
49.82267652792921
 20
-9.626297281498056
 30
0.0
 10
49.6576709328674
 20
-9.62855907097374
 30
0.0
 10
49.49266533780547
 20
-9.630918894668184
 30
0.0
 10
49.35967491761296
 20
-9.63435709476903
 30
0.0
 10
49.25892375050421
 20
-9.63886666883194
 30
0.0
 10
49.35967491761296
 20
-9.63435709476903
 30
0.0
 10
49.49266533780547
 20
-9.630918894668184
 30
0.0
 10
49.6576709328674
 20
-9.62855907097374
 30
0.0
 10
49.82267652792921
 20
-9.626297281498056
 30
0.0
 10
50.00249929491241
 20
-9.624042494466657
 30
0.0
 10
50.19736331203087
 20
-9.621682670772215
 30
0.0
 10
50.39212929493073
 20
-9.619427883740677
 30
0.0
 10
50.59493408376892
 20
-9.617166094264991
 30
0.0
 10
50.80580568832227
 20
-9.614806270570549
 30
0.0
 10
51.01657925865685
 20
-9.612551483539011
 30
0.0
 10
51.21712926046353
 20
-9.611368070469716
 30
0.0
 10
51.40737166441198
 20
-9.611368070469716
 30
0.0
 10
51.59751603414171
 20
-9.611368070469716
 30
0.0
 10
51.76939802940518
 20
-9.611368070469716
 30
0.0
 10
51.92300364531405
 20
-9.611368070469716
 30
0.0
 10
52.07651122700423
 20
-9.611368070469716
 30
0.0
 10
52.19457243616837
 20
-9.611368070469716
 30
0.0
 10
52.27707523369935
 20
-9.611368070469716
 30
0.0
  0
ENDBLK
  5
45
330
42
100
AcDbEntity
  8
0
100
AcDbBlockEnd
  0
ENDSEC
  0
SECTION
  2
ENTITIES
  0
SPLINE
  5
41
330
1F
100
AcDbEntity
  8
Layer 1
 62
   250
420
  2301728
370
    35
100
AcDbSpline
210
0.0
220
0.0
230
1.0
 70
    11
 71
     3
 72
   326
 73
   322
 74
     0
 42
0.0000000001
 43
0.0000000001
 12
1.0
 22
0.0
 32
0.0
 13
1.0
 23
0.0
 33
0.0
 40
0.0
 40
0.0
 40
0.0
 40
0.0
 40
1.0
 40
1.0
 40
1.0
 40
2.0
 40
2.0
 40
2.0
 40
3.0
 40
3.0
 40
3.0
 40
4.0
 40
4.0
 40
4.0
 40
5.0
 40
5.0
 40
5.0
 40
6.0
 40
6.0
 40
6.0
 40
7.0
 40
7.0
 40
7.0
 40
8.0
 40
8.0
 40
8.0
 40
9.0
 40
9.0
 40
9.0
 40
10.0
 40
10.0
 40
10.0
 40
11.0
 40
11.0
 40
11.0
 40
12.0
 40
12.0
 40
12.0
 40
13.0
 40
13.0
 40
13.0
 40
14.0
 40
14.0
 40
14.0
 40
15.0
 40
15.0
 40
15.0
 40
16.0
 40
16.0
 40
16.0
 40
17.0
 40
17.0
 40
17.0
 40
18.0
 40
18.0
 40
18.0
 40
19.0
 40
19.0
 40
19.0
 40
20.0
 40
20.0
 40
20.0
 40
21.0
 40
21.0
 40
21.0
 40
22.0
 40
22.0
 40
22.0
 40
23.0
 40
23.0
 40
23.0
 40
24.0
 40
24.0
 40
24.0
 40
25.0
 40
25.0
 40
25.0
 40
26.0
 40
26.0
 40
26.0
 40
27.0
 40
27.0
 40
27.0
 40
28.0
 40
28.0
 40
28.0
 40
29.0
 40
29.0
 40
29.0
 40
30.0
 40
30.0
 40
30.0
 40
31.0
 40
31.0
 40
31.0
 40
32.0
 40
32.0
 40
32.0
 40
33.0
 40
33.0
 40
33.0
 40
34.0
 40
34.0
 40
34.0
 40
35.0
 40
35.0
 40
35.0
 40
36.0
 40
36.0
 40
36.0
 40
37.0
 40
37.0
 40
37.0
 40
38.0
 40
38.0
 40
38.0
 40
39.0
 40
39.0
 40
39.0
 40
40.0
 40
40.0
 40
40.0
 40
41.0
 40
41.0
 40
41.0
 40
42.0
 40
42.0
 40
42.0
 40
43.0
 40
43.0
 40
43.0
 40
44.0
 40
44.0
 40
44.0
 40
45.0
 40
45.0
 40
45.0
 40
46.0
 40
46.0
 40
46.0
 40
47.0
 40
47.0
 40
47.0
 40
48.0
 40
48.0
 40
48.0
 40
49.0
 40
49.0
 40
49.0
 40
50.0
 40
50.0
 40
50.0
 40
51.0
 40
51.0
 40
51.0
 40
52.0
 40
52.0
 40
52.0
 40
53.0
 40
53.0
 40
53.0
 40
54.0
 40
54.0
 40
54.0
 40
55.0
 40
55.0
 40
55.0
 40
56.0
 40
56.0
 40
56.0
 40
57.0
 40
57.0
 40
57.0
 40
58.0
 40
58.0
 40
58.0
 40
59.0
 40
59.0
 40
59.0
 40
60.0
 40
60.0
 40
60.0
 40
61.0
 40
61.0
 40
61.0
 40
62.0
 40
62.0
 40
62.0
 40
63.0
 40
63.0
 40
63.0
 40
64.0
 40
64.0
 40
64.0
 40
65.0
 40
65.0
 40
65.0
 40
66.0
 40
66.0
 40
66.0
 40
67.0
 40
67.0
 40
67.0
 40
68.0
 40
68.0
 40
68.0
 40
69.0
 40
69.0
 40
69.0
 40
70.0
 40
70.0
 40
70.0
 40
71.0
 40
71.0
 40
71.0
 40
72.0
 40
72.0
 40
72.0
 40
73.0
 40
73.0
 40
73.0
 40
74.0
 40
74.0
 40
74.0
 40
75.0
 40
75.0
 40
75.0
 40
76.0
 40
76.0
 40
76.0
 40
77.0
 40
77.0
 40
77.0
 40
78.0
 40
78.0
 40
78.0
 40
79.0
 40
79.0
 40
79.0
 40
80.0
 40
80.0
 40
80.0
 40
81.0
 40
81.0
 40
81.0
 40
82.0
 40
82.0
 40
82.0
 40
83.0
 40
83.0
 40
83.0
 40
84.0
 40
84.0
 40
84.0
 40
85.0
 40
85.0
 40
85.0
 40
86.0
 40
86.0
 40
86.0
 40
87.0
 40
87.0
 40
87.0
 40
88.0
 40
88.0
 40
88.0
 40
89.0
 40
89.0
 40
89.0
 40
90.0
 40
90.0
 40
90.0
 40
91.0
 40
91.0
 40
91.0
 40
92.0
 40
92.0
 40
92.0
 40
93.0
 40
93.0
 40
93.0
 40
94.0
 40
94.0
 40
94.0
 40
95.0
 40
95.0
 40
95.0
 40
96.0
 40
96.0
 40
96.0
 40
97.0
 40
97.0
 40
97.0
 40
98.0
 40
98.0
 40
98.0
 40
99.0
 40
99.0
 40
99.0
 40
100.0
 40
100.0
 40
100.0
 40
101.0
 40
101.0
 40
101.0
 40
102.0
 40
102.0
 40
102.0
 40
103.0
 40
103.0
 40
103.0
 40
104.0
 40
104.0
 40
104.0
 40
105.0
 40
105.0
 40
105.0
 40
106.0
 40
106.0
 40
106.0
 40
107.0
 40
107.0
 40
107.0
 40
107.0
 10
18.5023698146988
 20
-14.04185079578582
 30
0.0
 10
18.19353870575782
 20
-14.90897047894555
 30
0.0
 10
18.64612795271963
 20
-15.86226502104624
 30
0.0
 10
19.51324763587935
 20
-16.17109612998721
 30
0.0
 10
19.69811634247657
 20
-16.23693950021291
 30
0.0
 10
19.88677601044532
 20
-16.26815559179277
 30
0.0
 10
20.0723907022856
 20
-16.26815559179277
 30
0.0
 10
20.30227622745921
 20
-16.26815559179277
 30
0.0
 10
20.52723146834463
 20
-16.22000902603748
 30
0.0
 10
20.73398466929949
 20
-16.13052470529096
 30
0.0
 10
20.76757943655213
 20
-16.14502394574235
 30
0.0
 10
20.80179472789324
 20
-16.1586364810072
 30
0.0
 10
20.83676109074046
 20
-16.17108934830319
 30
0.0
 10
21.02162979733768
 20
-16.23693271852888
 30
0.0
 10
21.21029624699046
 20
-16.26815559179277
 30
0.0
 10
21.39591772051477
 20
-16.26815559179277
 30
0.0
 10
21.82107675100518
 20
-16.26815559179277
 30
0.0
 10
22.22959013804949
 20
-16.10407444216167
 30
0.0
 10
22.53651220293672
 20
-15.81656833864609
 30
0.0
 10
22.60280316430824
 20
-15.86138509754361
 30
0.0
 10
22.67342762177352
 20
-15.90469123632402
 30
0.0
 10
22.74910104299741
 20
-15.94588996679277
 30
0.0
 10
23.08480118405643
 20
-16.12879198502194
 30
0.0
 10
23.48106854516755
 20
-16.2513166703518
 30
0.0
 10
23.92690323483768
 20
-16.31005961740041
 30
0.0
 10
24.15486954343143
 20
-16.34009569595944
 30
0.0
 10
24.39556507294532
 20
-16.35503574587263
 30
0.0
 10
24.65517471921268
 20
-16.35503574587263
 30
0.0
 10
24.79383303084463
 20
-16.35503574587263
 30
0.0
 10
24.93789634464671
 20
-16.35077006661916
 30
0.0
 10
25.08826662459463
 20
-16.34227261653235
 30
0.0
 10
25.48353029646963
 20
-16.31981167903235
 30
0.0
 10
25.91213272702518
 20
-16.26446635568166
 30
0.0
 10
26.36219918752866
 20
-16.17776930707055
 30
0.0
 10
26.86692602129602
 20
-16.08161859092471
 30
0.0
 10
27.33657798527171
 20
-15.93941345854624
 30
0.0
 10
27.75771378171268
 20
-15.7552975188761
 30
0.0
 10
27.86618681773699
 20
-15.70791897883707
 30
0.0
 10
27.97162844100088
 20
-15.6587093841104
 30
0.0
 10
28.07402169729436
 20
-15.60786201269123
 30
0.0
 10
28.09523819577518
 20
-15.63611620377194
 30
0.0
 10
28.11686668156074
 20
-15.66406013280832
 30
0.0
 10
28.13938695879602
 20
-15.69132589344207
 30
0.0
 10
28.34363771834463
 20
-15.93870138172332
 30
0.0
 10
28.59255943058421
 20
-16.13099603233096
 30
0.0
 10
28.87922799612241
 20
-16.26287944161916
 30
0.0
 10
29.15628691539324
 20
-16.39033441123721
 30
0.0
 10
29.45542021617449
 20
-16.45496386002194
 30
0.0
 10
29.76833389890018
 20
-16.45496386002194
 30
0.0
 10
30.14283544512422
 20
-16.45496386002194
 30
0.0
 10
30.51365792776311
 20
-16.36272956640207
 30
0.0
 10
30.87420615909991
 20
-16.18023444921457
 30
0.0
 10
31.11376575653907
 20
-16.30118408842903
 30
0.0
 10
31.37007611352699
 20
-16.35896234092471
 30
0.0
 10
31.62327367754602
 20
-16.35896234092471
 30
0.0
 10
31.78465063067102
 20
-16.35895555924069
 30
0.0
 10
31.94468481035852
 20
-16.33551127755666
 30
0.0
 10
32.09835098874393
 20
-16.2899654876261
 30
0.0
 10
32.46236466061893
 20
-16.32347378840735
 30
0.0
 10
32.84002308075782
 20
-16.23801778797333
 30
0.0
 10
33.1687787773724
 20
-16.02086826540388
 30
0.0
 10
33.44260961504602
 20
-15.84000753406707
 30
0.0
 10
33.7004424600981
 20
-15.66223925064694
 30
0.0
 10
33.93508194577518
 20
-15.49253438953582
 30
0.0
 10
33.9359466104888
 20
-15.49190877918429
 30
0.0
 10
33.9368011026763
 20
-15.49127299630666
 30
0.0
 10
33.93766576738977
 20
-15.49064738595512
 30
0.0
 10
33.94356583249393
 20
-15.49950765613736
 30
0.0
 10
33.9493438272856
 20
-15.50843743858096
 30
0.0
 10
33.95536596270227
 20
-15.51722650108096
 30
0.0
 10
34.23551054820574
 20
-15.92625020984832
 30
0.0
 10
34.64287952607032
 20
-16.21540765342471
 30
0.0
 10
35.13491104733768
 20
-16.35494080229624
 30
0.0
 10
35.3714629679106
 20
-16.42499559830319
 30
0.0
 10
35.61185332164324
 20
-16.45997552451846
 30
0.0
 10
35.85082630341407
 20
-16.45997552451846
 30
0.0
 10
36.13224584551477
 20
-16.45997552451846
 30
0.0
 10
36.41167835419532
 20
-16.41144579361569
 30
0.0
 10
36.68036867537587
 20
-16.31452874717471
 30
0.0
 10
36.81521568058421
 20
-16.26580404285611
 30
0.0
 10
36.94657350936033
 20
-16.20757480837263
 30
0.0
 10
37.0739776163481
 20
-16.14036831965735
 30
0.0
 10
37.11496611461199
 20
-16.16454502321638
 30
0.0
 10
37.15714140758074
 20
-16.18735860828583
 30
0.0
 10
37.20079510766755
 20
-16.20831401193166
 30
0.0
 10
37.43297284204255
 20
-16.31976420724416
 30
0.0
 10
37.6787139444731
 20
-16.37274950455319
 30
0.0
 10
37.92095569794532
 20
-16.37274950455319
 30
0.0
 10
38.51113853214671
 20
-16.37274950455319
 30
0.0
 10
39.08061010332727
 20
-16.05824890776499
 30
0.0
 10
39.38274769013282
 20
-15.50836962174069
 30
0.0
 10
39.6031524210356
 20
-15.1072262298136
 30
0.0
 10
39.83246828475087
 20
-14.70339729101152
 30
0.0
 10
40.06426624482032
 20
-14.30822856271291
 30
0.0
 10
40.27128393145227
 20
-13.95537754274763
 30
0.0
 10
40.48922012936893
 20
-13.62716438085527
 30
0.0
 10
40.71207982988977
 20
-13.33264940689694
 30
0.0
 10
40.87490128171268
 20
-13.11745979101152
 30
0.0
 10
41.04443320988116
 20
-12.92498203493513
 30
0.0
 10
41.21752552216407
 20
-12.75852560047332
 30
0.0
 10
41.2735625772856
 20
-13.01100091514346
 30
0.0
 10
41.38682687307561
 20
-13.24193421049929
 30
0.0
 10
41.54308026391755
 20
-13.43697883398027
 30
0.0
 10
41.53346383596615
 20
-13.4467037688761
 30
0.0
 10
41.52402373179949
 20
-13.45620490819902
 30
0.0
 10
41.51475995141755
 20
-13.46546190689694
 30
0.0
 10
41.1893340616606
 20
-13.79092170507402
 30
0.0
 10
41.02664146183421
 20
-14.21746250368513
 30
0.0
 10
41.02665502520227
 20
-14.64400330229624
 30
0.0
 10
41.02666858857032
 20
-15.07053731922332
 30
0.0
 10
41.18941544186893
 20
-15.49706455446638
 30
0.0
 10
41.51486845836199
 20
-15.82249044422332
 30
0.0
 10
41.84032147485505
 20
-16.14790955229624
 30
0.0
 10
42.26678089325782
 20
-16.31060893380666
 30
0.0
 10
42.69332169186893
 20
-16.31058858875458
 30
0.0
 10
43.11986249048005
 20
-16.31056824370249
 30
0.0
 10
43.54647110593143
 20
-16.14782817208791
 30
0.0
 10
43.87189699568837
 20
-15.82237515559485
 30
0.0
 10
44.03494224308421
 20
-15.65930956314694
 30
0.0
 10
44.22093670923005
 20
-15.46226095203582
 30
0.0
 10
44.44047338457727
 20
-15.21999885351152
 30
0.0
 10
44.64260825870921
 20
-14.99696282920596
 30
0.0
 10
44.86485760766755
 20
-14.74738329361569
 30
0.0
 10
45.10137561982032
 20
-14.47783848024763
 30
0.0
 10
45.15769072398699
 20
-14.41363627755666
 30
0.0
 10
45.21395157468143
 20
-14.34942729318166
 30
0.0
 10
45.27010391843143
 20
-14.28530647069902
 30
0.0
 10
45.27239612763282
 20
-14.4519527923136
 30
0.0
 10
45.27730606686893
 20
-14.60117696766082
 30
0.0
 10
45.28494224308421
 20
-14.73721754925805
 30
0.0
 10
45.33467911374393
 20
-15.62449239734832
 30
0.0
 10
46.06973228214671
 20
-16.31063606054277
 30
0.0
 10
46.94749920923005
 20
-16.31063606054277
 30
0.0
 10
46.97891196964671
 20
-16.31063606054277
 30
0.0
 10
47.01054174395227
 20
-16.30975444161916
 30
0.0
 10
47.04228002520227
 20
-16.30797764040388
 30
0.0
 10
47.20944175480296
 20
-16.29860535307749
 30
0.0
 10
47.36945558943837
 20
-16.26488682009138
 30
0.0
 10
47.51910022919532
 20
-16.21049093250458
 30
0.0
 10
47.69308772377005
 20
-16.26906264203151
 30
0.0
 10
47.87144940454255
 20
-16.29722867121985
 30
0.0
 10
48.04778675263282
 20
-16.29722867121985
 30
0.0
 10
48.67391251218143
 20
-16.29722867121985
 30
0.0
 10
49.27396947832727
 20
-15.94264832182749
 30
0.0
 10
49.5576201944731
 20
-15.33835958484832
 30
0.0
 10
49.67145754256337
 20
-15.09586012738305
 30
0.0
 10
49.79914308943837
 20
-14.80957811783444
 30
0.0
 10
49.94810956079255
 20
-14.46291199370249
 30
0.0
 10
50.08983319360505
 20
-14.13294237564694
 30
0.0
 10
50.23793160940365
 20
-13.77989468684485
 30
0.0
 10
50.38841717798005
 20
-13.41323615819902
 30
0.0
 10
50.45664091929949
 20
-13.24688823068166
 30
0.0
 10
50.52444419620921
 20
-13.08077766210527
 30
0.0
 10
50.59140654429949
 20
-12.91592170507402
 30
0.0
 10
50.70687149655643
 20
-12.91700677451846
 30
0.0
 10
50.81588028561893
 20
-12.91863437868513
 30
0.0
 10
50.91752416582727
 20
-12.92079095420596
 30
0.0
 10
51.14298803301477
 20
-12.92567376670596
 30
0.0
 10
51.29984838457727
 20
-12.92804735611569
 30
0.0
 10
51.39707060679949
 20
-12.92804735611569
 30
0.0
 10
52.31754857988977
 20
-12.92804735611569
 30
0.0
 10
53.06373727346615
 20
-12.1818586625393
 30
0.0
 10
53.06373727346615
 20
-11.26138068944902
 30
0.0
 10
53.06373727346615
 20
-11.20210877104624
 30
0.0
 10
53.06064482554949
 20
-11.1436031829386
 30
0.0
 10
53.05460912676477
 20
-11.08593174196638
 30
0.0
 10
53.58341772051477
 20
-10.80653314170596
 30
0.0
 10
53.94374215627865
 20
-10.25105218467471
 30
0.0
 10
53.94374215627865
 20
-9.611369838754575
 30
0.0
 10
53.94374215627865
 20
-8.690891865664298
 30
0.0
 10
53.19755346270227
 20
-7.944703172087909
 30
0.0
 10
52.27707548961199
 20
-7.944703172087909
 30
0.0
 10
52.27707548961199
 20
-7.944703172087909
 30
0.0
 10
51.40736520315365
 20
-7.944703172087909
 30
0.0
 10
51.40736520315365
 20
-7.944703172087909
 30
0.0
 10
51.2152129679106
 20
-7.944703172087909
 30
0.0
 10
51.00681181773699
 20
-7.945896748476798
 30
0.0
 10
50.78715307207727
 20
-7.948243211150409
 30
0.0
 10
50.78715307207727
 20
-7.948243211150409
 30
0.0
 10
50.71591826304949
 20
-7.949043449865687
 30
0.0
 10
50.71591826304949
 20
-7.949043449865687
 30
0.0
 10
50.53029000784115
 20
-7.951118645178187
 30
0.0
 10
50.35099584551477
 20
-7.953126023650409
 30
0.0
 10
50.17718128388282
 20
-7.955140183806659
 30
0.0
 10
49.98133981252865
 20
-7.957506991532354
 30
0.0
 10
49.80062149655643
 20
-7.959772073997631
 30
0.0
 10
49.63384632294532
 20
-7.96206428319902
 30
0.0
 10
49.4501983194731
 20
-7.96468879491777
 30
0.0
 10
49.30318497311893
 20
-7.968554354813604
 30
0.0
 10
49.18439699568837
 20
-7.973871195091381
 30
0.0
 10
48.77433229842283
 20
-7.992229213754576
 30
0.0
 10
48.4055951836224
 20
-8.157349656462909
 30
0.0
 10
48.12644750567102
 20
-8.416152282330964
 30
0.0
 10
47.97837621660852
 20
-8.285591301428187
 30
0.0
 10
47.80575862220755
 20
-8.179824157330964
 30
0.0
 10
47.61351483423005
 20
-8.107212666445548
 30
0.0
 10
46.94989992537587
 20
-7.856561624778881
 30
0.0
 10
46.20029326304949
 20
-8.053440693789298
 30
0.0
 10
45.74551353214671
 20
-8.597860724171243
 30
0.0
 10
45.15253664412587
 20
-9.307699591358743
 30
0.0
 10
44.57211943492449
 20
-9.993666930768464
 30
0.0
 10
44.02034805905643
 20
-10.63670621028235
 30
0.0
 10
44.01866620141755
 20
-10.63866611696638
 30
0.0
 10
44.01699790714671
 20
-10.64062602365041
 30
0.0
 10
44.01531604950782
 20
-10.64259271201846
 30
0.0
 10
43.99623239065365
 20
-10.66504686783444
 30
0.0
 10
43.97709447832727
 20
-10.6875484954386
 30
0.0
 10
43.9578887491606
 20
-10.71009081314694
 30
0.0
 10
43.78987930905643
 20
-10.71535339995249
 30
0.0
 10
43.62505726044532
 20
-10.71951735394555
 30
0.0
 10
43.46542998179949
 20
-10.72254198502194
 30
0.0
 10
43.2406035929106
 20
-10.7269026078518
 30
0.0
 10
43.03171416148699
 20
-10.72910665516082
 30
0.0
 10
42.84456680905643
 20
-10.72910665516082
 30
0.0
 10
42.83766305471615
 20
-10.72910665516082
 30
0.0
 10
42.83079999048005
 20
-10.72928297894555
 30
0.0
 10
42.82391319034991
 20
-10.72936774999582
 30
0.0
 10
42.81382882620061
 20
-10.57169020550805
 30
0.0
 10
42.78100208466407
 20
-10.41280213042124
 30
0.0
 10
42.7233916788481
 20
-10.25702006661916
 30
0.0
 10
42.40410999482032
 20
-9.393684563146936
 30
0.0
 10
41.44539688718143
 20
-8.952685214188604
 30
0.0
 10
40.58208851044532
 20
-9.27193977148027
 30
0.0
 10
40.50251223006337
 20
-9.301372280160825
 30
0.0
 10
40.42374975176477
 20
-9.333171596567075
 30
0.0
 10
40.34574682207727
 20
-9.367358065751104
 30
0.0
 10
40.2890655069731
 20
-9.33568760134138
 30
0.0
 10
40.22999703909115
 20
-9.307007859587909
 30
0.0
 10
40.16854141843143
 20
-9.281556199431659
 30
0.0
 10
39.7162370021988
 20
-9.094229132374291
 30
0.0
 10
39.22872886417796
 20
-9.120792988711097
 30
0.0
 10
38.8184098537613
 20
-9.314644035803186
 30
0.0
 10
38.5250748928238
 20
-9.172547410369159
 30
0.0
 10
38.12766142711199
 20
-9.07497593141943
 30
0.0
 10
37.61484404429949
 20
-9.140626023650409
 30
0.0
 10
37.19576309811893
 20
-9.19411994726152
 30
0.0
 10
36.79289037676477
 20
-9.324260463754575
 30
0.0
 10
36.41713082815365
 20
-9.527575350907354
 30
0.0
 10
36.3048600490738
 20
-9.588352803164298
 30
0.0
 10
36.19467802867449
 20
-9.653945251080964
 30
0.0
 10
36.08695097789324
 20
-9.723986483719854
 30
0.0
 10
36.01256946747657
 20
-9.675921298172902
 30
0.0
 10
35.9344037773724
 20
-9.632050584197207
 30
0.0
 10
35.8524199991606
 20
-9.592672735889993
 30
0.0
 10
35.85940513370921
 20
-9.530891594396936
 30
0.0
 10
35.8628705742474
 20
-9.468974819223325
 30
0.0
 10
35.86290448266755
 20
-9.407356438146936
 30
0.0
 10
35.86323000350087
 20
-8.800856872174714
 30
0.0
 10
35.53136151391755
 20
-8.215862026254575
 30
0.0
 10
34.95421985810157
 20
-7.920967277990687
 30
0.0
 10
34.13453805471615
 20
-7.502157599171242
 30
0.0
 10
33.13055720619185
 20
-7.82711555273027
 30
0.0
 10
32.71173396400435
 20
-8.646777011063604
 30
0.0
 10
32.58859214542796
 20
-8.887787888884707
 30
0.0
 10
32.46666085745061
 20
-9.129809237626104
 30
0.0
 10
32.34686240909991
 20
-9.370762471133048
 30
0.0
 10
32.01864585636546
 20
-9.166840623259707
 30
0.0
 10
31.63834597029783
 20
-9.058459139969854
 30
0.0
 10
31.23273005775435
 20
-9.058459139969854
 30
0.0
 10
31.09580785723352
 20
-9.058459139969854
 30
0.0
 10
30.95964181448186
 20
-9.07088996679277
 30
0.0
 10
30.8245133693863
 20
-9.095473571393464
 30
0.0
 10
30.64715537784991
 20
-8.745789597869159
 30
0.0
 10
30.3580827053238
 20
-8.451284796436791
 30
0.0
 10
29.98582928735505
 20
-8.255785800126104
 30
0.0
 10
29.7457780178238
 20
-8.129856709414298
 30
0.0
 10
29.47086889238977
 20
-8.037876728945548
 30
0.0
 10
29.16755807424741
 20
-7.982192321393464
 30
0.0
 10
28.95437583683421
 20
-7.943217983285826
 30
0.0
 10
28.72420548093143
 20
-7.91836311132402
 30
0.0
 10
28.48344213457727
 20
-7.908333000646937
 30
0.0
 10
28.28122588023699
 20
-7.899903367400409
 30
0.0
 10
28.07972848440366
 20
-7.898499558806659
 30
0.0
 10
27.88455161808421
 20
-7.904148701601798
 30
0.0
 10
27.87399931773699
 20
-7.904453877383048
 30
0.0
 10
27.8634537990738
 20
-7.904860778424714
 30
0.0
 10
27.8529082804106
 20
-7.90536262304277
 30
0.0
 10
27.70358237980296
 20
-7.912530863060131
 30
0.0
 10
27.52393556990713
 20
-7.931160149084437
 30
0.0
 10
27.28678686113977
 20
-7.964092006723326
 30
0.0
 10
27.06826743839671
 20
-7.994548549692076
 30
0.0
 10
26.82904353431685
 20
-8.037279940751104
 30
0.0
 10
26.57520510115713
 20
-8.09121467382402
 30
0.0
 10
26.30582982988977
 20
-8.148547030594854
 30
0.0
 10
26.02705514455991
 20
-8.223532110889993
 30
0.0
 10
25.74587974308421
 20
-8.314311733285825
 30
0.0
 10
25.43507516409116
 20
-8.41482307226152
 30
0.0
 10
25.14260825870921
 20
-8.534886006289298
 30
0.0
 10
24.8769561319731
 20
-8.670974059674714
 30
0.0
 10
24.83661189369185
 20
-8.691631069223325
 30
0.0
 10
24.79689157034116
 20
-8.71282383181013
 30
0.0
 10
24.75775447181685
 20
-8.734498093962909
 30
0.0
 10
24.57749391951658
 20
-8.33733555056013
 30
0.0
 10
24.24261266680379
 20
-8.010946661671243
 30
0.0
 10
23.79928550480296
 20
-7.85305549413652
 30
0.0
 10
23.38546375458602
 20
-7.70565559179277
 30
0.0
 10
22.95204971921268
 20
-7.731798983719854
 30
0.0
 10
22.57838232012422
 20
-7.893555711150409
 30
0.0
 10
22.54483502465977
 20
-7.879080206593041
 30
0.0
 10
22.5106705959488
 20
-7.865489711801374
 30
0.0
 10
22.4757584865738
 20
-7.85305549413652
 30
0.0
 10
21.60858454994185
 20
-7.544197258459437
 30
0.0
 10
20.65533747962935
 20
-7.996813632157354
 30
0.0
 10
20.34651315237241
 20
-8.863926533633048
 30
0.0
 10
20.34651315237241
 20
-8.863926533633048
 30
0.0
 10
20.10259971378741
 20
-9.548774895178186
 30
0.0
 10
20.10259971378741
 20
-9.548774895178186
 30
0.0
 10
19.33132557099227
 20
-9.69491340429277
 30
0.0
 10
18.7480498819731
 20
-10.37234938519555
 30
0.0
 10
18.7480498819731
 20
-11.18613790516082
 30
0.0
 10
18.7480498819731
 20
-11.28453335871985
 30
0.0
 10
18.75664397105726
 20
-11.38091465212263
 30
0.0
 10
18.77299800209033
 20
-11.47462396201846
 30
0.0
 10
18.33662206621797
 20
-11.77517124391943
 30
0.0
 10
18.05049264455991
 20
-12.27819248415388
 30
0.0
 10
18.05049264455991
 20
-12.8481184281643
 30
0.0
 10
18.05049264455991
 20
-13.29671665407568
 30
0.0
 10
18.22777603757213
 20
-13.70386861805137
 30
0.0
 10
18.51603829885686
 20
-14.00347663671457
 30
0.0
 10
18.51603829885686
 20
-14.00347663671457
 30
0.0
 10
18.5023698146988
 20
-14.04185079578582
 30
0.0
 10
18.5023698146988
 20
-14.04185079578582
 30
0.0
  0
INSERT
  5
43
330
1F
100
AcDbEntity
  8
Layer 1
100
AcDbBlockReference
  2
block 2
 10
0.0
 20
0.0
 30
0.0
  0
POLYLINE
  5
51
330
1F
100
AcDbEntity
  8
Layer 1
 62
   250
420
  2301728
370
    35
100
AcDb2dPolyline
 66
     1
 10
0.0
 20
0.0
 30
0.0
  0
VERTEX
  5
52
330
51
100
AcDbEntity
  8
Layer 1
 62
   250
420
  2301728
370
    35
100
AcDbVertex
100
AcDb2dVertex
 10
23.24010312256074
 20
-9.42311898492888
 30
0.0
  0
VERTEX
  5
53
330
51
100
AcDbEntity
  8
Layer 1
 62
   250
420
  2301728
370
    35
100
AcDbVertex
100
AcDb2dVertex
 10
21.39595466151018
 20
-14.60103380336805
 30
0.0
  0
SEQEND
  5
54
330
51
100
AcDbEntity
  8
Layer 1
 62
   250
420
  2301728
370
    35
  0
POLYLINE
  5
55
330
1F
100
AcDbEntity
  8
Layer 1
 62
   250
420
  2301728
370
    35
100
AcDb2dPolyline
 66
     1
 10
0.0
 20
0.0
 30
0.0
  0
VERTEX
  5
56
330
55
100
AcDbEntity
  8
Layer 1
 62
   250
420
  2301728
370
    35
100
AcDbVertex
100
AcDb2dVertex
 10
21.9165775787256
 20
-9.42311898492888
 30
0.0
  0
VERTEX
  5
57
330
55
100
AcDbEntity
  8
Layer 1
 62
   250
420
  2301728
370
    35
100
AcDbVertex
100
AcDb2dVertex
 10
20.07242911767504
 20
-14.60103380336805
 30
0.0
  0
SEQEND
  5
58
330
55
100
AcDbEntity
  8
Layer 1
 62
   250
420
  2301728
370
    35
  0
POLYLINE
  5
59
330
1F
100
AcDbEntity
  8
Layer 1
 62
   250
420
  2301728
370
    35
100
AcDb2dPolyline
 66
     1
 10
0.0
 20
0.0
 30
0.0
  0
VERTEX
  5
5A
330
59
100
AcDbEntity
  8
Layer 1
 62
   250
420
  2301728
370
    35
100
AcDbVertex
100
AcDb2dVertex
 10
20.4147145452949
 20
-11.18613583530471
 30
0.0
  0
VERTEX
  5
5B
330
59
100
AcDbEntity
  8
Layer 1
 62
   250
420
  2301728
370
    35
100
AcDbVertex
100
AcDb2dVertex
 10
23.592186175342
 20
-11.18613583530471
 30
0.0
  0
SEQEND
  5
5C
330
59
100
AcDbEntity
  8
Layer 1
 62
   250
420
  2301728
370
    35
  0
POLYLINE
  5
5D
330
1F
100
AcDbEntity
  8
Layer 1
 62
   250
420
  2301728
370
    35
100
AcDb2dPolyline
 66
     1
 10
0.0
 20
0.0
 30
0.0
  0
VERTEX
  5
5E
330
5D
100
AcDbEntity
  8
Layer 1
 62
   250
420
  2301728
370
    35
100
AcDbVertex
100
AcDb2dVertex
 10
19.71716202615226
 20
-12.84812020141847
 30
0.0
  0
VERTEX
  5
5F
330
5D
100
AcDbEntity
  8
Layer 1
 62
   250
420
  2301728
370
    35
100
AcDbVertex
100
AcDb2dVertex
 10
22.89463365619935
 20
-12.84812020141847
 30
0.0
  0
SEQEND
  5
60
330
5D
100
AcDbEntity
  8
Layer 1
 62
   250
420
  2301728
370
    35
  0
ENDSEC
  0
SECTION
  2
OBJECTS
  0
DICTIONARY
  5
C
330
0
100
AcDbDictionary
281
     1
  3
ACAD_GROUP
350
D
  3
ACAD_LAYOUT
350
1A
  3
ACAD_MATERIAL
350
3B
  3
ACAD_MLEADERSTYLE
350
62
  3
ACAD_MLINESTYLE
350
17
  3
ACAD_PLOTSETTINGS
350
19
  3
ACAD_PLOTSTYLENAME
350
E
  3
ACAD_TABLESTYLE
350
61
  3
ACAD_VISUALSTYLE
350
2A
  0
SUN
  5
3F
330
29
100
AcDbSun
 90
        1
290
     0
 63
     7
421
 16777215
 40
1.0
291
     1
 91
  2455826
 92
 54000000
292
     0
 70
     2
 71
   256
280
     1
  0
DICTIONARY
  5
D
102
{ACAD_REACTORS
330
C
102
}
330
C
100
AcDbDictionary
281
     1
  0
DICTIONARY
  5
1A
102
{ACAD_REACTORS
330
C
102
}
330
C
100
AcDbDictionary
281
     1
  3
Layout1
350
1E
  3
Layout2
350
26
  3
Model
350
22
  0
DICTIONARY
  5
3B
102
{ACAD_REACTORS
330
C
102
}
330
C
100
AcDbDictionary
281
     1
  3
ByBlock
350
3D
  3
ByLayer
350
3C
  3
Global
350
3E
  0
DICTIONARY
  5
62
102
{ACAD_REACTORS
330
C
102
}
330
C
100
AcDbDictionary
281
     1
  0
DICTIONARY
  5
17
102
{ACAD_REACTORS
330
C
102
}
330
C
100
AcDbDictionary
281
     1
  3
Standard
350
18
  0
DICTIONARY
  5
19
102
{ACAD_REACTORS
330
C
102
}
330
C
100
AcDbDictionary
281
     1
  0
ACDBDICTIONARYWDFLT
  5
E
102
{ACAD_REACTORS
330
C
102
}
330
C
100
AcDbDictionary
281
     1
  3
Normal
350
F
100
AcDbDictionaryWithDefault
340
F
  0
DICTIONARY
  5
61
102
{ACAD_REACTORS
330
C
102
}
330
C
100
AcDbDictionary
281
     1
  0
DICTIONARY
  5
2A
102
{ACAD_REACTORS
330
C
102
}
330
C
100
AcDbDictionary
281
     1
  3
2dWireframe
350
2F
  3
3D Hidden
350
31
  3
3dWireframe
350
30
  3
Basic
350
32
  3
Brighten
350
36
  3
ColorChange
350
3A
  3
Conceptual
350
34
  3
Dim
350
35
  3
Facepattern
350
39
  3
Flat
350
2B
  3
FlatWithEdges
350
2C
  3
Gouraud
350
2D
  3
GouraudWithEdges
350
2E
  3
Linepattern
350
38
  3
Realistic
350
33
  3
Thicken
350
37
  0
LAYOUT
  5
1E
102
{ACAD_REACTORS
330
1A
102
}
330
1A
100
AcDbPlotSettings
  1

  2
none_device
  4

  6

 40
0.0
 41
0.0
 42
0.0
 43
0.0
 44
0.0
 45
0.0
 46
0.0
 47
0.0
 48
0.0
 49
0.0
140
0.0
141
0.0
142
1.0
143
1.0
 70
   688
 72
     0
 73
     0
 74
     5
  7

 75
    16
 76
     0
 77
     2
 78
   300
147
1.0
148
0.0
149
0.0
100
AcDbLayout
  1
Layout1
 70
     1
 71
     1
 10
0.0
 20
0.0
 11
12.0
 21
9.0
 12
0.0
 22
0.0
 32
0.0
 14
1.000000000000000E+20
 24
1.000000000000000E+20
 34
1.000000000000000E+20
 15
-1.000000000000000E+20
 25
-1.000000000000000E+20
 35
-1.000000000000000E+20
146
0.0
 13
0.0
 23
0.0
 33
0.0
 16
1.0
 26
0.0
 36
0.0
 17
0.0
 27
1.0
 37
0.0
 76
     0
330
1B
  0
LAYOUT
  5
26
102
{ACAD_REACTORS
330
1A
102
}
330
1A
100
AcDbPlotSettings
  1

  2
none_device
  4

  6

 40
0.0
 41
0.0
 42
0.0
 43
0.0
 44
0.0
 45
0.0
 46
0.0
 47
0.0
 48
0.0
 49
0.0
140
0.0
141
0.0
142
1.0
143
1.0
 70
   688
 72
     0
 73
     0
 74
     5
  7

 75
    16
 76
     0
 77
     2
 78
   300
147
1.0
148
0.0
149
0.0
100
AcDbLayout
  1
Layout2
 70
     1
 71
     2
 10
0.0
 20
0.0
 11
0.0
 21
0.0
 12
0.0
 22
0.0
 32
0.0
 14
0.0
 24
0.0
 34
0.0
 15
0.0
 25
0.0
 35
0.0
146
0.0
 13
0.0
 23
0.0
 33
0.0
 16
1.0
 26
0.0
 36
0.0
 17
0.0
 27
1.0
 37
0.0
 76
     0
330
23
  0
LAYOUT
  5
22
102
{ACAD_REACTORS
330
1A
102
}
330
1A
100
AcDbPlotSettings
  1

  2
none_device
  4

  6

 40
0.0
 41
0.0
 42
0.0
 43
0.0
 44
0.0
 45
0.0
 46
0.0
 47
0.0
 48
0.0
 49
0.0
140
0.0
141
0.0
142
1.0
143
1.0
 70
  1712
 72
     0
 73
     0
 74
     0
  7

 75
     0
 76
     0
 77
     2
 78
   300
147
1.0
148
0.0
149
0.0
100
AcDbLayout
  1
Model
 70
     1
 71
     0
 10
0.0
 20
0.0
 11
12.0
 21
9.0
 12
0.0
 22
0.0
 32
0.0
 14
1.000000000000000E+20
 24
1.000000000000000E+20
 34
1.000000000000000E+20
 15
-1.000000000000000E+20
 25
-1.000000000000000E+20
 35
-1.000000000000000E+20
146
0.0
 13
0.0
 23
0.0
 33
0.0
 16
1.0
 26
0.0
 36
0.0
 17
0.0
 27
1.0
 37
0.0
 76
     0
330
1F
331
29
  0
MATERIAL
  5
3D
102
{ACAD_REACTORS
330
3B
102
}
330
3B
100
AcDbMaterial
  1
ByBlock
 72
     1
 94
      127
  0
MATERIAL
  5
3C
102
{ACAD_REACTORS
330
3B
102
}
330
3B
100
AcDbMaterial
  1
ByLayer
 72
     1
 94
      127
  0
MATERIAL
  5
3E
102
{ACAD_REACTORS
330
3B
102
}
330
3B
100
AcDbMaterial
  1
Global
 72
     1
 94
      127
  0
MLINESTYLE
  5
18
102
{ACAD_REACTORS
330
17
102
}
330
17
100
AcDbMlineStyle
  2
Standard
 70
     0
  3

 62
   256
 51
90.0
 52
90.0
 71
     2
 49
0.5
 62
   256
  6
BYLAYER
 49
-0.5
 62
   256
  6
BYLAYER
  0
ACDBPLACEHOLDER
  5
F
102
{ACAD_REACTORS
330
E
102
}
330
E
  0
VISUALSTYLE
  5
2F
102
{ACAD_REACTORS
330
2A
102
}
330
2A
100
AcDbVisualStyle
  2
2dWireframe
 70
     4
177
     2
291
     0
 71
     0
176
     1
 72
     2
176
     1
 73
     0
176
     1
 90
        0
176
     1
 40
-0.6
176
     1
 41
-30.0
176
     1
 62
     5
 63
     7
421
 16777215
176
     1
 74
     1
176
     1
 91
        4
176
     1
 64
     7
176
     1
 65
   257
176
     1
 75
     1
176
     1
175
     1
176
     1
 42
1.0
176
     1
 92
        0
176
     1
 66
   257
176
     1
 43
1.0
176
     1
 76
     1
176
     1
 77
     6
176
     1
 78
     2
176
     1
 67
     7
176
     1
 79
     5
176
     1
170
     0
176
     1
171
     0
176
     1
290
     0
176
     1
 93
        1
176
     1
 44
0.0
176
     1
173
     0
176
     1
  0
VISUALSTYLE
  5
31
102
{ACAD_REACTORS
330
2A
102
}
330
2A
100
AcDbVisualStyle
  2
3D Hidden
 70
     6
177
     2
291
     0
 71
     1
176
     1
 72
     2
176
     1
 73
     2
176
     1
 90
        0
176
     1
 40
-0.6
176
     1
 41
-30.0
176
     1
 62
     5
 63
     7
421
 16777215
176
     1
 74
     2
176
     1
 91
        2
176
     1
 64
     7
176
     1
 65
   257
176
     1
 75
     2
176
     1
175
     1
176
     1
 42
40.0
176
     1
 92
        0
176
     1
 66
   257
176
     1
 43
1.0
176
     1
 76
     1
176
     1
 77
     6
176
     1
 78
     2
176
     1
 67
     7
176
     1
 79
     3
176
     1
170
     0
176
     1
171
     0
176
     1
290
     0
176
     1
 93
        1
176
     1
 44
0.0
176
     1
173
     0
176
     1
  0
VISUALSTYLE
  5
30
102
{ACAD_REACTORS
330
2A
102
}
330
2A
100
AcDbVisualStyle
  2
3dWireframe
 70
     5
177
     2
291
     0
 71
     0
176
     1
 72
     2
176
     1
 73
     0
176
     1
 90
        0
176
     1
 40
-0.6
176
     1
 41
-30.0
176
     1
 62
     5
 63
     7
421
 16777215
176
     1
 74
     1
176
     1
 91
        4
176
     1
 64
     7
176
     1
 65
   257
176
     1
 75
     1
176
     1
175
     1
176
     1
 42
1.0
176
     1
 92
        0
176
     1
 66
   257
176
     1
 43
1.0
176
     1
 76
     1
176
     1
 77
     6
176
     1
 78
     2
176
     1
 67
     7
176
     1
 79
     5
176
     1
170
     0
176
     1
171
     0
176
     1
290
     0
176
     1
 93
        1
176
     1
 44
0.0
176
     1
173
     0
176
     1
  0
VISUALSTYLE
  5
32
102
{ACAD_REACTORS
330
2A
102
}
330
2A
100
AcDbVisualStyle
  2
Basic
 70
     7
177
     2
291
     1
 71
     1
176
     1
 72
     0
176
     1
 73
     1
176
     1
 90
        0
176
     1
 40
-0.6
176
     1
 41
-30.0
176
     1
 62
     5
 63
     7
421
 16777215
176
     1
 74
     0
176
     1
 91
        4
176
     1
 64
     7
176
     1
 65
   257
176
     1
 75
     1
176
     1
175
     1
176
     1
 42
1.0
176
     1
 92
        8
176
     1
 66
     7
176
     1
 43
1.0
176
     1
 76
     1
176
     1
 77
     6
176
     1
 78
     2
176
     1
 67
     7
176
     1
 79
     5
176
     1
170
     0
176
     1
171
     0
176
     1
290
     0
176
     1
 93
        1
176
     1
 44
0.0
176
     1
173
     0
176
     1
  0
VISUALSTYLE
  5
36
102
{ACAD_REACTORS
330
2A
102
}
330
2A
100
AcDbVisualStyle
  2
Brighten
 70
    12
177
     2
291
     1
 71
     2
176
     1
 72
     2
176
     1
 73
     0
176
     1
 90
        0
176
     1
 40
-0.6
176
     1
 41
-30.0
176
     1
 62
     5
 63
     7
421
 16777215
176
     1
 74
     1
176
     1
 91
        4
176
     1
 64
     7
176
     1
 65
   257
176
     1
 75
     1
176
     1
175
     1
176
     1
 42
1.0
176
     1
 92
        8
176
     1
 66
     7
176
     1
 43
1.0
176
     1
 76
     1
176
     1
 77
     6
176
     1
 78
     2
176
     1
 67
     7
176
     1
 79
     5
176
     1
170
     0
176
     1
171
     0
176
     1
290
     0
176
     1
 93
        1
176
     1
 44
50.0
176
     1
173
     0
176
     1
  0
VISUALSTYLE
  5
3A
102
{ACAD_REACTORS
330
2A
102
}
330
2A
100
AcDbVisualStyle
  2
ColorChange
 70
    16
177
     2
291
     1
 71
     2
176
     1
 72
     2
176
     1
 73
     3
176
     1
 90
        0
176
     1
 40
-0.6
176
     1
 41
-30.0
176
     1
 62
     5
 63
     8
421
  8421504
176
     1
 74
     1
176
     1
 91
        4
176
     1
 64
     7
176
     1
 65
   257
176
     1
 75
     1
176
     1
175
     1
176
     1
 42
1.0
176
     1
 92
        8
176
     1
 66
     8
424
  8421504
176
     1
 43
1.0
176
     1
 76
     1
176
     1
 77
     6
176
     1
 78
     2
176
     1
 67
     7
176
     1
 79
     5
176
     1
170
     0
176
     1
171
     0
176
     1
290
     0
176
     1
 93
        1
176
     1
 44
0.0
176
     1
173
     0
176
     1
  0
VISUALSTYLE
  5
34
102
{ACAD_REACTORS
330
2A
102
}
330
2A
100
AcDbVisualStyle
  2
Conceptual
 70
     9
177
     2
291
     0
 71
     3
176
     1
 72
     2
176
     1
 73
     0
176
     1
 90
        0
176
     1
 40
-0.6
176
     1
 41
-30.0
176
     1
 62
     5
 63
     7
421
 16777215
176
     1
 74
     2
176
     1
 91
        2
176
     1
 64
     7
176
     1
 65
   257
176
     1
 75
     1
176
     1
175
     1
176
     1
 42
40.0
176
     1
 92
        8
176
     1
 66
     7
176
     1
 43
1.0
176
     1
 76
     1
176
     1
 77
     6
176
     1
 78
     2
176
     1
 67
     7
176
     1
 79
     3
176
     1
170
     0
176
     1
171
     0
176
     1
290
     0
176
     1
 93
        1
176
     1
 44
0.0
176
     1
173
     0
176
     1
  0
VISUALSTYLE
  5
35
102
{ACAD_REACTORS
330
2A
102
}
330
2A
100
AcDbVisualStyle
  2
Dim
 70
    11
177
     2
291
     1
 71
     2
176
     1
 72
     2
176
     1
 73
     0
176
     1
 90
        0
176
     1
 40
-0.6
176
     1
 41
-30.0
176
     1
 62
     5
 63
     7
421
 16777215
176
     1
 74
     1
176
     1
 91
        4
176
     1
 64
     7
176
     1
 65
   257
176
     1
 75
     1
176
     1
175
     1
176
     1
 42
1.0
176
     1
 92
        8
176
     1
 66
     7
176
     1
 43
1.0
176
     1
 76
     1
176
     1
 77
     6
176
     1
 78
     2
176
     1
 67
     7
176
     1
 79
     5
176
     1
170
     0
176
     1
171
     0
176
     1
290
     0
176
     1
 93
        1
176
     1
 44
-50.0
176
     1
173
     0
176
     1
  0
VISUALSTYLE
  5
39
102
{ACAD_REACTORS
330
2A
102
}
330
2A
100
AcDbVisualStyle
  2
Facepattern
 70
    15
177
     2
291
     1
 71
     2
176
     1
 72
     2
176
     1
 73
     0
176
     1
 90
        0
176
     1
 40
-0.6
176
     1
 41
-30.0
176
     1
 62
     5
 63
     7
421
 16777215
176
     1
 74
     1
176
     1
 91
        4
176
     1
 64
     7
176
     1
 65
   257
176
     1
 75
     1
176
     1
175
     1
176
     1
 42
1.0
176
     1
 92
        8
176
     1
 66
     7
176
     1
 43
1.0
176
     1
 76
     1
176
     1
 77
     6
176
     1
 78
     2
176
     1
 67
     7
176
     1
 79
     5
176
     1
170
     0
176
     1
171
     0
176
     1
290
     0
176
     1
 93
        1
176
     1
 44
0.0
176
     1
173
     0
176
     1
  0
VISUALSTYLE
  5
2B
102
{ACAD_REACTORS
330
2A
102
}
330
2A
100
AcDbVisualStyle
  2
Flat
 70
     0
177
     2
291
     1
 71
     2
176
     1
 72
     1
176
     1
 73
     1
176
     1
 90
        2
176
     1
 40
-0.6
176
     1
 41
30.0
176
     1
 62
     5
 63
     7
421
 16777215
176
     1
 74
     0
176
     1
 91
        4
176
     1
 64
     7
176
     1
 65
   257
176
     1
 75
     1
176
     1
175
     1
176
     1
 42
1.0
176
     1
 92
        8
176
     1
 66
     7
176
     1
 43
1.0
176
     1
 76
     1
176
     1
 77
     6
176
     1
 78
     2
176
     1
 67
     7
176
     1
 79
     5
176
     1
170
     0
176
     1
171
     0
176
     1
290
     0
176
     1
 93
       13
176
     1
 44
0.0
176
     1
173
     0
176
     1
  0
VISUALSTYLE
  5
2C
102
{ACAD_REACTORS
330
2A
102
}
330
2A
100
AcDbVisualStyle
  2
FlatWithEdges
 70
     1
177
     2
291
     1
 71
     2
176
     1
 72
     1
176
     1
 73
     1
176
     1
 90
        2
176
     1
 40
-0.6
176
     1
 41
30.0
176
     1
 62
     5
 63
     7
421
 16777215
176
     1
 74
     1
176
     1
 91
        4
176
     1
 64
     7
176
     1
 65
   257
176
     1
 75
     1
176
     1
175
     1
176
     1
 42
1.0
176
     1
 92
        0
176
     1
 66
   257
176
     1
 43
1.0
176
     1
 76
     1
176
     1
 77
     6
176
     1
 78
     2
176
     1
 67
     7
176
     1
 79
     5
176
     1
170
     0
176
     1
171
     0
176
     1
290
     0
176
     1
 93
       13
176
     1
 44
0.0
176
     1
173
     0
176
     1
  0
VISUALSTYLE
  5
2D
102
{ACAD_REACTORS
330
2A
102
}
330
2A
100
AcDbVisualStyle
  2
Gouraud
 70
     2
177
     2
291
     1
 71
     2
176
     1
 72
     2
176
     1
 73
     1
176
     1
 90
        2
176
     1
 40
-0.6
176
     1
 41
30.0
176
     1
 62
     5
 63
     7
421
 16777215
176
     1
 74
     0
176
     1
 91
        4
176
     1
 64
     7
176
     1
 65
   257
176
     1
 75
     1
176
     1
175
     1
176
     1
 42
1.0
176
     1
 92
        0
176
     1
 66
     7
176
     1
 43
1.0
176
     1
 76
     1
176
     1
 77
     6
176
     1
 78
     2
176
     1
 67
     7
176
     1
 79
     5
176
     1
170
     0
176
     1
171
     0
176
     1
290
     0
176
     1
 93
       13
176
     1
 44
0.0
176
     1
173
     0
176
     1
  0
VISUALSTYLE
  5
2E
102
{ACAD_REACTORS
330
2A
102
}
330
2A
100
AcDbVisualStyle
  2
GouraudWithEdges
 70
     3
177
     2
291
     1
 71
     2
176
     1
 72
     2
176
     1
 73
     1
176
     1
 90
        2
176
     1
 40
-0.6
176
     1
 41
30.0
176
     1
 62
     5
 63
     7
421
 16777215
176
     1
 74
     1
176
     1
 91
        4
176
     1
 64
     7
176
     1
 65
   257
176
     1
 75
     1
176
     1
175
     1
176
     1
 42
1.0
176
     1
 92
        0
176
     1
 66
   257
176
     1
 43
1.0
176
     1
 76
     1
176
     1
 77
     6
176
     1
 78
     2
176
     1
 67
     7
176
     1
 79
     5
176
     1
170
     0
176
     1
171
     0
176
     1
290
     0
176
     1
 93
       13
176
     1
 44
0.0
176
     1
173
     0
176
     1
  0
VISUALSTYLE
  5
38
102
{ACAD_REACTORS
330
2A
102
}
330
2A
100
AcDbVisualStyle
  2
Linepattern
 70
    14
177
     2
291
     1
 71
     2
176
     1
 72
     2
176
     1
 73
     0
176
     1
 90
        0
176
     1
 40
-0.6
176
     1
 41
-30.0
176
     1
 62
     5
 63
     7
421
 16777215
176
     1
 74
     1
176
     1
 91
        4
176
     1
 64
     7
176
     1
 65
   257
176
     1
 75
     7
176
     1
175
     7
176
     1
 42
1.0
176
     1
 92
        8
176
     1
 66
     7
176
     1
 43
1.0
176
     1
 76
     1
176
     1
 77
     6
176
     1
 78
     2
176
     1
 67
     7
176
     1
 79
     5
176
     1
170
     0
176
     1
171
     0
176
     1
290
     0
176
     1
 93
        1
176
     1
 44
0.0
176
     1
173
     0
176
     1
  0
VISUALSTYLE
  5
33
102
{ACAD_REACTORS
330
2A
102
}
330
2A
100
AcDbVisualStyle
  2
Realistic
 70
     8
177
     2
291
     0
 71
     2
176
     1
 72
     2
176
     1
 73
     0
176
     1
 90
        0
176
     1
 40
-0.6
176
     1
 41
-30.0
176
     1
 62
     5
 63
     7
421
 16777215
176
     1
 74
     1
176
     1
 91
        0
176
     1
 64
     7
176
     1
 65
   257
176
     1
 75
     1
176
     1
175
     1
176
     1
 42
1.0
176
     1
 92
        8
176
     1
 66
     8
424
  7895160
176
     1
 43
1.0
176
     1
 76
     1
176
     1
 77
     6
176
     1
 78
     2
176
     1
 67
     7
176
     1
 79
     5
176
     1
170
     0
176
     1
171
     0
176
     1
290
     0
176
     1
 93
       13
176
     1
 44
0.0
176
     1
173
     0
176
     1
  0
VISUALSTYLE
  5
37
102
{ACAD_REACTORS
330
2A
102
}
330
2A
100
AcDbVisualStyle
  2
Thicken
 70
    13
177
     2
291
     1
 71
     2
176
     1
 72
     2
176
     1
 73
     0
176
     1
 90
        0
176
     1
 40
-0.6
176
     1
 41
-30.0
176
     1
 62
     5
 63
     7
421
 16777215
176
     1
 74
     1
176
     1
 91
        4
176
     1
 64
     7
176
     1
 65
   257
176
     1
 75
     1
176
     1
175
     1
176
     1
 42
1.0
176
     1
 92
       12
176
     1
 66
     7
176
     1
 43
1.0
176
     1
 76
     1
176
     1
 77
     6
176
     1
 78
     2
176
     1
 67
     7
176
     1
 79
     5
176
     1
170
     0
176
     1
171
     0
176
     1
290
     0
176
     1
 93
        1
176
     1
 44
0.0
176
     1
173
     0
176
     1
  0
ENDSEC
  0
EOF
