  0
SECTION
  2
HEADER
  9
$ACADVER
  1
AC1024
  9
$ACADMAINTVER
 70
     6
  9
$DWGCODEPAGE
  3
ANSI_1252
  9
$INSBASE
 10
0.0
 20
0.0
 30
0.0
  9
$EXTMIN
 10
1.000000000000000E+20
 20
1.000000000000000E+20
 30
1.000000000000000E+20
  9
$EXTMAX
 10
-1.000000000000000E+20
 20
-1.000000000000000E+20
 30
-1.000000000000000E+20
  9
$LIMMIN
 10
0.0
 20
0.0
  9
$LIMMAX
 10
12.0
 20
9.0
  9
$ORTHOMODE
 70
     0
  9
$REGENMODE
 70
     1
  9
$FILLMODE
 70
     1
  9
$QTEXTMODE
 70
     0
  9
$MIRRTEXT
 70
     1
  9
$LTSCALE
 40
1.0
  9
$ATTMODE
 70
     1
  9
$TEXTSIZE
 40
0.2
  9
$TRACEWID
 40
0.05
  9
$TEXTSTYLE
  7
Standard
  9
$CLAYER
  8
0
  9
$CELTYPE
  6
ByLayer
  9
$CECOLOR
 62
   256
  9
$CELTSCALE
 40
1.0
  9
$DISPSILH
 70
     0
  9
$DIMSCALE
 40
1.0
  9
$DIMASZ
 40
0.18
  9
$DIMEXO
 40
0.0625
  9
$DIMDLI
 40
0.38
  9
$DIMRND
 40
0.0
  9
$DIMDLE
 40
0.0
  9
$DIMEXE
 40
0.18
  9
$DIMTP
 40
0.0
  9
$DIMTM
 40
0.0
  9
$DIMTXT
 40
0.18
  9
$DIMCEN
 40
0.09
  9
$DIMTSZ
 40
0.0
  9
$DIMTOL
 70
     0
  9
$DIMLIM
 70
     0
  9
$DIMTIH
 70
     1
  9
$DIMTOH
 70
     1
  9
$DIMSE1
 70
     0
  9
$DIMSE2
 70
     0
  9
$DIMTAD
 70
     0
  9
$DIMZIN
 70
     0
  9
$DIMBLK
  1

  9
$DIMASO
 70
     1
  9
$DIMSHO
 70
     1
  9
$DIMPOST
  1

  9
$DIMAPOST
  1

  9
$DIMALT
 70
     0
  9
$DIMALTD
 70
     2
  9
$DIMALTF
 40
25.4
  9
$DIMLFAC
 40
1.0
  9
$DIMTOFL
 70
     0
  9
$DIMTVP
 40
0.0
  9
$DIMTIX
 70
     0
  9
$DIMSOXD
 70
     0
  9
$DIMSAH
 70
     0
  9
$DIMBLK1
  1

  9
$DIMBLK2
  1

  9
$DIMSTYLE
  2
Standard
  9
$DIMCLRD
 70
     0
  9
$DIMCLRE
 70
     0
  9
$DIMCLRT
 70
     0
  9
$DIMTFAC
 40
1.0
  9
$DIMGAP
 40
0.09
  9
$DIMJUST
 70
     0
  9
$DIMSD1
 70
     0
  9
$DIMSD2
 70
     0
  9
$DIMTOLJ
 70
     1
  9
$DIMTZIN
 70
     0
  9
$DIMALTZ
 70
     0
  9
$DIMALTTZ
 70
     0
  9
$DIMUPT
 70
     0
  9
$DIMDEC
 70
     4
  9
$DIMTDEC
 70
     4
  9
$DIMALTU
 70
     2
  9
$DIMALTTD
 70
     2
  9
$DIMTXSTY
  7
Standard
  9
$DIMAUNIT
 70
     0
  9
$DIMADEC
 70
     0
  9
$DIMALTRND
 40
0.0
  9
$DIMAZIN
 70
     0
  9
$DIMDSEP
 70
    46
  9
$DIMATFIT
 70
     3
  9
$DIMFRAC
 70
     0
  9
$DIMLDRBLK
  1

  9
$DIMLUNIT
 70
     2
  9
$DIMLWD
 70
    -2
  9
$DIMLWE
 70
    -2
  9
$DIMTMOVE
 70
     0
  9
$DIMFXL
 40
1.0
  9
$DIMFXLON
 70
     0
  9
$DIMJOGANG
 40
0.7853981633974483
  9
$DIMTFILL
 70
     0
  9
$DIMTFILLCLR
 70
     0
  9
$DIMARCSYM
 70
     0
  9
$DIMLTYPE
  6

  9
$DIMLTEX1
  6

  9
$DIMLTEX2
  6

  9
$DIMTXTDIRECTION
 70
     0
  9
$LUNITS
 70
     2
  9
$LUPREC
 70
     4
  9
$SKETCHINC
 40
0.1
  9
$FILLETRAD
 40
0.5
  9
$AUNITS
 70
     0
  9
$AUPREC
 70
     0
  9
$MENU
  1
.
  9
$ELEVATION
 40
0.0
  9
$PELEVATION
 40
0.0
  9
$THICKNESS
 40
0.0
  9
$LIMCHECK
 70
     0
  9
$CHAMFERA
 40
0.5
  9
$CHAMFERB
 40
0.5
  9
$CHAMFERC
 40
1.0
  9
$CHAMFERD
 40
0.0
  9
$SKPOLY
 70
     0
  9
$TDCREATE
 40
2459106.60700066
  9
$TDUCREATE
 40
2459106.773667326
  9
$TDUPDATE
 40
2459106.607001701
  9
$TDUUPDATE
 40
2459106.773668368
  9
$TDINDWG
 40
0.0000000116
  9
$TDUSRTIMER
 40
0.0000000116
  9
$USRTIMER
 70
     1
  9
$ANGBASE
 50
0.0
  9
$ANGDIR
 70
     0
  9
$PDMODE
 70
     0
  9
$PDSIZE
 40
0.0
  9
$PLINEWID
 40
0.0
  9
$SPLFRAME
 70
     0
  9
$SPLINETYPE
 70
     6
  9
$SPLINESEGS
 70
     8
  9
$HANDSEED
  5
5A
  9
$SURFTAB1
 70
     6
  9
$SURFTAB2
 70
     6
  9
$SURFTYPE
 70
     6
  9
$SURFU
 70
     6
  9
$SURFV
 70
     6
  9
$UCSBASE
  2

  9
$UCSNAME
  2

  9
$UCSORG
 10
0.0
 20
0.0
 30
0.0
  9
$UCSXDIR
 10
1.0
 20
0.0
 30
0.0
  9
$UCSYDIR
 10
0.0
 20
1.0
 30
0.0
  9
$UCSORTHOREF
  2

  9
$UCSORTHOVIEW
 70
     0
  9
$UCSORGTOP
 10
0.0
 20
0.0
 30
0.0
  9
$UCSORGBOTTOM
 10
0.0
 20
0.0
 30
0.0
  9
$UCSORGLEFT
 10
0.0
 20
0.0
 30
0.0
  9
$UCSORGRIGHT
 10
0.0
 20
0.0
 30
0.0
  9
$UCSORGFRONT
 10
0.0
 20
0.0
 30
0.0
  9
$UCSORGBACK
 10
0.0
 20
0.0
 30
0.0
  9
$PUCSBASE
  2

  9
$PUCSNAME
  2

  9
$PUCSORG
 10
0.0
 20
0.0
 30
0.0
  9
$PUCSXDIR
 10
1.0
 20
0.0
 30
0.0
  9
$PUCSYDIR
 10
0.0
 20
1.0
 30
0.0
  9
$PUCSORTHOREF
  2

  9
$PUCSORTHOVIEW
 70
     0
  9
$PUCSORGTOP
 10
0.0
 20
0.0
 30
0.0
  9
$PUCSORGBOTTOM
 10
0.0
 20
0.0
 30
0.0
  9
$PUCSORGLEFT
 10
0.0
 20
0.0
 30
0.0
  9
$PUCSORGRIGHT
 10
0.0
 20
0.0
 30
0.0
  9
$PUCSORGFRONT
 10
0.0
 20
0.0
 30
0.0
  9
$PUCSORGBACK
 10
0.0
 20
0.0
 30
0.0
  9
$USERI1
 70
     0
  9
$USERI2
 70
     0
  9
$USERI3
 70
     0
  9
$USERI4
 70
     0
  9
$USERI5
 70
     0
  9
$USERR1
 40
0.0
  9
$USERR2
 40
0.0
  9
$USERR3
 40
0.0
  9
$USERR4
 40
0.0
  9
$USERR5
 40
0.0
  9
$WORLDVIEW
 70
     1
  9
$SHADEDGE
 70
     3
  9
$SHADEDIF
 70
    70
  9
$TILEMODE
 70
     1
  9
$MAXACTVP
 70
    64
  9
$PINSBASE
 10
0.0
 20
0.0
 30
0.0
  9
$PLIMCHECK
 70
     0
  9
$PEXTMIN
 10
1.000000000000000E+20
 20
1.000000000000000E+20
 30
1.000000000000000E+20
  9
$PEXTMAX
 10
-1.000000000000000E+20
 20
-1.000000000000000E+20
 30
-1.000000000000000E+20
  9
$PLIMMIN
 10
0.0
 20
0.0
  9
$PLIMMAX
 10
12.0
 20
9.0
  9
$UNITMODE
 70
     0
  9
$VISRETAIN
 70
     1
  9
$PLINEGEN
 70
     0
  9
$PSLTSCALE
 70
     1
  9
$TREEDEPTH
 70
  3020
  9
$CMLSTYLE
  2
Standard
  9
$CMLJUST
 70
     0
  9
$CMLSCALE
 40
1.0
  9
$PROXYGRAPHICS
 70
     1
  9
$MEASUREMENT
 70
     0
  9
$CELWEIGHT
370
    -1
  9
$ENDCAPS
280
     0
  9
$JOINSTYLE
280
     0
  9
$LWDISPLAY
290
     1
  9
$INSUNITS
 70
     1
  9
$HYPERLINKBASE
  1

  9
$STYLESHEET
  1

  9
$XEDIT
290
     1
  9
$CEPSNTYPE
380
     0
  9
$PSTYLEMODE
290
     1
  9
$FINGERPRINTGUID
  2
{3DE71321-ADCA-47C1-8E21-33AA03FBF1ED}
  9
$VERSIONGUID
  2
{FAEB1C32-E019-11D5-929B-00C0DF256EC4}
  9
$EXTNAMES
290
     1
  9
$PSVPSCALE
 40
0.0
  9
$OLESTARTUP
290
     0
  9
$SORTENTS
280
   127
  9
$INDEXCTL
280
     0
  9
$HIDETEXT
280
     1
  9
$XCLIPFRAME
280
     2
  9
$HALOGAP
280
     0
  9
$OBSCOLOR
 70
   257
  9
$OBSLTYPE
280
     0
  9
$INTERSECTIONDISPLAY
280
     0
  9
$INTERSECTIONCOLOR
 70
   257
  9
$DIMASSOC
280
     2
  9
$PROJECTNAME
  1

  9
$CAMERADISPLAY
290
     0
  9
$LENSLENGTH
 40
50.0
  9
$CAMERAHEIGHT
 40
0.0
  9
$STEPSPERSEC
 40
2.0
  9
$STEPSIZE
 40
6.0
  9
$3DDWFPREC
 40
2.0
  9
$PSOLWIDTH
 40
0.25
  9
$PSOLHEIGHT
 40
4.0
  9
$LOFTANG1
 40
1.570796326794897
  9
$LOFTANG2
 40
1.570796326794897
  9
$LOFTMAG1
 40
0.0
  9
$LOFTMAG2
 40
0.0
  9
$LOFTPARAM
 70
     7
  9
$LOFTNORMALS
280
     1
  9
$LATITUDE
 40
37.795
  9
$LONGITUDE
 40
-122.394
  9
$NORTHDIRECTION
 40
0.0
  9
$TIMEZONE
 70
 -8000
  9
$LIGHTGLYPHDISPLAY
280
     1
  9
$TILEMODELIGHTSYNCH
280
     1
  9
$CMATERIAL
347
3C
  9
$SOLIDHIST
280
     1
  9
$SHOWHIST
280
     1
  9
$DWFFRAME
280
     2
  9
$DGNFRAME
280
     2
  9
$REALWORLDSCALE
290
     1
  9
$INTERFERECOLOR
 62
   256
  9
$CSHADOW
280
     0
  9
$SHADOWPLANELOCATION
 40
0.0
  0
ENDSEC
  0
SECTION
  2
CLASSES
  0
CLASS
  1
ACDBDICTIONARYWDFLT
  2
AcDbDictionaryWithDefault
  3
ObjectDBX Classes
 90
        0
 91
        4
280
     0
281
     0
  0
CLASS
  1
VISUALSTYLE
  2
AcDbVisualStyle
  3
ObjectDBX Classes
 90
     4095
 91
        4
280
     0
281
     0
  0
CLASS
  1
MATERIAL
  2
AcDbMaterial
  3
ObjectDBX Classes
 90
     1153
 91
        4
280
     0
281
     0
  0
CLASS
  1
SUN
  2
AcDbSun
  3
SCENEOE
 90
     1024
 91
        4
280
     0
281
     0
  0
ENDSEC
  0
SECTION
  2
TABLES
  0
TABLE
  2
VPORT
  5
8
330
0
100
AcDbSymbolTable
 70
     1
  0
VPORT
  5
29
330
8
100
AcDbSymbolTableRecord
100
AcDbViewportTableRecord
  2
*Active
 70
     0
 10
0.0
 20
0.0
 11
1.0
 21
1.0
 12
0.0
 22
0.0
 13
0.0
 23
0.0
 14
0.5
 24
0.5
 15
0.5
 25
0.5
 16
0.0
 26
0.0
 36
1.0
 17
36.00000000000001
 27
-12.0
 37
0.0
 40
24.0
 41
1.767295597484277
 42
50.0
 43
0.0
 44
0.0
 50
0.0
 51
0.0
 71
     0
 72
   100
 73
     1
 74
     3
 75
     0
 76
     0
 77
     0
 78
     0
281
     0
 65
     1
110
0.0
120
0.0
130
0.0
111
1.0
121
0.0
131
0.0
112
0.0
122
1.0
132
0.0
 79
     0
146
0.0
 60
     3
 61
     5
292
     1
282
     1
141
0.0
142
0.0
 63
   250
361
3F
  0
ENDTAB
  0
TABLE
  2
LTYPE
  5
5
330
0
100
AcDbSymbolTable
 70
     1
  0
LTYPE
  5
14
330
5
100
AcDbSymbolTableRecord
100
AcDbLinetypeTableRecord
  2
ByBlock
 70
     0
  3

 72
    65
 73
     0
 40
0.0
  0
LTYPE
  5
15
330
5
100
AcDbSymbolTableRecord
100
AcDbLinetypeTableRecord
  2
ByLayer
 70
     0
  3

 72
    65
 73
     0
 40
0.0
  0
LTYPE
  5
16
330
5
100
AcDbSymbolTableRecord
100
AcDbLinetypeTableRecord
  2
Continuous
 70
     0
  3
Solid line
 72
    65
 73
     0
 40
0.0
  0
ENDTAB
  0
TABLE
  2
LAYER
  5
2
330
0
100
AcDbSymbolTable
 70
     2
  0
LAYER
  5
10
330
2
100
AcDbSymbolTableRecord
100
AcDbLayerTableRecord
  2
0
 70
     0
 62
     7
  6
Continuous
370
    -3
390
F
347
3E
  0
LAYER
  5
40
330
2
100
AcDbSymbolTableRecord
100
AcDbLayerTableRecord
  2
Layer 1
 70
     0
 62
     7
  6
Continuous
370
    -3
390
F
347
3E
  0
ENDTAB
  0
TABLE
  2
STYLE
  5
3
330
0
100
AcDbSymbolTable
 70
     1
  0
STYLE
  5
11
330
3
100
AcDbSymbolTableRecord
100
AcDbTextStyleTableRecord
  2
Standard
 70
     0
 40
0.0
 41
1.0
 50
0.0
 71
     0
 42
0.2
  3
txt
  4

  0
ENDTAB
  0
TABLE
  2
VIEW
  5
6
330
0
100
AcDbSymbolTable
 70
     0
  0
ENDTAB
  0
TABLE
  2
UCS
  5
7
330
0
100
AcDbSymbolTable
 70
     0
  0
ENDTAB
  0
TABLE
  2
APPID
  5
9
330
0
100
AcDbSymbolTable
 70
     1
  0
APPID
  5
12
330
9
100
AcDbSymbolTableRecord
100
AcDbRegAppTableRecord
  2
ACAD
 70
     0
  0
ENDTAB
  0
TABLE
  2
DIMSTYLE
  5
A
330
0
100
AcDbSymbolTable
 70
     1
100
AcDbDimStyleTable
  0
DIMSTYLE
105
27
330
A
100
AcDbSymbolTableRecord
100
AcDbDimStyleTableRecord
  2
Standard
 70
     0
178
     0
340
11
  0
ENDTAB
  0
TABLE
  2
BLOCK_RECORD
  5
1
330
0
100
AcDbSymbolTable
 70
     2
  0
BLOCK_RECORD
  5
1F
330
1
100
AcDbSymbolTableRecord
100
AcDbBlockTableRecord
  2
*Model_Space
340
22
 70
     0
280
     1
281
     0
  0
BLOCK_RECORD
  5
1B
330
1
100
AcDbSymbolTableRecord
100
AcDbBlockTableRecord
  2
*Paper_Space
340
1E
 70
     0
280
     1
281
     0
  0
BLOCK_RECORD
  5
23
330
1
100
AcDbSymbolTableRecord
100
AcDbBlockTableRecord
  2
*Paper_Space0
340
26
 70
     0
280
     1
281
     0
  0
BLOCK_RECORD
  5
42
330
1
100
AcDbSymbolTableRecord
100
AcDbBlockTableRecord
  2
block 2
340
0
102
{BLKREFS
331
43
102
}
 70
     0
280
     1
281
     0
  0
ENDTAB
  0
ENDSEC
  0
SECTION
  2
BLOCKS
  0
BLOCK
  5
20
330
1F
100
AcDbEntity
  8
0
100
AcDbBlockBegin
  2
*Model_Space
 70
     0
 10
0.0
 20
0.0
 30
0.0
  3
*Model_Space
  1

  0
ENDBLK
  5
21
330
1F
100
AcDbEntity
  8
0
100
AcDbBlockEnd
  0
BLOCK
  5
1C
330
1B
100
AcDbEntity
 67
     1
  8
0
100
AcDbBlockBegin
  2
*Paper_Space
 70
     0
 10
0.0
 20
0.0
 30
0.0
  3
*Paper_Space
  1

  0
ENDBLK
  5
1D
330
1B
100
AcDbEntity
 67
     1
  8
0
100
AcDbBlockEnd
  0
BLOCK
  5
24
330
23
100
AcDbEntity
  8
0
100
AcDbBlockBegin
  2
*Paper_Space0
 70
     0
 10
0.0
 20
0.0
 30
0.0
  3
*Paper_Space0
  1

  0
ENDBLK
  5
25
330
23
100
AcDbEntity
  8
0
100
AcDbBlockEnd
  0
BLOCK
  5
44
330
42
100
AcDbEntity
  8
0
100
AcDbBlockBegin
  2
block 2
 70
     0
 10
0.0
 20
0.0
 30
0.0
  3
block 2
  1

  0
SPLINE
  5
46
330
42
100
AcDbEntity
  8
Layer 1
 62
   250
420
  2301728
370
    35
100
AcDbSpline
210
0.0
220
0.0
230
1.0
 70
    11
 71
     3
 72
    59
 73
    55
 74
     0
 42
0.0000000001
 43
0.0000000001
 12
1.0
 22
0.0
 32
0.0
 13
1.0
 23
0.0
 33
0.0
 40
0.0
 40
0.0
 40
0.0
 40
0.0
 40
1.0
 40
1.0
 40
1.0
 40
2.0
 40
2.0
 40
2.0
 40
3.0
 40
3.0
 40
3.0
 40
4.0
 40
4.0
 40
4.0
 40
5.0
 40
5.0
 40
5.0
 40
6.0
 40
6.0
 40
6.0
 40
7.0
 40
7.0
 40
7.0
 40
8.0
 40
8.0
 40
8.0
 40
9.0
 40
9.0
 40
9.0
 40
10.0
 40
10.0
 40
10.0
 40
11.0
 40
11.0
 40
11.0
 40
12.0
 40
12.0
 40
12.0
 40
13.0
 40
13.0
 40
13.0
 40
14.0
 40
14.0
 40
14.0
 40
15.0
 40
15.0
 40
15.0
 40
16.0
 40
16.0
 40
16.0
 40
17.0
 40
17.0
 40
17.0
 40
18.0
 40
18.0
 40
18.0
 40
18.0
 10
22.06948827417859
 20
-11.40070590932914
 30
0.0
 10
21.77205717608831
 20
-11.39623677955483
 30
0.0
 10
21.53453547469942
 20
-11.31748108294025
 30
0.0
 10
21.35705880369247
 20
-11.16433709422497
 30
0.0
 10
21.17946006237303
 20
-11.01119988719372
 30
0.0
 10
21.05077082626192
 20
-10.81706740021456
 30
0.0
 10
20.97086902504664
 20
-10.58173618276664
 30
0.0
 10
20.89096722383136
 20
-10.34650669057914
 30
0.0
 10
20.85434613008136
 20
-10.08350620229789
 30
0.0
 10
20.86100574379664
 20
-9.792721154554833
 30
0.0
 10
20.86766535751192
 20
-9.502044613756222
 30
0.0
 10
20.90865385577581
 20
-9.219065284329139
 30
0.0
 10
20.9841882524772
 20
-8.943789947957612
 30
0.0
 10
21.08177668563692
 20
-8.584238624172889
 30
0.0
 10
21.2349206743522
 20
-8.247989166707612
 30
0.0
 10
21.44360665525497
 20
-7.935048357245805
 30
0.0
 10
21.65219769258136
 20
-7.622107547784
 30
0.0
 10
21.89637900768553
 20
-7.351409848131222
 30
0.0
 10
22.17602853025497
 20
-7.122738244398583
 30
0.0
 10
22.45567805282442
 20
-6.894168365926362
 30
0.0
 10
22.76081314397025
 20
-6.714392704034
 30
0.0
 10
23.09154231063692
 20
-6.5834112587215
 30
0.0
 10
23.4221765337272
 20
-6.452531538669417
 30
0.0
 10
23.75842599119247
 20
-6.389278771742333
 30
0.0
 10
24.1002771196647
 20
-6.393646176256222
 30
0.0
 10
24.33998252331053
 20
-6.398122087714555
 30
0.0
 10
24.5397302446647
 20
-6.445871924954139
 30
0.0
 10
24.69953384709525
 20
-6.536800744398583
 30
0.0
 10
24.85933744952581
 20
-6.627831289103445
 30
0.0
 10
24.98688736272025
 20
-6.747683990926362
 30
0.0
 10
25.08238703719942
 20
-6.896352068183305
 30
0.0
 10
25.1777917681022
 20
-7.045121870700667
 30
0.0
 10
25.2432214556022
 20
-7.217098595961083
 30
0.0
 10
25.27881173337997
 20
-7.412370405856917
 30
0.0
 10
25.31427994084525
 20
-7.607750722697195
 30
0.0
 10
25.32541546601886
 20
-7.809688927992333
 30
0.0
 10
25.31209623858831
 20
-8.018279965318722
 30
0.0
 10
25.29877701115775
 20
-8.226979509589556
 30
0.0
 10
25.2643396196647
 20
-8.436716651516639
 30
0.0
 10
25.20889257105359
 20
-8.647491391099972
 30
0.0
 10
25.15333701549803
 20
-8.858374637627751
 30
0.0
 10
25.0834314165397
 20
-9.054792552124278
 30
0.0
 10
24.99916221081053
 20
-9.236751916273583
 30
0.0
 10
24.83935860837997
 20
-9.574140696655528
 30
0.0
 10
24.66177343042859
 20
-9.877098867228444
 30
0.0
 10
24.4664880571647
 20
-10.14561286462428
 30
0.0
 10
24.27110774032442
 20
-10.41423536896456
 30
0.0
 10
24.05253406410914
 20
-10.64165914283608
 30
0.0
 10
23.81064495820636
 20
-10.82809441844372
 30
0.0
 10
23.5686609087272
 20
-11.01452291236733
 30
0.0
 10
23.30346993650497
 20
-11.15663988285344
 30
0.0
 10
23.01497709796331
 20
-11.25422831601317
 30
0.0
 10
22.7263757524772
 20
-11.35180996748886
 30
0.0
 10
22.41125802244247
 20
-11.40070590932914
 30
0.0
 10
22.06948827417859
 20
-11.40070590932914
 30
0.0
  0
SPLINE
  5
47
330
42
100
AcDbEntity
  8
Layer 1
 62
   250
420
  2301728
370
    35
100
AcDbSpline
210
0.0
220
0.0
230
1.0
 70
    11
 71
     3
 72
    59
 73
    55
 74
     0
 42
0.0000000001
 43
0.0000000001
 12
1.0
 22
0.0
 32
0.0
 13
1.0
 23
0.0
 33
0.0
 40
0.0
 40
0.0
 40
0.0
 40
0.0
 40
1.0
 40
1.0
 40
1.0
 40
2.0
 40
2.0
 40
2.0
 40
3.0
 40
3.0
 40
3.0
 40
4.0
 40
4.0
 40
4.0
 40
5.0
 40
5.0
 40
5.0
 40
6.0
 40
6.0
 40
6.0
 40
7.0
 40
7.0
 40
7.0
 40
8.0
 40
8.0
 40
8.0
 40
9.0
 40
9.0
 40
9.0
 40
10.0
 40
10.0
 40
10.0
 40
11.0
 40
11.0
 40
11.0
 40
12.0
 40
12.0
 40
12.0
 40
13.0
 40
13.0
 40
13.0
 40
14.0
 40
14.0
 40
14.0
 40
15.0
 40
15.0
 40
15.0
 40
16.0
 40
16.0
 40
16.0
 40
17.0
 40
17.0
 40
17.0
 40
18.0
 40
18.0
 40
18.0
 40
18.0
 10
22.06948827417859
 20
-11.40070590932914
 30
0.0
 10
21.77205717608831
 20
-11.39623677955483
 30
0.0
 10
21.53453547469942
 20
-11.31748108294025
 30
0.0
 10
21.35705880369247
 20
-11.16433709422497
 30
0.0
 10
21.17946006237303
 20
-11.01119988719372
 30
0.0
 10
21.05077082626192
 20
-10.81706740021456
 30
0.0
 10
20.97086902504664
 20
-10.58173618276664
 30
0.0
 10
20.89096722383136
 20
-10.34650669057914
 30
0.0
 10
20.85434613008136
 20
-10.08350620229789
 30
0.0
 10
20.86100574379664
 20
-9.792721154554833
 30
0.0
 10
20.86766535751192
 20
-9.502044613756222
 30
0.0
 10
20.90865385577581
 20
-9.219065284329139
 30
0.0
 10
20.9841882524772
 20
-8.943789947957612
 30
0.0
 10
21.08177668563692
 20
-8.584238624172889
 30
0.0
 10
21.2349206743522
 20
-8.247989166707612
 30
0.0
 10
21.44360665525497
 20
-7.935048357245805
 30
0.0
 10
21.65219769258136
 20
-7.622107547784
 30
0.0
 10
21.89637900768553
 20
-7.351409848131222
 30
0.0
 10
22.17602853025497
 20
-7.122738244398583
 30
0.0
 10
22.45567805282442
 20
-6.894168365926362
 30
0.0
 10
22.76081314397025
 20
-6.714392704034
 30
0.0
 10
23.09154231063692
 20
-6.5834112587215
 30
0.0
 10
23.4221765337272
 20
-6.452531538669417
 30
0.0
 10
23.75842599119247
 20
-6.389278771742333
 30
0.0
 10
24.1002771196647
 20
-6.393646176256222
 30
0.0
 10
24.33998252331053
 20
-6.398122087714555
 30
0.0
 10
24.5397302446647
 20
-6.445871924954139
 30
0.0
 10
24.69953384709525
 20
-6.536800744398583
 30
0.0
 10
24.85933744952581
 20
-6.627831289103445
 30
0.0
 10
24.98688736272025
 20
-6.747683990926362
 30
0.0
 10
25.08238703719942
 20
-6.896352068183305
 30
0.0
 10
25.1777917681022
 20
-7.045121870700667
 30
0.0
 10
25.2432214556022
 20
-7.217098595961083
 30
0.0
 10
25.27881173337997
 20
-7.412370405856917
 30
0.0
 10
25.31427994084525
 20
-7.607750722697195
 30
0.0
 10
25.32541546601886
 20
-7.809688927992333
 30
0.0
 10
25.31209623858831
 20
-8.018279965318722
 30
0.0
 10
25.29877701115775
 20
-8.226979509589556
 30
0.0
 10
25.2643396196647
 20
-8.436716651516639
 30
0.0
 10
25.20889257105359
 20
-8.647491391099972
 30
0.0
 10
25.15333701549803
 20
-8.858374637627751
 30
0.0
 10
25.0834314165397
 20
-9.054792552124278
 30
0.0
 10
24.99916221081053
 20
-9.236751916273583
 30
0.0
 10
24.83935860837997
 20
-9.574140696655528
 30
0.0
 10
24.66177343042859
 20
-9.877098867228444
 30
0.0
 10
24.4664880571647
 20
-10.14561286462428
 30
0.0
 10
24.27110774032442
 20
-10.41423536896456
 30
0.0
 10
24.05253406410914
 20
-10.64165914283608
 30
0.0
 10
23.81064495820636
 20
-10.82809441844372
 30
0.0
 10
23.5686609087272
 20
-11.01452291236733
 30
0.0
 10
23.30346993650497
 20
-11.15663988285344
 30
0.0
 10
23.01497709796331
 20
-11.25422831601317
 30
0.0
 10
22.7263757524772
 20
-11.35180996748886
 30
0.0
 10
22.41125802244247
 20
-11.40070590932914
 30
0.0
 10
22.06948827417859
 20
-11.40070590932914
 30
0.0
  0
SPLINE
  5
48
330
42
100
AcDbEntity
  8
Layer 1
 62
   250
420
  2301728
370
    35
100
AcDbSpline
210
0.0
220
0.0
230
1.0
 70
    11
 71
     3
 72
   131
 73
   127
 74
     0
 42
0.0000000001
 43
0.0000000001
 12
1.0
 22
0.0
 32
0.0
 13
1.0
 23
0.0
 33
0.0
 40
0.0
 40
0.0
 40
0.0
 40
0.0
 40
1.0
 40
1.0
 40
1.0
 40
2.0
 40
2.0
 40
2.0
 40
3.0
 40
3.0
 40
3.0
 40
4.0
 40
4.0
 40
4.0
 40
5.0
 40
5.0
 40
5.0
 40
6.0
 40
6.0
 40
6.0
 40
7.0
 40
7.0
 40
7.0
 40
8.0
 40
8.0
 40
8.0
 40
9.0
 40
9.0
 40
9.0
 40
10.0
 40
10.0
 40
10.0
 40
11.0
 40
11.0
 40
11.0
 40
12.0
 40
12.0
 40
12.0
 40
13.0
 40
13.0
 40
13.0
 40
14.0
 40
14.0
 40
14.0
 40
15.0
 40
15.0
 40
15.0
 40
16.0
 40
16.0
 40
16.0
 40
17.0
 40
17.0
 40
17.0
 40
18.0
 40
18.0
 40
18.0
 40
19.0
 40
19.0
 40
19.0
 40
20.0
 40
20.0
 40
20.0
 40
21.0
 40
21.0
 40
21.0
 40
22.0
 40
22.0
 40
22.0
 40
23.0
 40
23.0
 40
23.0
 40
24.0
 40
24.0
 40
24.0
 40
25.0
 40
25.0
 40
25.0
 40
26.0
 40
26.0
 40
26.0
 40
27.0
 40
27.0
 40
27.0
 40
28.0
 40
28.0
 40
28.0
 40
29.0
 40
29.0
 40
29.0
 40
30.0
 40
30.0
 40
30.0
 40
31.0
 40
31.0
 40
31.0
 40
32.0
 40
32.0
 40
32.0
 40
33.0
 40
33.0
 40
33.0
 40
34.0
 40
34.0
 40
34.0
 40
35.0
 40
35.0
 40
35.0
 40
36.0
 40
36.0
 40
36.0
 40
37.0
 40
37.0
 40
37.0
 40
38.0
 40
38.0
 40
38.0
 40
39.0
 40
39.0
 40
39.0
 40
40.0
 40
40.0
 40
40.0
 40
41.0
 40
41.0
 40
41.0
 40
42.0
 40
42.0
 40
42.0
 40
42.0
 10
26.99662586098414
 20
-11.56716912547497
 30
0.0
 10
27.01877484101886
 20
-11.45615973962428
 30
0.0
 10
27.07089886445636
 20
-11.29313483728053
 30
0.0
 10
27.15309287487303
 20
-11.07778246097844
 30
0.0
 10
27.23517837834525
 20
-10.86253180993678
 30
0.0
 10
27.33286175508136
 20
-10.62282640629094
 30
0.0
 10
27.44606162487303
 20
-10.358679813409
 30
0.0
 10
27.55924793129664
 20
-10.09463494578747
 30
0.0
 10
27.68013823077581
 20
-9.822689416273583
 30
0.0
 10
27.80893597383136
 20
-9.543033112020112
 30
0.0
 10
27.93762520994247
 20
-9.263383589450667
 30
0.0
 10
28.05748469344942
 20
-9.005998335544417
 30
0.0
 10
28.16848729761609
 20
-8.770673899780528
 30
0.0
 10
28.27938139483831
 20
-8.535444407593028
 30
0.0
 10
28.37375530976886
 20
-8.335696686238862
 30
0.0
 10
28.45145984535914
 20
-8.171423954034001
 30
0.0
 10
28.52906943737303
 20
-8.007252947089556
 30
0.0
 10
28.57682605629664
 20
-7.909562788669417
 30
0.0
 10
28.59462119518553
 20
-7.878455204034
 30
0.0
 10
28.62562705456053
 20
-7.816341760023583
 30
0.0
 10
28.64456151636609
 20
-7.76755432512775
 30
0.0
 10
28.65120756671331
 20
-7.731970829034
 30
0.0
 10
28.65786718042859
 20
-7.696495839884695
 30
0.0
 10
28.63893271862303
 20
-7.672047868964555
 30
0.0
 10
28.59462119518553
 20
-7.658728641534
 30
0.0
 10
28.56798274032442
 20
-7.649885325561778
 30
0.0
 10
28.54135784883136
 20
-7.65769104387775
 30
0.0
 10
28.51471939397025
 20
-7.682037289537472
 30
0.0
 10
28.48808093910914
 20
-7.706485260457612
 30
0.0
 10
28.43700129501192
 20
-7.749759186238862
 30
0.0
 10
28.36157540525497
 20
-7.811872630249278
 30
0.0
 10
28.30383614744247
 20
-7.856292660631222
 30
0.0
 10
28.20729209362303
 20
-7.940670373304833
 30
0.0
 10
28.07194324379664
 20
-8.064890479641639
 30
0.0
 10
27.93648588702581
 20
-8.189212311238862
 30
0.0
 10
27.77449858233831
 20
-8.343495622870806
 30
0.0
 10
27.58588638615775
 20
-8.527638689277056
 30
0.0
 10
27.39716568303275
 20
-8.711890262627751
 30
0.0
 10
27.19303699379664
 20
-8.919443702297889
 30
0.0
 10
26.97331043129664
 20
-9.150197283027056
 30
0.0
 10
26.75358386879664
 20
-9.381052589016639
 30
0.0
 10
26.53157866046331
 20
-9.620751210978444
 30
0.0
 10
26.30748469344942
 20
-9.869293148912472
 30
0.0
 10
26.08328221949109
 20
-10.11794359379094
 30
0.0
 10
25.86573935924803
 20
-10.37095466149928
 30
0.0
 10
25.6549646196647
 20
-10.62834669708956
 30
0.0
 10
25.44408137313692
 20
-10.88583367625622
 30
0.0
 10
25.25651355629664
 20
-11.13219191193331
 30
0.0
 10
25.0923425493522
 20
-11.36741462243678
 30
0.0
 10
25.32309613008136
 20
-10.84806647790553
 30
0.0
 10
25.54946874292859
 20
-10.35316630429442
 30
0.0
 10
25.77148751462997
 20
-9.882612376343028
 30
0.0
 10
25.86470854327581
 20
-9.682857873304833
 30
0.0
 10
25.96228341306747
 20
-9.477596642836083
 30
0.0
 10
26.06445626462997
 20
-9.266713396308306
 30
0.0
 10
26.16650704587997
 20
-9.055938656724972
 30
0.0
 10
26.26752701115775
 20
-8.852861128513167
 30
0.0
 10
26.36740765351886
 20
-8.657480811672889
 30
0.0
 10
26.46728829587997
 20
-8.462202220093028
 30
0.0
 10
26.56154014049803
 20
-8.279096751343028
 30
0.0
 10
26.65038020126192
 20
-8.108164405422889
 30
0.0
 10
26.73912531844942
 20
-7.937340566447195
 30
0.0
 10
26.82121082192164
 20
-7.791893789103445
 30
0.0
 10
26.89674521862303
 20
-7.672047868964555
 30
0.0
 10
26.82121082192164
 20
-7.791893789103445
 30
0.0
 10
26.73912531844942
 20
-7.937340566447195
 30
0.0
 10
26.65038020126192
 20
-8.108164405422889
 30
0.0
 10
26.56154014049803
 20
-8.279096751343028
 30
0.0
 10
26.46728829587997
 20
-8.462202220093028
 30
0.0
 10
26.36740765351886
 20
-8.657480811672889
 30
0.0
 10
26.26752701115775
 20
-8.852861128513167
 30
0.0
 10
26.16650704587997
 20
-9.055938656724972
 30
0.0
 10
26.06445626462997
 20
-9.266713396308306
 30
0.0
 10
25.96228341306747
 20
-9.477596642836083
 30
0.0
 10
25.86470854327581
 20
-9.682857873304833
 30
0.0
 10
25.77148751462997
 20
-9.882612376343028
 30
0.0
 10
25.54946874292859
 20
-10.35316630429442
 30
0.0
 10
25.32309613008136
 20
-10.84806647790553
 30
0.0
 10
25.0923425493522
 20
-11.36741462243678
 30
0.0
 10
25.25651355629664
 20
-11.13219191193331
 30
0.0
 10
25.44408137313692
 20
-10.88583367625622
 30
0.0
 10
25.6549646196647
 20
-10.62834669708956
 30
0.0
 10
25.86573935924803
 20
-10.37095466149928
 30
0.0
 10
26.08328221949109
 20
-10.11794359379094
 30
0.0
 10
26.30748469344942
 20
-9.869293148912472
 30
0.0
 10
26.53157866046331
 20
-9.620751210978444
 30
0.0
 10
26.75358386879664
 20
-9.381052589016639
 30
0.0
 10
26.97331043129664
 20
-9.150197283027056
 30
0.0
 10
27.19303699379664
 20
-8.919443702297889
 30
0.0
 10
27.39716568303275
 20
-8.711890262627751
 30
0.0
 10
27.58588638615775
 20
-8.527638689277056
 30
0.0
 10
27.77449858233831
 20
-8.343495622870806
 30
0.0
 10
27.93762520994247
 20
-8.188066206638167
 30
0.0
 10
28.07526626897025
 20
-8.061560672784001
 30
0.0
 10
28.21279882105359
 20
-7.935048357245805
 30
0.0
 10
28.30831205890081
 20
-7.851823530856917
 30
0.0
 10
28.36157540525497
 20
-7.811872630249278
 30
0.0
 10
28.43700129501192
 20
-7.749759186238862
 30
0.0
 10
28.48808093910914
 20
-7.706485260457612
 30
0.0
 10
28.51471939397025
 20
-7.682037289537472
 30
0.0
 10
28.54135784883136
 20
-7.65769104387775
 30
0.0
 10
28.56798274032442
 20
-7.649885325561778
 30
0.0
 10
28.59462119518553
 20
-7.658728641534
 30
0.0
 10
28.63893271862303
 20
-7.672047868964555
 30
0.0
 10
28.65786718042859
 20
-7.696495839884695
 30
0.0
 10
28.65120756671331
 20
-7.731970829034
 30
0.0
 10
28.64456151636609
 20
-7.76755432512775
 30
0.0
 10
28.62562705456053
 20
-7.816341760023583
 30
0.0
 10
28.59462119518553
 20
-7.878455204034
 30
0.0
 10
28.57682605629664
 20
-7.909562788669417
 30
0.0
 10
28.52906943737303
 20
-8.007252947089556
 30
0.0
 10
28.45145984535914
 20
-8.171423954034001
 30
0.0
 10
28.37375530976886
 20
-8.335696686238862
 30
0.0
 10
28.27938139483831
 20
-8.535444407593028
 30
0.0
 10
28.16848729761609
 20
-8.770673899780528
 30
0.0
 10
28.05748469344942
 20
-9.005998335544417
 30
0.0
 10
27.93762520994247
 20
-9.263383589450667
 30
0.0
 10
27.80893597383136
 20
-9.543033112020112
 30
0.0
 10
27.68013823077581
 20
-9.822689416273583
 30
0.0
 10
27.55924793129664
 20
-10.09463494578747
 30
0.0
 10
27.44606162487303
 20
-10.358679813409
 30
0.0
 10
27.33286175508136
 20
-10.62282640629094
 30
0.0
 10
27.23517837834525
 20
-10.86253180993678
 30
0.0
 10
27.15309287487303
 20
-11.07778246097844
 30
0.0
 10
27.07089886445636
 20
-11.29313483728053
 30
0.0
 10
27.01877484101886
 20
-11.45615973962428
 30
0.0
 10
26.99662586098414
 20
-11.56716912547497
 30
0.0
  0
SPLINE
  5
49
330
42
100
AcDbEntity
  8
Layer 1
 62
   250
420
  2301728
370
    35
100
AcDbSpline
210
0.0
220
0.0
230
1.0
 70
    11
 71
     3
 72
   161
 73
   157
 74
     0
 42
0.0000000001
 43
0.0000000001
 12
1.0
 22
0.0
 32
0.0
 13
1.0
 23
0.0
 33
0.0
 40
0.0
 40
0.0
 40
0.0
 40
0.0
 40
1.0
 40
1.0
 40
1.0
 40
2.0
 40
2.0
 40
2.0
 40
3.0
 40
3.0
 40
3.0
 40
4.0
 40
4.0
 40
4.0
 40
5.0
 40
5.0
 40
5.0
 40
6.0
 40
6.0
 40
6.0
 40
7.0
 40
7.0
 40
7.0
 40
8.0
 40
8.0
 40
8.0
 40
9.0
 40
9.0
 40
9.0
 40
10.0
 40
10.0
 40
10.0
 40
11.0
 40
11.0
 40
11.0
 40
12.0
 40
12.0
 40
12.0
 40
13.0
 40
13.0
 40
13.0
 40
14.0
 40
14.0
 40
14.0
 40
15.0
 40
15.0
 40
15.0
 40
16.0
 40
16.0
 40
16.0
 40
17.0
 40
17.0
 40
17.0
 40
18.0
 40
18.0
 40
18.0
 40
19.0
 40
19.0
 40
19.0
 40
20.0
 40
20.0
 40
20.0
 40
21.0
 40
21.0
 40
21.0
 40
22.0
 40
22.0
 40
22.0
 40
23.0
 40
23.0
 40
23.0
 40
24.0
 40
24.0
 40
24.0
 40
25.0
 40
25.0
 40
25.0
 40
26.0
 40
26.0
 40
26.0
 40
27.0
 40
27.0
 40
27.0
 40
28.0
 40
28.0
 40
28.0
 40
29.0
 40
29.0
 40
29.0
 40
30.0
 40
30.0
 40
30.0
 40
31.0
 40
31.0
 40
31.0
 40
32.0
 40
32.0
 40
32.0
 40
33.0
 40
33.0
 40
33.0
 40
34.0
 40
34.0
 40
34.0
 40
35.0
 40
35.0
 40
35.0
 40
36.0
 40
36.0
 40
36.0
 40
37.0
 40
37.0
 40
37.0
 40
38.0
 40
38.0
 40
38.0
 40
39.0
 40
39.0
 40
39.0
 40
40.0
 40
40.0
 40
40.0
 40
41.0
 40
41.0
 40
41.0
 40
42.0
 40
42.0
 40
42.0
 40
43.0
 40
43.0
 40
43.0
 40
44.0
 40
44.0
 40
44.0
 40
45.0
 40
45.0
 40
45.0
 40
46.0
 40
46.0
 40
46.0
 40
47.0
 40
47.0
 40
47.0
 40
48.0
 40
48.0
 40
48.0
 40
49.0
 40
49.0
 40
49.0
 40
50.0
 40
50.0
 40
50.0
 40
51.0
 40
51.0
 40
51.0
 40
52.0
 40
52.0
 40
52.0
 40
52.0
 10
30.45885188094942
 20
-10.35535000655136
 30
0.0
 10
30.36564441567164
 20
-10.48851515412081
 30
0.0
 10
30.26014853893553
 20
-10.63063212460692
 30
0.0
 10
30.14258126462997
 20
-10.78148390412081
 30
0.0
 10
30.02491904674803
 20
-10.93244419057914
 30
0.0
 10
29.89622981063692
 20
-11.06675544274928
 30
0.0
 10
29.7564050493522
 20
-11.18431593537081
 30
0.0
 10
29.61658028806747
 20
-11.30197815325275
 30
0.0
 10
29.46675932452581
 20
-11.38957716583956
 30
0.0
 10
29.30696928546331
 20
-11.44731642365206
 30
0.0
 10
29.14716568303275
 20
-11.50495395620414
 30
0.0
 10
28.98070246688692
 20
-11.5072393837215
 30
0.0
 10
28.80759320039386
 20
-11.45397603736733
 30
0.0
 10
28.69211468476886
 20
-11.42286845273192
 30
0.0
 10
28.60555326983831
 20
-11.36512919491942
 30
0.0
 10
28.54792251897025
 20
-11.28085998919025
 30
0.0
 10
28.49018326115775
 20
-11.19659078346108
 30
0.0
 10
28.45136490178275
 20
-11.10004672964164
 30
0.0
 10
28.43139962400497
 20
-10.99122104604789
 30
0.0
 10
28.41142078285914
 20
-10.88250386939858
 30
0.0
 10
28.40809775768553
 20
-10.767127079034
 30
0.0
 10
28.42140342174803
 20
-10.64498894969372
 30
0.0
 10
28.43472264917859
 20
-10.52295254561386
 30
0.0
 10
28.45470149032442
 20
-10.40424594839164
 30
0.0
 10
28.48133994518553
 20
-10.28876743276664
 30
0.0
 10
28.50796483667859
 20
-10.17339064240206
 30
0.0
 10
28.53678699379664
 20
-10.06904087026664
 30
0.0
 10
28.56788779674803
 20
-9.975826623304833
 30
0.0
 10
28.59889365612303
 20
-9.882612376343028
 30
0.0
 10
28.62553211098414
 20
-9.809370188843028
 30
0.0
 10
28.64778959796331
 20
-9.756100060804833
 30
0.0
 10
28.66995214136609
 20
-9.702836714450667
 30
0.0
 10
28.71323284883136
 20
-9.617421404120806
 30
0.0
 10
28.77763172035914
 20
-9.499759186238862
 30
0.0
 10
28.84192208494247
 20
-9.382198693617333
 30
0.0
 10
28.92514691133136
 20
-9.249026764363862
 30
0.0
 10
29.02731976289386
 20
-9.1002569618465
 30
0.0
 10
29.12937054414386
 20
-8.951588884589556
 30
0.0
 10
29.24807714136609
 20
-8.796261193617333
 30
0.0
 10
29.38353449813692
 20
-8.634172163669417
 30
0.0
 10
29.51888334796331
 20
-8.472191640665944
 30
0.0
 10
29.66984363442164
 20
-8.320193756551362
 30
0.0
 10
29.83630685056747
 20
-8.178076786065251
 30
0.0
 10
30.00275650334525
 20
-8.036068322523583
 30
0.0
 10
30.18024673772025
 20
-7.91403870012775
 30
0.0
 10
30.36896744084525
 20
-7.811872630249278
 30
0.0
 10
30.55759320039386
 20
-7.70981506731525
 30
0.0
 10
30.75618803546331
 20
-7.645416195787472
 30
0.0
 10
30.96488757973414
 20
-7.618777740926362
 30
0.0
 10
31.10242013181747
 20
-7.601091108981917
 30
0.0
 10
31.19897774900497
 20
-7.614410336412472
 30
0.0
 10
31.25453330456053
 20
-7.658728641534
 30
0.0
 10
31.30998035317164
 20
-7.703155453599972
 30
0.0
 10
31.33442154240775
 20
-7.768591922784
 30
0.0
 10
31.32776192869247
 20
-7.855153337714555
 30
0.0
 10
31.32111587834525
 20
-7.941707970961083
 30
0.0
 10
31.28552560056747
 20
-8.043874040839556
 30
0.0
 10
31.22123523598414
 20
-8.161434533461083
 30
0.0
 10
31.15683636445636
 20
-8.279096751343028
 30
0.0
 10
31.07475086098414
 20
-8.401133155422889
 30
0.0
 10
30.97487021862303
 20
-8.527638689277056
 30
0.0
 10
30.87500313962997
 20
-8.654151004815251
 30
0.0
 10
30.76181683320636
 20
-8.778472836412472
 30
0.0
 10
30.63529773598414
 20
-8.900509240492333
 30
0.0
 10
30.50879220212997
 20
-9.022647369832612
 30
0.0
 10
30.37667143390081
 20
-9.130218441881222
 30
0.0
 10
30.23912531844942
 20
-9.223439470527056
 30
0.0
 10
30.19022937660914
 20
-9.259016184936778
 30
0.0
 10
30.11698718910914
 20
-9.306664296915944
 30
0.0
 10
30.01941231931747
 20
-9.366594038669417
 30
0.0
 10
29.92171537921331
 20
-9.426516998738862
 30
0.0
 10
29.8085290727897
 20
-9.489769765665944
 30
0.0
 10
29.67982627331053
 20
-9.556352339450667
 30
0.0
 10
29.55104209362303
 20
-9.622934913235389
 30
0.0
 10
29.41121733233831
 20
-9.687333784763167
 30
0.0
 10
29.26035198945636
 20
-9.749447228773583
 30
0.0
 10
29.10940526636609
 20
-9.811655616360389
 30
0.0
 10
28.95407757539386
 20
-9.862633535197194
 30
0.0
 10
28.79427397296331
 20
-9.902584435804833
 30
0.0
 10
28.95407757539386
 20
-9.862633535197194
 30
0.0
 10
29.10940526636609
 20
-9.811655616360389
 30
0.0
 10
29.26035198945636
 20
-9.749447228773583
 30
0.0
 10
29.41121733233831
 20
-9.687333784763167
 30
0.0
 10
29.55104209362303
 20
-9.622934913235389
 30
0.0
 10
29.67982627331053
 20
-9.556352339450667
 30
0.0
 10
29.8085290727897
 20
-9.489769765665944
 30
0.0
 10
29.92171537921331
 20
-9.426516998738862
 30
0.0
 10
30.01941231931747
 20
-9.366594038669417
 30
0.0
 10
30.11698718910914
 20
-9.306664296915944
 30
0.0
 10
30.19022937660914
 20
-9.259016184936778
 30
0.0
 10
30.23912531844942
 20
-9.223439470527056
 30
0.0
 10
30.37667143390081
 20
-9.125851037367333
 30
0.0
 10
30.50879220212997
 20
-9.017025353773583
 30
0.0
 10
30.63529773598414
 20
-8.897179433634694
 30
0.0
 10
30.76181683320636
 20
-8.777326731811778
 30
0.0
 10
30.87500313962997
 20
-8.654151004815251
 30
0.0
 10
30.97487021862303
 20
-8.527638689277056
 30
0.0
 10
31.07475086098414
 20
-8.401133155422889
 30
0.0
 10
31.15683636445636
 20
-8.279096751343028
 30
0.0
 10
31.22123523598414
 20
-8.161434533461083
 30
0.0
 10
31.28552560056747
 20
-8.043874040839556
 30
0.0
 10
31.32111587834525
 20
-7.941707970961083
 30
0.0
 10
31.32776192869247
 20
-7.855153337714555
 30
0.0
 10
31.33442154240775
 20
-7.768591922784
 30
0.0
 10
31.30998035317164
 20
-7.703155453599972
 30
0.0
 10
31.25453330456053
 20
-7.658728641534
 30
0.0
 10
31.19897774900497
 20
-7.614410336412472
 30
0.0
 10
31.10242013181747
 20
-7.601091108981917
 30
0.0
 10
30.96488757973414
 20
-7.618777740926362
 30
0.0
 10
30.75618803546331
 20
-7.645416195787472
 30
0.0
 10
30.55759320039386
 20
-7.70981506731525
 30
0.0
 10
30.36896744084525
 20
-7.811872630249278
 30
0.0
 10
30.18024673772025
 20
-7.91403870012775
 30
0.0
 10
30.00275650334525
 20
-8.036068322523583
 30
0.0
 10
29.83630685056747
 20
-8.178076786065251
 30
0.0
 10
29.66984363442164
 20
-8.320193756551362
 30
0.0
 10
29.51888334796331
 20
-8.472191640665944
 30
0.0
 10
29.38353449813692
 20
-8.634172163669417
 30
0.0
 10
29.24807714136609
 20
-8.796261193617333
 30
0.0
 10
29.12937054414386
 20
-8.951588884589556
 30
0.0
 10
29.02731976289386
 20
-9.1002569618465
 30
0.0
 10
28.92514691133136
 20
-9.249026764363862
 30
0.0
 10
28.84192208494247
 20
-9.382198693617333
 30
0.0
 10
28.77763172035914
 20
-9.499759186238862
 30
0.0
 10
28.71323284883136
 20
-9.617421404120806
 30
0.0
 10
28.66995214136609
 20
-9.702836714450667
 30
0.0
 10
28.64778959796331
 20
-9.756100060804833
 30
0.0
 10
28.62553211098414
 20
-9.805002784329139
 30
0.0
 10
28.59889365612303
 20
-9.877098867228444
 30
0.0
 10
28.56788779674803
 20
-9.972496816447194
 30
0.0
 10
28.53678699379664
 20
-10.06800327261039
 30
0.0
 10
28.50796483667859
 20
-10.17339064240206
 30
0.0
 10
28.48133994518553
 20
-10.28876743276664
 30
0.0
 10
28.45470149032442
 20
-10.40424594839164
 30
0.0
 10
28.43472264917859
 20
-10.52295254561386
 30
0.0
 10
28.42140342174803
 20
-10.64498894969372
 30
0.0
 10
28.40809775768553
 20
-10.767127079034
 30
0.0
 10
28.41142078285914
 20
-10.88250386939858
 30
0.0
 10
28.43139962400497
 20
-10.99122104604789
 30
0.0
 10
28.45136490178275
 20
-11.10004672964164
 30
0.0
 10
28.49018326115775
 20
-11.19659078346108
 30
0.0
 10
28.54792251897025
 20
-11.28085998919025
 30
0.0
 10
28.60555326983831
 20
-11.36512919491942
 30
0.0
 10
28.69211468476886
 20
-11.42286845273192
 30
0.0
 10
28.80759320039386
 20
-11.45397603736733
 30
0.0
 10
28.98070246688692
 20
-11.5072393837215
 30
0.0
 10
29.14716568303275
 20
-11.50495395620414
 30
0.0
 10
29.30696928546331
 20
-11.44731642365206
 30
0.0
 10
29.46675932452581
 20
-11.38957716583956
 30
0.0
 10
29.61658028806747
 20
-11.30197815325275
 30
0.0
 10
29.7564050493522
 20
-11.18431593537081
 30
0.0
 10
29.89622981063692
 20
-11.06675544274928
 30
0.0
 10
30.02491904674803
 20
-10.93244419057914
 30
0.0
 10
30.14258126462997
 20
-10.78148390412081
 30
0.0
 10
30.26014853893553
 20
-10.63063212460692
 30
0.0
 10
30.36564441567164
 20
-10.48851515412081
 30
0.0
 10
30.45885188094942
 20
-10.35535000655136
 30
0.0
  0
SPLINE
  5
4A
330
42
100
AcDbEntity
  8
Layer 1
 62
   250
420
  2301728
370
    35
100
AcDbSpline
210
0.0
220
0.0
230
1.0
 70
    11
 71
     3
 72
    89
 73
    85
 74
     0
 42
0.0000000001
 43
0.0000000001
 12
1.0
 22
0.0
 32
0.0
 13
1.0
 23
0.0
 33
0.0
 40
0.0
 40
0.0
 40
0.0
 40
0.0
 40
1.0
 40
1.0
 40
1.0
 40
2.0
 40
2.0
 40
2.0
 40
3.0
 40
3.0
 40
3.0
 40
4.0
 40
4.0
 40
4.0
 40
5.0
 40
5.0
 40
5.0
 40
6.0
 40
6.0
 40
6.0
 40
7.0
 40
7.0
 40
7.0
 40
8.0
 40
8.0
 40
8.0
 40
9.0
 40
9.0
 40
9.0
 40
10.0
 40
10.0
 40
10.0
 40
11.0
 40
11.0
 40
11.0
 40
12.0
 40
12.0
 40
12.0
 40
13.0
 40
13.0
 40
13.0
 40
14.0
 40
14.0
 40
14.0
 40
15.0
 40
15.0
 40
15.0
 40
16.0
 40
16.0
 40
16.0
 40
17.0
 40
17.0
 40
17.0
 40
18.0
 40
18.0
 40
18.0
 40
19.0
 40
19.0
 40
19.0
 40
20.0
 40
20.0
 40
20.0
 40
21.0
 40
21.0
 40
21.0
 40
22.0
 40
22.0
 40
22.0
 40
23.0
 40
23.0
 40
23.0
 40
24.0
 40
24.0
 40
24.0
 40
25.0
 40
25.0
 40
25.0
 40
26.0
 40
26.0
 40
26.0
 40
27.0
 40
27.0
 40
27.0
 40
28.0
 40
28.0
 40
28.0
 40
28.0
 10
35.61230782712997
 20
-8.004960737888167
 30
0.0
 10
35.59898859969942
 20
-8.067175907159001
 30
0.0
 10
35.56455120820636
 20
-8.167049767836083
 30
0.0
 10
35.50910415959525
 20
-8.304589101603444
 30
0.0
 10
35.4535486040397
 20
-8.442230160631222
 30
0.0
 10
35.38144573945637
 20
-8.602026981377751
 30
0.0
 10
35.29270062226887
 20
-8.783986345527056
 30
0.0
 10
35.20386056150497
 20
-8.966054216620806
 30
0.0
 10
35.10179621688692
 20
-9.161326026516639
 30
0.0
 10
34.98642620820637
 20
-9.369917063843028
 30
0.0
 10
34.87094769258137
 20
-9.578616608113862
 30
0.0
 10
34.74672080456053
 20
-9.786068322523583
 30
0.0
 10
34.61355565699109
 20
-9.992475657593028
 30
0.0
 10
34.48039050942164
 20
-10.19888299266247
 30
0.0
 10
34.34274945039387
 20
-10.395300907159
 30
0.0
 10
34.2007409868522
 20
-10.58173618276664
 30
0.0
 10
34.05862401636609
 20
-10.76817145837428
 30
0.0
 10
33.91547622990775
 20
-10.9291143837215
 30
0.0
 10
33.77128406410914
 20
-11.06446323354789
 30
0.0
 10
33.62698339136609
 20
-11.19992059031872
 30
0.0
 10
33.4838220415397
 20
-11.30083204865206
 30
0.0
 10
33.34181357799803
 20
-11.36741462243678
 30
0.0
 10
33.19969660751192
 20
-11.43400397790553
 30
0.0
 10
33.06653145994247
 20
-11.45168382816594
 30
0.0
 10
32.9423181352897
 20
-11.42068475047497
 30
0.0
 10
32.77803862140081
 20
-11.38073384986733
 30
0.0
 10
32.68815418129664
 20
-11.27420037547497
 30
0.0
 10
32.67265125160914
 20
-11.10108432729789
 30
0.0
 10
32.65705337834525
 20
-10.92796827912081
 30
0.0
 10
32.69699749726887
 20
-10.71937724179442
 30
0.0
 10
32.79251073511609
 20
-10.47520270837428
 30
0.0
 10
32.88790190265081
 20
-10.23112990021456
 30
0.0
 10
33.02887955022025
 20
-9.966983307332612
 30
0.0
 10
33.21530804414387
 20
-9.682857873304833
 30
0.0
 10
33.40173653806747
 20
-9.3988409462215
 30
0.0
 10
33.61584786619247
 20
-9.124704932766639
 30
0.0
 10
33.85783191567164
 20
-8.860558339884694
 30
0.0
 10
34.09972102157442
 20
-8.596513472263167
 30
0.0
 10
34.35825238008137
 20
-8.356814850301362
 30
0.0
 10
34.63353449813692
 20
-8.141455692315251
 30
0.0
 10
34.90870810924803
 20
-7.926205041273583
 30
0.0
 10
35.1816980181022
 20
-7.765262115926362
 30
0.0
 10
35.45250422469942
 20
-7.658728641534
 30
0.0
 10
35.1816980181022
 20
-7.765262115926362
 30
0.0
 10
34.90870810924803
 20
-7.926205041273583
 30
0.0
 10
34.63353449813692
 20
-8.141455692315251
 30
0.0
 10
34.35825238008137
 20
-8.356814850301362
 30
0.0
 10
34.09972102157442
 20
-8.596513472263167
 30
0.0
 10
33.85783191567164
 20
-8.860558339884694
 30
0.0
 10
33.61584786619247
 20
-9.124704932766639
 30
0.0
 10
33.40173653806747
 20
-9.3988409462215
 30
0.0
 10
33.21530804414387
 20
-9.682857873304833
 30
0.0
 10
33.02887955022025
 20
-9.966983307332612
 30
0.0
 10
32.88790190265081
 20
-10.23112990021456
 30
0.0
 10
32.79251073511609
 20
-10.47520270837428
 30
0.0
 10
32.69699749726887
 20
-10.71937724179442
 30
0.0
 10
32.65705337834525
 20
-10.92796827912081
 30
0.0
 10
32.67265125160914
 20
-11.10108432729789
 30
0.0
 10
32.68815418129664
 20
-11.27420037547497
 30
0.0
 10
32.77803862140081
 20
-11.38073384986733
 30
0.0
 10
32.9423181352897
 20
-11.42068475047497
 30
0.0
 10
33.06653145994247
 20
-11.45168382816594
 30
0.0
 10
33.19969660751192
 20
-11.43400397790553
 30
0.0
 10
33.34181357799803
 20
-11.36741462243678
 30
0.0
 10
33.4838220415397
 20
-11.30083204865206
 30
0.0
 10
33.62698339136609
 20
-11.19992059031872
 30
0.0
 10
33.77128406410914
 20
-11.06446323354789
 30
0.0
 10
33.91547622990775
 20
-10.9291143837215
 30
0.0
 10
34.05862401636609
 20
-10.76817145837428
 30
0.0
 10
34.2007409868522
 20
-10.58173618276664
 30
0.0
 10
34.34274945039387
 20
-10.395300907159
 30
0.0
 10
34.48039050942164
 20
-10.19888299266247
 30
0.0
 10
34.61355565699109
 20
-9.992475657593028
 30
0.0
 10
34.74672080456053
 20
-9.786068322523583
 30
0.0
 10
34.87094769258137
 20
-9.578616608113862
 30
0.0
 10
34.98642620820637
 20
-9.369917063843028
 30
0.0
 10
35.10179621688692
 20
-9.161326026516639
 30
0.0
 10
35.20386056150497
 20
-8.966054216620806
 30
0.0
 10
35.29270062226887
 20
-8.783986345527056
 30
0.0
 10
35.38144573945637
 20
-8.602026981377751
 30
0.0
 10
35.4535486040397
 20
-8.442230160631222
 30
0.0
 10
35.50910415959525
 20
-8.304589101603444
 30
0.0
 10
35.56455120820636
 20
-8.167049767836083
 30
0.0
 10
35.59898859969942
 20
-8.067175907159001
 30
0.0
 10
35.61230782712997
 20
-8.004960737888167
 30
0.0
  0
SPLINE
  5
4B
330
42
100
AcDbEntity
  8
Layer 1
 62
   250
420
  2301728
370
    35
100
AcDbSpline
210
0.0
220
0.0
230
1.0
 70
    11
 71
     3
 72
    41
 73
    37
 74
     0
 42
0.0000000001
 43
0.0000000001
 12
1.0
 22
0.0
 32
0.0
 13
1.0
 23
0.0
 33
0.0
 40
0.0
 40
0.0
 40
0.0
 40
0.0
 40
1.0
 40
1.0
 40
1.0
 40
2.0
 40
2.0
 40
2.0
 40
3.0
 40
3.0
 40
3.0
 40
4.0
 40
4.0
 40
4.0
 40
5.0
 40
5.0
 40
5.0
 40
6.0
 40
6.0
 40
6.0
 40
7.0
 40
7.0
 40
7.0
 40
8.0
 40
8.0
 40
8.0
 40
9.0
 40
9.0
 40
9.0
 40
10.0
 40
10.0
 40
10.0
 40
11.0
 40
11.0
 40
11.0
 40
12.0
 40
12.0
 40
12.0
 40
12.0
 10
34.61355565699109
 20
-11.52721822486733
 30
0.0
 10
34.63571820039387
 20
-11.32309631731525
 30
0.0
 10
34.68118261011609
 20
-11.0755987587215
 30
0.0
 10
34.7500573931022
 20
-10.78481371097844
 30
0.0
 10
34.81882366914387
 20
-10.49413717017983
 30
0.0
 10
34.90204849553275
 20
-10.18338006297497
 30
0.0
 10
34.99974543563692
 20
-9.852650896308306
 30
0.0
 10
35.09732030542859
 20
-9.522023454902056
 30
0.0
 10
35.20615277070637
 20
-9.182444190579139
 30
0.0
 10
35.32599869084525
 20
-8.833926666707612
 30
0.0
 10
35.44584461098414
 20
-8.485504086412472
 30
0.0
 10
35.5690271196647
 20
-8.152591217488862
 30
0.0
 10
35.69553265351886
 20
-7.835174496568722
 30
0.0
 10
35.82203818737303
 20
-7.517866282593028
 30
0.0
 10
35.94855728459525
 20
-7.225941911933305
 30
0.0
 10
36.07506281844942
 20
-6.959604835110389
 30
0.0
 10
36.20156835230359
 20
-6.6932745399715
 30
0.0
 10
36.32245865178275
 20
-6.478023888929833
 30
0.0
 10
36.43793716740775
 20
-6.313751156724972
 30
0.0
 10
36.32693456324109
 20
-6.478023888929833
 30
0.0
 10
36.20707507973414
 20
-6.6932745399715
 30
0.0
 10
36.07838584362303
 20
-6.959604835110389
 30
0.0
 10
35.94958810056747
 20
-7.225941911933305
 30
0.0
 10
35.82203818737303
 20
-7.517866282593028
 30
0.0
 10
35.69553265351886
 20
-7.835174496568722
 30
0.0
 10
35.5690271196647
 20
-8.152591217488862
 30
0.0
 10
35.44584461098414
 20
-8.485504086412472
 30
0.0
 10
35.32599869084525
 20
-8.833926666707612
 30
0.0
 10
35.20615277070637
 20
-9.182444190579139
 30
0.0
 10
35.09732030542859
 20
-9.522023454902056
 30
0.0
 10
34.99974543563692
 20
-9.852650896308306
 30
0.0
 10
34.90204849553275
 20
-10.18338006297497
 30
0.0
 10
34.81882366914387
 20
-10.49413717017983
 30
0.0
 10
34.7500573931022
 20
-10.78481371097844
 30
0.0
 10
34.68118261011609
 20
-11.0755987587215
 30
0.0
 10
34.63571820039387
 20
-11.32309631731525
 30
0.0
 10
34.61355565699109
 20
-11.52721822486733
 30
0.0
  0
SPLINE
  5
4C
330
42
100
AcDbEntity
  8
Layer 1
 62
   250
420
  2301728
370
    35
100
AcDbSpline
210
0.0
220
0.0
230
1.0
 70
    11
 71
     3
 72
   137
 73
   133
 74
     0
 42
0.0000000001
 43
0.0000000001
 12
1.0
 22
0.0
 32
0.0
 13
1.0
 23
0.0
 33
0.0
 40
0.0
 40
0.0
 40
0.0
 40
0.0
 40
1.0
 40
1.0
 40
1.0
 40
2.0
 40
2.0
 40
2.0
 40
3.0
 40
3.0
 40
3.0
 40
4.0
 40
4.0
 40
4.0
 40
5.0
 40
5.0
 40
5.0
 40
6.0
 40
6.0
 40
6.0
 40
7.0
 40
7.0
 40
7.0
 40
8.0
 40
8.0
 40
8.0
 40
9.0
 40
9.0
 40
9.0
 40
10.0
 40
10.0
 40
10.0
 40
11.0
 40
11.0
 40
11.0
 40
12.0
 40
12.0
 40
12.0
 40
13.0
 40
13.0
 40
13.0
 40
14.0
 40
14.0
 40
14.0
 40
15.0
 40
15.0
 40
15.0
 40
16.0
 40
16.0
 40
16.0
 40
17.0
 40
17.0
 40
17.0
 40
18.0
 40
18.0
 40
18.0
 40
19.0
 40
19.0
 40
19.0
 40
20.0
 40
20.0
 40
20.0
 40
21.0
 40
21.0
 40
21.0
 40
22.0
 40
22.0
 40
22.0
 40
23.0
 40
23.0
 40
23.0
 40
24.0
 40
24.0
 40
24.0
 40
25.0
 40
25.0
 40
25.0
 40
26.0
 40
26.0
 40
26.0
 40
27.0
 40
27.0
 40
27.0
 40
28.0
 40
28.0
 40
28.0
 40
29.0
 40
29.0
 40
29.0
 40
30.0
 40
30.0
 40
30.0
 40
31.0
 40
31.0
 40
31.0
 40
32.0
 40
32.0
 40
32.0
 40
33.0
 40
33.0
 40
33.0
 40
34.0
 40
34.0
 40
34.0
 40
35.0
 40
35.0
 40
35.0
 40
36.0
 40
36.0
 40
36.0
 40
37.0
 40
37.0
 40
37.0
 40
38.0
 40
38.0
 40
38.0
 40
39.0
 40
39.0
 40
39.0
 40
40.0
 40
40.0
 40
40.0
 40
41.0
 40
41.0
 40
41.0
 40
42.0
 40
42.0
 40
42.0
 40
43.0
 40
43.0
 40
43.0
 40
44.0
 40
44.0
 40
44.0
 40
44.0
 10
37.54651192869247
 20
-10.68161004344372
 30
0.0
 10
37.63307334362303
 20
-10.47748813589164
 30
0.0
 10
37.71515884709525
 20
-10.29105964196803
 30
0.0
 10
37.79287694605359
 20
-10.12231099830483
 30
0.0
 10
37.87048653806747
 20
-9.953670861586083
 30
0.0
 10
37.94372872556747
 20
-9.796050961412472
 30
0.0
 10
38.01258994518553
 20
-9.649566586412472
 30
0.0
 10
38.08136978459525
 20
-9.5030889930965
 30
0.0
 10
38.15241470647025
 20
-9.353274811238862
 30
0.0
 10
38.22565689397025
 20
-9.200130822523583
 30
0.0
 10
38.29889908147025
 20
-9.046993615492333
 30
0.0
 10
38.37547785751192
 20
-8.882822608547889
 30
0.0
 10
38.4553796587272
 20
-8.707414351169417
 30
0.0
 10
38.53526789657442
 20
-8.532114600735389
 30
0.0
 10
38.62619671601886
 20
-8.333512983981917
 30
0.0
 10
38.72836956758136
 20
-8.111494212280528
 30
0.0
 10
38.46640667695636
 20
-8.577579010457612
 30
0.0
 10
38.2356530962272
 20
-8.970421621134694
 30
0.0
 10
38.03590537487303
 20
-9.290022044311778
 30
0.0
 10
37.83614409015081
 20
-9.609622467488862
 30
0.0
 10
37.65969823511609
 20
-9.87595276262775
 30
0.0
 10
37.50656780976886
 20
-10.08901971141247
 30
0.0
 10
37.35342382105359
 20
-10.30208666019719
 30
0.0
 10
37.21578276202581
 20
-10.47520270837428
 30
0.0
 10
37.09375313962997
 20
-10.60836785594372
 30
0.0
 10
36.9716150102897
 20
-10.74153300351317
 30
0.0
 10
36.85509211532442
 20
-10.85701830082219
 30
0.0
 10
36.74418445473414
 20
-10.95459995229789
 30
0.0
 10
36.55775596081053
 20
-11.11440355472844
 30
0.0
 10
36.3912927446647
 20
-11.22988207035344
 30
0.0
 10
36.2448083696647
 20
-11.30083204865206
 30
0.0
 10
36.0983239946647
 20
-11.37178880863469
 30
0.0
 10
35.97181846081053
 20
-11.41402513675969
 30
0.0
 10
35.8652917681022
 20
-11.42734436419025
 30
0.0
 10
35.75875151202581
 20
-11.44065680993678
 30
0.0
 10
35.67105077417859
 20
-11.43504157556178
 30
0.0
 10
35.60228449813692
 20
-11.41069532990206
 30
0.0
 10
35.53340971515081
 20
-11.38624735898192
 30
0.0
 10
35.47910198945637
 20
-11.35628587894719
 30
0.0
 10
35.43915787053275
 20
-11.32081088979789
 30
0.0
 10
35.39472427678275
 20
-11.27649258467636
 30
0.0
 10
35.37142241046331
 20
-11.19659078346108
 30
0.0
 10
35.36923870820637
 20
-11.08111226783608
 30
0.0
 10
35.36694649900497
 20
-10.9657354774715
 30
0.0
 10
35.3892175493522
 20
-10.82705003910344
 30
0.0
 10
35.43582128199109
 20
-10.66496100915553
 30
0.0
 10
35.48243857799803
 20
-10.50298048615206
 30
0.0
 10
35.55900379067164
 20
-10.32768073571803
 30
0.0
 10
35.66553048337997
 20
-10.138953250909
 30
0.0
 10
35.77207073945636
 20
-9.950341054728444
 30
0.0
 10
35.91189550074109
 20
-9.760575972263167
 30
0.0
 10
36.08500476723414
 20
-9.569671566881222
 30
0.0
 10
36.29360936792859
 20
-9.343285390665944
 30
0.0
 10
36.48222156410914
 20
-9.146867476169417
 30
0.0
 10
36.65096342608831
 20
-8.980411041707612
 30
0.0
 10
36.81961034449109
 20
-8.813947825561778
 30
0.0
 10
36.98939658581053
 20
-8.659766239190251
 30
0.0
 10
37.1603357134147
 20
-8.517656050388167
 30
0.0
 10
37.33115277070636
 20
-8.375647586846501
 30
0.0
 10
37.51093521428275
 20
-8.236962148478444
 30
0.0
 10
37.69965591740775
 20
-8.101511573391639
 30
0.0
 10
37.88826811358831
 20
-7.966155941881222
 30
0.0
 10
38.10685535317164
 20
-7.818532243964555
 30
0.0
 10
38.35549901636609
 20
-7.658728641534
 30
0.0
 10
38.10685535317164
 20
-7.818532243964555
 30
0.0
 10
37.88826811358831
 20
-7.966155941881222
 30
0.0
 10
37.69965591740775
 20
-8.101511573391639
 30
0.0
 10
37.51093521428275
 20
-8.236962148478444
 30
0.0
 10
37.33115277070636
 20
-8.375647586846501
 30
0.0
 10
37.1603357134147
 20
-8.517656050388167
 30
0.0
 10
36.98939658581053
 20
-8.659766239190251
 30
0.0
 10
36.81961034449109
 20
-8.813947825561778
 30
0.0
 10
36.65096342608831
 20
-8.980411041707612
 30
0.0
 10
36.48222156410914
 20
-9.146867476169417
 30
0.0
 10
36.29360936792859
 20
-9.343285390665944
 30
0.0
 10
36.08500476723414
 20
-9.569671566881222
 30
0.0
 10
35.91189550074109
 20
-9.760575972263167
 30
0.0
 10
35.77207073945636
 20
-9.950341054728444
 30
0.0
 10
35.66553048337997
 20
-10.138953250909
 30
0.0
 10
35.55900379067164
 20
-10.32768073571803
 30
0.0
 10
35.48243857799803
 20
-10.50298048615206
 30
0.0
 10
35.43582128199109
 20
-10.66496100915553
 30
0.0
 10
35.3892175493522
 20
-10.82705003910344
 30
0.0
 10
35.36694649900497
 20
-10.9657354774715
 30
0.0
 10
35.36923870820637
 20
-11.08111226783608
 30
0.0
 10
35.37142241046331
 20
-11.19659078346108
 30
0.0
 10
35.39472427678275
 20
-11.27649258467636
 30
0.0
 10
35.43915787053275
 20
-11.32081088979789
 30
0.0
 10
35.47910198945637
 20
-11.35628587894719
 30
0.0
 10
35.53340971515081
 20
-11.38624735898192
 30
0.0
 10
35.60228449813692
 20
-11.41069532990206
 30
0.0
 10
35.67105077417859
 20
-11.43504157556178
 30
0.0
 10
35.75875151202581
 20
-11.44065680993678
 30
0.0
 10
35.8652917681022
 20
-11.42734436419025
 30
0.0
 10
35.97181846081053
 20
-11.41402513675969
 30
0.0
 10
36.0983239946647
 20
-11.37178880863469
 30
0.0
 10
36.2448083696647
 20
-11.30083204865206
 30
0.0
 10
36.3912927446647
 20
-11.22988207035344
 30
0.0
 10
36.55775596081053
 20
-11.11440355472844
 30
0.0
 10
36.74418445473414
 20
-10.95459995229789
 30
0.0
 10
36.85509211532442
 20
-10.85701830082219
 30
0.0
 10
36.9716150102897
 20
-10.74153300351317
 30
0.0
 10
37.09375313962997
 20
-10.60836785594372
 30
0.0
 10
37.21578276202581
 20
-10.47520270837428
 30
0.0
 10
37.35342382105359
 20
-10.30208666019719
 30
0.0
 10
37.50656780976886
 20
-10.08901971141247
 30
0.0
 10
37.65969823511609
 20
-9.87595276262775
 30
0.0
 10
37.83614409015081
 20
-9.609622467488862
 30
0.0
 10
38.03590537487303
 20
-9.290022044311778
 30
0.0
 10
38.2356530962272
 20
-8.970421621134694
 30
0.0
 10
38.46640667695636
 20
-8.577579010457612
 30
0.0
 10
38.72836956758136
 20
-8.111494212280528
 30
0.0
 10
38.62619671601886
 20
-8.333512983981917
 30
0.0
 10
38.53526789657442
 20
-8.532114600735389
 30
0.0
 10
38.4553796587272
 20
-8.707414351169417
 30
0.0
 10
38.37547785751192
 20
-8.882822608547889
 30
0.0
 10
38.29889908147025
 20
-9.046993615492333
 30
0.0
 10
38.22565689397025
 20
-9.200130822523583
 30
0.0
 10
38.15241470647025
 20
-9.353274811238862
 30
0.0
 10
38.08136978459525
 20
-9.5030889930965
 30
0.0
 10
38.01258994518553
 20
-9.649566586412472
 30
0.0
 10
37.94372872556747
 20
-9.796050961412472
 30
0.0
 10
37.87048653806747
 20
-9.953670861586083
 30
0.0
 10
37.79287694605359
 20
-10.12231099830483
 30
0.0
 10
37.71515884709525
 20
-10.29105964196803
 30
0.0
 10
37.63307334362303
 20
-10.47748813589164
 30
0.0
 10
37.54651192869247
 20
-10.68161004344372
 30
0.0
 10
37.45995051376192
 20
-10.88583367625622
 30
0.0
 10
37.36111425074109
 20
-11.11887268450275
 30
0.0
 10
37.25022015351886
 20
-11.38073384986733
 30
0.0
 10
37.36111425074109
 20
-11.11887268450275
 30
0.0
 10
37.45995051376192
 20
-10.88583367625622
 30
0.0
 10
37.54651192869247
 20
-10.68161004344372
 30
0.0
  0
SPLINE
  5
4D
330
42
100
AcDbEntity
  8
Layer 1
 62
   250
420
  2301728
370
    35
100
AcDbSpline
210
0.0
220
0.0
230
1.0
 70
    11
 71
     3
 72
   137
 73
   133
 74
     0
 42
0.0000000001
 43
0.0000000001
 12
1.0
 22
0.0
 32
0.0
 13
1.0
 23
0.0
 33
0.0
 40
0.0
 40
0.0
 40
0.0
 40
0.0
 40
1.0
 40
1.0
 40
1.0
 40
2.0
 40
2.0
 40
2.0
 40
3.0
 40
3.0
 40
3.0
 40
4.0
 40
4.0
 40
4.0
 40
5.0
 40
5.0
 40
5.0
 40
6.0
 40
6.0
 40
6.0
 40
7.0
 40
7.0
 40
7.0
 40
8.0
 40
8.0
 40
8.0
 40
9.0
 40
9.0
 40
9.0
 40
10.0
 40
10.0
 40
10.0
 40
11.0
 40
11.0
 40
11.0
 40
12.0
 40
12.0
 40
12.0
 40
13.0
 40
13.0
 40
13.0
 40
14.0
 40
14.0
 40
14.0
 40
15.0
 40
15.0
 40
15.0
 40
16.0
 40
16.0
 40
16.0
 40
17.0
 40
17.0
 40
17.0
 40
18.0
 40
18.0
 40
18.0
 40
19.0
 40
19.0
 40
19.0
 40
20.0
 40
20.0
 40
20.0
 40
21.0
 40
21.0
 40
21.0
 40
22.0
 40
22.0
 40
22.0
 40
23.0
 40
23.0
 40
23.0
 40
24.0
 40
24.0
 40
24.0
 40
25.0
 40
25.0
 40
25.0
 40
26.0
 40
26.0
 40
26.0
 40
27.0
 40
27.0
 40
27.0
 40
28.0
 40
28.0
 40
28.0
 40
29.0
 40
29.0
 40
29.0
 40
30.0
 40
30.0
 40
30.0
 40
31.0
 40
31.0
 40
31.0
 40
32.0
 40
32.0
 40
32.0
 40
33.0
 40
33.0
 40
33.0
 40
34.0
 40
34.0
 40
34.0
 40
35.0
 40
35.0
 40
35.0
 40
36.0
 40
36.0
 40
36.0
 40
37.0
 40
37.0
 40
37.0
 40
38.0
 40
38.0
 40
38.0
 40
39.0
 40
39.0
 40
39.0
 40
40.0
 40
40.0
 40
40.0
 40
41.0
 40
41.0
 40
41.0
 40
42.0
 40
42.0
 40
42.0
 40
43.0
 40
43.0
 40
43.0
 40
44.0
 40
44.0
 40
44.0
 40
44.0
 10
39.35419693303275
 20
-13.53137539717636
 30
0.0
 10
39.39850845647025
 20
-13.4025776541208
 30
0.0
 10
39.47404285317164
 20
-13.199500125909
 30
0.0
 10
39.58056954587997
 20
-12.92213603085692
 30
0.0
 10
39.68710980195636
 20
-12.64467021054442
 30
0.0
 10
39.81247601289386
 20
-12.32725348962428
 30
0.0
 10
39.95676312226886
 20
-11.96999437504094
 30
0.0
 10
40.10096885143553
 20
-11.61263353519719
 30
0.0
 10
40.25972807452581
 20
-11.23091966800969
 30
0.0
 10
40.43283734101886
 20
-10.82476461158608
 30
0.0
 10
40.60596017087997
 20
-10.41860955516247
 30
0.0
 10
40.77793011445636
 20
-10.02025343537081
 30
0.0
 10
40.94885567869247
 20
-9.629594526950667
 30
0.0
 10
41.1196862993522
 20
-9.239044125474972
 30
0.0
 10
41.28614951549803
 20
-8.871687083374278
 30
0.0
 10
41.44823176376192
 20
-8.527638689277056
 30
0.0
 10
41.61021906844942
 20
-8.183698802124278
 30
0.0
 10
41.75556412053275
 20
-7.896243561238862
 30
0.0
 10
41.88436186358831
 20
-7.665388255249278
 30
0.0
 10
41.75118315265081
 20
-7.905086877211083
 30
0.0
 10
41.58473349987303
 20
-8.155921024346501
 30
0.0
 10
41.38498577851886
 20
-8.417782189711083
 30
0.0
 10
41.18522449379664
 20
-8.679745080336083
 30
0.0
 10
40.9732019243522
 20
-8.938276438843028
 30
0.0
 10
40.74910795733831
 20
-9.193471208808306
 30
0.0
 10
40.52490548337997
 20
-9.448781267402056
 30
0.0
 10
40.29967219344942
 20
-9.6918096962215
 30
0.0
 10
40.07328601723414
 20
-9.922563276950667
 30
0.0
 10
39.84691340438692
 20
-10.15341858294025
 30
0.0
 10
39.64050606931747
 20
-10.358679813409
 30
0.0
 10
39.45406401202581
 20
-10.53845547530136
 30
0.0
 10
39.2676355181022
 20
-10.71823113719372
 30
0.0
 10
39.11116850421331
 20
-10.86586161679442
 30
0.0
 10
38.98464940699109
 20
-10.98123162547497
 30
0.0
 10
38.85814387313692
 20
-11.096716922784
 30
0.0
 10
38.78157866046331
 20
-11.16548319882567
 30
0.0
 10
38.7549402056022
 20
-11.18764574222844
 30
0.0
 10
38.74162097817164
 20
-11.19659078346108
 30
0.0
 10
38.72165570039386
 20
-11.21323303606525
 30
0.0
 10
38.69501724553275
 20
-11.23757928172497
 30
0.0
 10
38.66837879067164
 20
-11.26202725264511
 30
0.0
 10
38.64060101289386
 20
-11.28647522356525
 30
0.0
 10
38.61179241914386
 20
-11.31082146922497
 30
0.0
 10
38.58286175508136
 20
-11.33526944014511
 30
0.0
 10
38.55623686358831
 20
-11.35410217669025
 30
0.0
 10
38.53189061792859
 20
-11.36741462243678
 30
0.0
 10
38.50743586532442
 20
-11.38073384986733
 30
0.0
 10
38.48860991046331
 20
-11.38073384986733
 30
0.0
 10
38.47529068303275
 20
-11.36741462243678
 30
0.0
 10
38.45303319605359
 20
-11.34525886071803
 30
0.0
 10
38.44865222817164
 20
-11.30749166236733
 30
0.0
 10
38.4619714556022
 20
-11.25422831601317
 30
0.0
 10
38.47529068303275
 20
-11.20095818797497
 30
0.0
 10
38.50411284015081
 20
-11.11668898224581
 30
0.0
 10
38.54853287053275
 20
-11.00121046662081
 30
0.0
 10
38.57953872990775
 20
-10.907996219659
 30
0.0
 10
38.6450769243522
 20
-10.75152242408608
 30
0.0
 10
38.74495756671331
 20
-10.53179586158608
 30
0.0
 10
38.84482464570636
 20
-10.31207608077011
 30
0.0
 10
38.9690515337272
 20
-10.05021491540553
 30
0.0
 10
39.11781455456053
 20
-9.746117421915944
 30
0.0
 10
39.26648263181747
 20
-9.442121653686778
 30
0.0
 10
39.43076214570636
 20
-9.108062680162472
 30
0.0
 10
39.6105310259147
 20
-8.744035444919417
 30
0.0
 10
39.79031346949109
 20
-8.380116716620806
 30
0.0
 10
39.97560264049803
 20
-8.011620351603444
 30
0.0
 10
40.16650704587997
 20
-7.638756582072195
 30
0.0
 10
39.97560264049803
 20
-8.011620351603444
 30
0.0
 10
39.79031346949109
 20
-8.380116716620806
 30
0.0
 10
39.6105310259147
 20
-8.744035444919417
 30
0.0
 10
39.43076214570636
 20
-9.108062680162472
 30
0.0
 10
39.26648263181747
 20
-9.442121653686778
 30
0.0
 10
39.11781455456053
 20
-9.746117421915944
 30
0.0
 10
38.9690515337272
 20
-10.05021491540553
 30
0.0
 10
38.84482464570636
 20
-10.31207608077011
 30
0.0
 10
38.74495756671331
 20
-10.53179586158608
 30
0.0
 10
38.6450769243522
 20
-10.75152242408608
 30
0.0
 10
38.57953872990775
 20
-10.907996219659
 30
0.0
 10
38.54853287053275
 20
-11.00121046662081
 30
0.0
 10
38.50411284015081
 20
-11.11668898224581
 30
0.0
 10
38.47529068303275
 20
-11.20095818797497
 30
0.0
 10
38.4619714556022
 20
-11.25422831601317
 30
0.0
 10
38.44865222817164
 20
-11.30749166236733
 30
0.0
 10
38.45303319605359
 20
-11.34525886071803
 30
0.0
 10
38.47529068303275
 20
-11.36741462243678
 30
0.0
 10
38.48860991046331
 20
-11.38073384986733
 30
0.0
 10
38.50743586532442
 20
-11.38073384986733
 30
0.0
 10
38.53189061792859
 20
-11.36741462243678
 30
0.0
 10
38.55623686358831
 20
-11.35410217669025
 30
0.0
 10
38.58286175508136
 20
-11.33526944014511
 30
0.0
 10
38.61179241914386
 20
-11.31082146922497
 30
0.0
 10
38.64060101289386
 20
-11.28647522356525
 30
0.0
 10
38.66837879067164
 20
-11.26202725264511
 30
0.0
 10
38.69501724553275
 20
-11.23757928172497
 30
0.0
 10
38.72165570039386
 20
-11.21323303606525
 30
0.0
 10
38.74162097817164
 20
-11.19659078346108
 30
0.0
 10
38.7549402056022
 20
-11.18764574222844
 30
0.0
 10
38.78157866046331
 20
-11.16548319882567
 30
0.0
 10
38.85814387313692
 20
-11.096716922784
 30
0.0
 10
38.98464940699109
 20
-10.98123162547497
 30
0.0
 10
39.11116850421331
 20
-10.86586161679442
 30
0.0
 10
39.2676355181022
 20
-10.71823113719372
 30
0.0
 10
39.45406401202581
 20
-10.53845547530136
 30
0.0
 10
39.64050606931747
 20
-10.358679813409
 30
0.0
 10
39.84691340438692
 20
-10.15341858294025
 30
0.0
 10
40.07328601723414
 20
-9.922563276950667
 30
0.0
 10
40.29967219344942
 20
-9.6918096962215
 30
0.0
 10
40.52490548337997
 20
-9.448781267402056
 30
0.0
 10
40.74910795733831
 20
-9.193471208808306
 30
0.0
 10
40.9732019243522
 20
-8.938276438843028
 30
0.0
 10
41.18522449379664
 20
-8.679745080336083
 30
0.0
 10
41.38498577851886
 20
-8.417782189711083
 30
0.0
 10
41.58473349987303
 20
-8.155921024346501
 30
0.0
 10
41.75118315265081
 20
-7.905086877211083
 30
0.0
 10
41.88436186358831
 20
-7.665388255249278
 30
0.0
 10
41.76002646862303
 20
-7.896243561238862
 30
0.0
 10
41.61573935924803
 20
-8.183698802124278
 30
0.0
 10
41.45156835230359
 20
-8.527638689277056
 30
0.0
 10
41.2872888384147
 20
-8.871687083374278
 30
0.0
 10
41.1196862993522
 20
-9.239044125474972
 30
0.0
 10
40.94885567869247
 20
-9.629594526950667
 30
0.0
 10
40.77793011445636
 20
-10.02025343537081
 30
0.0
 10
40.60596017087997
 20
-10.41860955516247
 30
0.0
 10
40.43283734101886
 20
-10.82476461158608
 30
0.0
 10
40.25972807452581
 20
-11.23091966800969
 30
0.0
 10
40.10096885143553
 20
-11.61263353519719
 30
0.0
 10
39.95676312226886
 20
-11.96999437504094
 30
0.0
 10
39.81247601289386
 20
-12.32725348962428
 30
0.0
 10
39.68710980195636
 20
-12.64467021054442
 30
0.0
 10
39.58056954587997
 20
-12.92213603085692
 30
0.0
 10
39.47404285317164
 20
-13.199500125909
 30
0.0
 10
39.39850845647025
 20
-13.4025776541208
 30
0.0
 10
39.35419693303275
 20
-13.53137539717636
 30
0.0
  0
SPLINE
  5
4E
330
42
100
AcDbEntity
  8
Layer 1
 62
   250
420
  2301728
370
    35
100
AcDbSpline
210
0.0
220
0.0
230
1.0
 70
    11
 71
     3
 72
   137
 73
   133
 74
     0
 42
0.0000000001
 43
0.0000000001
 12
1.0
 22
0.0
 32
0.0
 13
1.0
 23
0.0
 33
0.0
 40
0.0
 40
0.0
 40
0.0
 40
0.0
 40
1.0
 40
1.0
 40
1.0
 40
2.0
 40
2.0
 40
2.0
 40
3.0
 40
3.0
 40
3.0
 40
4.0
 40
4.0
 40
4.0
 40
5.0
 40
5.0
 40
5.0
 40
6.0
 40
6.0
 40
6.0
 40
7.0
 40
7.0
 40
7.0
 40
8.0
 40
8.0
 40
8.0
 40
9.0
 40
9.0
 40
9.0
 40
10.0
 40
10.0
 40
10.0
 40
11.0
 40
11.0
 40
11.0
 40
12.0
 40
12.0
 40
12.0
 40
13.0
 40
13.0
 40
13.0
 40
14.0
 40
14.0
 40
14.0
 40
15.0
 40
15.0
 40
15.0
 40
16.0
 40
16.0
 40
16.0
 40
17.0
 40
17.0
 40
17.0
 40
18.0
 40
18.0
 40
18.0
 40
19.0
 40
19.0
 40
19.0
 40
20.0
 40
20.0
 40
20.0
 40
21.0
 40
21.0
 40
21.0
 40
22.0
 40
22.0
 40
22.0
 40
23.0
 40
23.0
 40
23.0
 40
24.0
 40
24.0
 40
24.0
 40
25.0
 40
25.0
 40
25.0
 40
26.0
 40
26.0
 40
26.0
 40
27.0
 40
27.0
 40
27.0
 40
28.0
 40
28.0
 40
28.0
 40
29.0
 40
29.0
 40
29.0
 40
30.0
 40
30.0
 40
30.0
 40
31.0
 40
31.0
 40
31.0
 40
32.0
 40
32.0
 40
32.0
 40
33.0
 40
33.0
 40
33.0
 40
34.0
 40
34.0
 40
34.0
 40
35.0
 40
35.0
 40
35.0
 40
36.0
 40
36.0
 40
36.0
 40
37.0
 40
37.0
 40
37.0
 40
38.0
 40
38.0
 40
38.0
 40
39.0
 40
39.0
 40
39.0
 40
40.0
 40
40.0
 40
40.0
 40
41.0
 40
41.0
 40
41.0
 40
42.0
 40
42.0
 40
42.0
 40
43.0
 40
43.0
 40
43.0
 40
44.0
 40
44.0
 40
44.0
 40
44.0
 10
28.66791763615775
 20
-17.17160027781872
 30
0.0
 10
28.75447905108831
 20
-16.96747837026664
 30
0.0
 10
28.83656455456053
 20
-16.78104987634303
 30
0.0
 10
28.91428265351886
 20
-16.61230123267983
 30
0.0
 10
28.99189224553275
 20
-16.44366109596108
 30
0.0
 10
29.06513443303275
 20
-16.28604119578747
 30
0.0
 10
29.13399565265081
 20
-16.13955682078747
 30
0.0
 10
29.20277549206053
 20
-15.9930792274715
 30
0.0
 10
29.27382041393553
 20
-15.84326535601783
 30
0.0
 10
29.34706260143553
 20
-15.69012105689858
 30
0.0
 10
29.42030478893553
 20
-15.53698384986733
 30
0.0
 10
29.4968835649772
 20
-15.37281284292289
 30
0.0
 10
29.57678536619247
 20
-15.19740458554442
 30
0.0
 10
29.6566736040397
 20
-15.02210483511039
 30
0.0
 10
29.74760242348414
 20
-14.82350321835692
 30
0.0
 10
29.84977527504664
 20
-14.60148444665553
 30
0.0
 10
29.58781238442164
 20
-15.06756924483261
 30
0.0
 10
29.35705880369247
 20
-15.46041185550969
 30
0.0
 10
29.15731108233831
 20
-15.78001227868678
 30
0.0
 10
28.95754979761609
 20
-16.09961270186386
 30
0.0
 10
28.78110394258136
 20
-16.36594299700275
 30
0.0
 10
28.62797351723414
 20
-16.57900994578747
 30
0.0
 10
28.47482952851886
 20
-16.79207689457219
 30
0.0
 10
28.33718846949109
 20
-16.96519294274928
 30
0.0
 10
28.21515884709525
 20
-17.09835809031872
 30
0.0
 10
28.09302071775497
 20
-17.23152323788817
 30
0.0
 10
27.9764978227897
 20
-17.34700853519719
 30
0.0
 10
27.86559016219942
 20
-17.44459018667289
 30
0.0
 10
27.67916166827581
 20
-17.60439378910344
 30
0.0
 10
27.51269845212997
 20
-17.71987230472844
 30
0.0
 10
27.36621407712997
 20
-17.79082228302705
 30
0.0
 10
27.21972970212997
 20
-17.86177904300969
 30
0.0
 10
27.09322416827581
 20
-17.90401537113469
 30
0.0
 10
26.98669747556747
 20
-17.91733459856525
 30
0.0
 10
26.88015721949109
 20
-17.93064704431178
 30
0.0
 10
26.79245648164386
 20
-17.92503180993678
 30
0.0
 10
26.7236902056022
 20
-17.90068556427705
 30
0.0
 10
26.65481542261609
 20
-17.87623759335692
 30
0.0
 10
26.60050769692164
 20
-17.84627611332219
 30
0.0
 10
26.56056357799803
 20
-17.81080112417289
 30
0.0
 10
26.51612998424803
 20
-17.76648281905136
 30
0.0
 10
26.49282811792859
 20
-17.68658101783608
 30
0.0
 10
26.49064441567164
 20
-17.57110250221108
 30
0.0
 10
26.48835220647025
 20
-17.4557257118465
 30
0.0
 10
26.51062325681747
 20
-17.31704027347844
 30
0.0
 10
26.55722698945636
 20
-17.15495124353053
 30
0.0
 10
26.60384428546331
 20
-16.99297072052705
 30
0.0
 10
26.68040949813692
 20
-16.81767097009303
 30
0.0
 10
26.78693619084525
 20
-16.628943485284
 30
0.0
 10
26.89347644692164
 20
-16.44033128910344
 30
0.0
 10
27.03330120820636
 20
-16.25056620663817
 30
0.0
 10
27.20641047469942
 20
-16.05966180125622
 30
0.0
 10
27.41501507539386
 20
-15.83327562504094
 30
0.0
 10
27.60362727157442
 20
-15.63685771054442
 30
0.0
 10
27.77236913355359
 20
-15.47040127608261
 30
0.0
 10
27.94101605195636
 20
-15.30393805993678
 30
0.0
 10
28.11080229327581
 20
-15.14975647356525
 30
0.0
 10
28.28174142087997
 20
-15.00764628476317
 30
0.0
 10
28.45255847817164
 20
-14.8656378212215
 30
0.0
 10
28.63234092174803
 20
-14.72695238285344
 30
0.0
 10
28.82106162487303
 20
-14.59150180776664
 30
0.0
 10
29.00967382105359
 20
-14.45614617625622
 30
0.0
 10
29.22826106063692
 20
-14.30852247833955
 30
0.0
 10
29.47690472383136
 20
-14.148718875909
 30
0.0
 10
29.22826106063692
 20
-14.30852247833955
 30
0.0
 10
29.00967382105359
 20
-14.45614617625622
 30
0.0
 10
28.82106162487303
 20
-14.59150180776664
 30
0.0
 10
28.63234092174803
 20
-14.72695238285344
 30
0.0
 10
28.45255847817164
 20
-14.8656378212215
 30
0.0
 10
28.28174142087997
 20
-15.00764628476317
 30
0.0
 10
28.11080229327581
 20
-15.14975647356525
 30
0.0
 10
27.94101605195636
 20
-15.30393805993678
 30
0.0
 10
27.77236913355359
 20
-15.47040127608261
 30
0.0
 10
27.60362727157442
 20
-15.63685771054442
 30
0.0
 10
27.41501507539386
 20
-15.83327562504094
 30
0.0
 10
27.20641047469942
 20
-16.05966180125622
 30
0.0
 10
27.03330120820636
 20
-16.25056620663817
 30
0.0
 10
26.89347644692164
 20
-16.44033128910344
 30
0.0
 10
26.78693619084525
 20
-16.628943485284
 30
0.0
 10
26.68040949813692
 20
-16.81767097009303
 30
0.0
 10
26.60384428546331
 20
-16.99297072052705
 30
0.0
 10
26.55722698945636
 20
-17.15495124353053
 30
0.0
 10
26.51062325681747
 20
-17.31704027347844
 30
0.0
 10
26.48835220647025
 20
-17.4557257118465
 30
0.0
 10
26.49064441567164
 20
-17.57110250221108
 30
0.0
 10
26.49282811792859
 20
-17.68658101783608
 30
0.0
 10
26.51612998424803
 20
-17.76648281905136
 30
0.0
 10
26.56056357799803
 20
-17.81080112417289
 30
0.0
 10
26.60050769692164
 20
-17.84627611332219
 30
0.0
 10
26.65481542261609
 20
-17.87623759335692
 30
0.0
 10
26.7236902056022
 20
-17.90068556427705
 30
0.0
 10
26.79245648164386
 20
-17.92503180993678
 30
0.0
 10
26.88015721949109
 20
-17.93064704431178
 30
0.0
 10
26.98669747556747
 20
-17.91733459856525
 30
0.0
 10
27.09322416827581
 20
-17.90401537113469
 30
0.0
 10
27.21972970212997
 20
-17.86177904300969
 30
0.0
 10
27.36621407712997
 20
-17.79082228302705
 30
0.0
 10
27.51269845212997
 20
-17.71987230472844
 30
0.0
 10
27.67916166827581
 20
-17.60439378910344
 30
0.0
 10
27.86559016219942
 20
-17.44459018667289
 30
0.0
 10
27.9764978227897
 20
-17.34700853519719
 30
0.0
 10
28.09302071775497
 20
-17.23152323788817
 30
0.0
 10
28.21515884709525
 20
-17.09835809031872
 30
0.0
 10
28.33718846949109
 20
-16.96519294274928
 30
0.0
 10
28.47482952851886
 20
-16.79207689457219
 30
0.0
 10
28.62797351723414
 20
-16.57900994578747
 30
0.0
 10
28.78110394258136
 20
-16.36594299700275
 30
0.0
 10
28.95754979761609
 20
-16.09961270186386
 30
0.0
 10
29.15731108233831
 20
-15.78001227868678
 30
0.0
 10
29.35705880369247
 20
-15.46041185550969
 30
0.0
 10
29.58781238442164
 20
-15.06756924483261
 30
0.0
 10
29.84977527504664
 20
-14.60148444665553
 30
0.0
 10
29.74760242348414
 20
-14.82350321835692
 30
0.0
 10
29.6566736040397
 20
-15.02210483511039
 30
0.0
 10
29.57678536619247
 20
-15.19740458554442
 30
0.0
 10
29.4968835649772
 20
-15.37281284292289
 30
0.0
 10
29.42030478893553
 20
-15.53698384986733
 30
0.0
 10
29.34706260143553
 20
-15.69012105689858
 30
0.0
 10
29.27382041393553
 20
-15.84326535601783
 30
0.0
 10
29.20277549206053
 20
-15.9930792274715
 30
0.0
 10
29.13399565265081
 20
-16.13955682078747
 30
0.0
 10
29.06513443303275
 20
-16.28604119578747
 30
0.0
 10
28.99189224553275
 20
-16.44366109596108
 30
0.0
 10
28.91428265351886
 20
-16.61230123267983
 30
0.0
 10
28.83656455456053
 20
-16.78104987634303
 30
0.0
 10
28.75447905108831
 20
-16.96747837026664
 30
0.0
 10
28.66791763615775
 20
-17.17160027781872
 30
0.0
 10
28.5813562212272
 20
-17.37582391063122
 30
0.0
 10
28.48251995820636
 20
-17.60886291887775
 30
0.0
 10
28.37162586098414
 20
-17.87072408424233
 30
0.0
 10
28.48251995820636
 20
-17.60886291887775
 30
0.0
 10
28.5813562212272
 20
-17.37582391063122
 30
0.0
 10
28.66791763615775
 20
-17.17160027781872
 30
0.0
  0
SPLINE
  5
4F
330
42
100
AcDbEntity
  8
Layer 1
 62
   250
420
  2301728
370
    35
100
AcDbSpline
210
0.0
220
0.0
230
1.0
 70
    11
 71
     3
 72
    53
 73
    49
 74
     0
 42
0.0000000001
 43
0.0000000001
 12
1.0
 22
0.0
 32
0.0
 13
1.0
 23
0.0
 33
0.0
 40
0.0
 40
0.0
 40
0.0
 40
0.0
 40
1.0
 40
1.0
 40
1.0
 40
2.0
 40
2.0
 40
2.0
 40
3.0
 40
3.0
 40
3.0
 40
4.0
 40
4.0
 40
4.0
 40
5.0
 40
5.0
 40
5.0
 40
6.0
 40
6.0
 40
6.0
 40
7.0
 40
7.0
 40
7.0
 40
8.0
 40
8.0
 40
8.0
 40
9.0
 40
9.0
 40
9.0
 40
10.0
 40
10.0
 40
10.0
 40
11.0
 40
11.0
 40
11.0
 40
12.0
 40
12.0
 40
12.0
 40
13.0
 40
13.0
 40
13.0
 40
14.0
 40
14.0
 40
14.0
 40
15.0
 40
15.0
 40
15.0
 40
16.0
 40
16.0
 40
16.0
 40
16.0
 10
32.04695951983831
 20
-16.1595356619333
 30
0.0
 10
31.9048425493522
 20
-16.22611823571803
 30
0.0
 10
31.76501778806747
 20
-16.30383633467636
 30
0.0
 10
31.62748523598414
 20
-16.39257467017983
 30
0.0
 10
31.48984417695636
 20
-16.48142151262775
 30
0.0
 10
31.34117609969942
 20
-16.59128479387775
 30
0.0
 10
31.18137249726886
 20
-16.72216451392983
 30
0.0
 10
31.02156889483831
 20
-16.85314595924233
 30
0.0
 10
30.84513660317164
 20
-17.00961297313122
 30
0.0
 10
30.6520349321647
 20
-17.19157233728053
 30
0.0
 10
30.45894682452581
 20
-17.37364020837428
 30
0.0
 10
30.2358972368522
 20
-17.58889085941594
 30
0.0
 10
29.98287260577581
 20
-17.83743279734997
 30
0.0
 10
30.09378026636609
 20
-17.4601948416208
 30
0.0
 10
30.2280847368522
 20
-17.06506680342636
 30
0.0
 10
30.38570463702581
 20
-16.65225213328747
 30
0.0
 10
30.54321603025497
 20
-16.23943746314858
 30
0.0
 10
30.71529448077581
 20
-15.82557841366942
 30
0.0
 10
30.90172297469942
 20
-15.41047153432914
 30
0.0
 10
31.08816503199109
 20
-14.9954731619333
 30
0.0
 10
31.28343684188692
 20
-14.58931132382567
 30
0.0
 10
31.48766047469942
 20
-14.19199958337428
 30
0.0
 10
31.69177560056747
 20
-13.7947895681833
 30
0.0
 10
31.89599923337997
 20
-13.42524882382567
 30
0.0
 10
32.10022286619247
 20
-13.08339091366942
 30
0.0
 10
31.89599923337997
 20
-13.42524882382567
 30
0.0
 10
31.69177560056747
 20
-13.7947895681833
 30
0.0
 10
31.48766047469942
 20
-14.19199958337428
 30
0.0
 10
31.28343684188692
 20
-14.58931132382567
 30
0.0
 10
31.08816503199109
 20
-14.9954731619333
 30
0.0
 10
30.90172297469942
 20
-15.41047153432914
 30
0.0
 10
30.71529448077581
 20
-15.82557841366942
 30
0.0
 10
30.54321603025497
 20
-16.23943746314858
 30
0.0
 10
30.38570463702581
 20
-16.65225213328747
 30
0.0
 10
30.2280847368522
 20
-17.06506680342636
 30
0.0
 10
30.09378026636609
 20
-17.4601948416208
 30
0.0
 10
29.98287260577581
 20
-17.83743279734997
 30
0.0
 10
30.2358972368522
 20
-17.58889085941594
 30
0.0
 10
30.45894682452581
 20
-17.37364020837428
 30
0.0
 10
30.6520349321647
 20
-17.19157233728053
 30
0.0
 10
30.84513660317164
 20
-17.00961297313122
 30
0.0
 10
31.02156889483831
 20
-16.85314595924233
 30
0.0
 10
31.18137249726886
 20
-16.72216451392983
 30
0.0
 10
31.34117609969942
 20
-16.59128479387775
 30
0.0
 10
31.48984417695636
 20
-16.48142151262775
 30
0.0
 10
31.62748523598414
 20
-16.39257467017983
 30
0.0
 10
31.76501778806747
 20
-16.30383633467636
 30
0.0
 10
31.9048425493522
 20
-16.22611823571803
 30
0.0
 10
32.04695951983831
 20
-16.1595356619333
 30
0.0
  0
SPLINE
  5
50
330
42
100
AcDbEntity
  8
Layer 1
 62
   250
420
  2301728
370
    35
100
AcDbSpline
210
0.0
220
0.0
230
1.0
 70
    11
 71
     3
 72
    29
 73
    25
 74
     0
 42
0.0000000001
 43
0.0000000001
 12
1.0
 22
0.0
 32
0.0
 13
1.0
 23
0.0
 33
0.0
 40
0.0
 40
0.0
 40
0.0
 40
0.0
 40
1.0
 40
1.0
 40
1.0
 40
2.0
 40
2.0
 40
2.0
 40
3.0
 40
3.0
 40
3.0
 40
4.0
 40
4.0
 40
4.0
 40
5.0
 40
5.0
 40
5.0
 40
6.0
 40
6.0
 40
6.0
 40
7.0
 40
7.0
 40
7.0
 40
8.0
 40
8.0
 40
8.0
 40
8.0
 10
30.42898534449109
 20
-14.68804586158608
 30
0.0
 10
30.65537152070636
 20
-14.64809496097844
 30
0.0
 10
30.88508072209525
 20
-14.60710646271455
 30
0.0
 10
31.11812651202581
 20
-14.56486335290553
 30
0.0
 10
31.35115873858831
 20
-14.52272875004094
 30
0.0
 10
31.57858929414386
 20
-14.4827778494333
 30
0.0
 10
31.8005945024772
 20
-14.44501743276664
 30
0.0
 10
32.02250476723414
 20
-14.40735195967636
 30
0.0
 10
32.23557171601887
 20
-14.37292134986733
 30
0.0
 10
32.43979534883137
 20
-14.34181376523192
 30
0.0
 10
32.64392403806747
 20
-14.31080790585692
 30
0.0
 10
32.83482844344942
 20
-14.28417623267983
 30
0.0
 10
33.01241362140081
 20
-14.26191196401664
 30
0.0
 10
32.83482844344942
 20
-14.28417623267983
 30
0.0
 10
32.64392403806747
 20
-14.31080790585692
 30
0.0
 10
32.43979534883137
 20
-14.34181376523192
 30
0.0
 10
32.23557171601887
 20
-14.37292134986733
 30
0.0
 10
32.02250476723414
 20
-14.40735195967636
 30
0.0
 10
31.8005945024772
 20
-14.44501743276664
 30
0.0
 10
31.57858929414386
 20
-14.4827778494333
 30
0.0
 10
31.35115873858831
 20
-14.52272875004094
 30
0.0
 10
31.11812651202581
 20
-14.56486335290553
 30
0.0
 10
30.88508072209525
 20
-14.60710646271455
 30
0.0
 10
30.65537152070636
 20
-14.64809496097844
 30
0.0
 10
30.42898534449109
 20
-14.68804586158608
 30
0.0
  0
SPLINE
  5
51
330
42
100
AcDbEntity
  8
Layer 1
 62
   250
420
  2301728
370
    35
100
AcDbSpline
210
0.0
220
0.0
230
1.0
 70
    11
 71
     3
 72
   137
 73
   133
 74
     0
 42
0.0000000001
 43
0.0000000001
 12
1.0
 22
0.0
 32
0.0
 13
1.0
 23
0.0
 33
0.0
 40
0.0
 40
0.0
 40
0.0
 40
0.0
 40
1.0
 40
1.0
 40
1.0
 40
2.0
 40
2.0
 40
2.0
 40
3.0
 40
3.0
 40
3.0
 40
4.0
 40
4.0
 40
4.0
 40
5.0
 40
5.0
 40
5.0
 40
6.0
 40
6.0
 40
6.0
 40
7.0
 40
7.0
 40
7.0
 40
8.0
 40
8.0
 40
8.0
 40
9.0
 40
9.0
 40
9.0
 40
10.0
 40
10.0
 40
10.0
 40
11.0
 40
11.0
 40
11.0
 40
12.0
 40
12.0
 40
12.0
 40
13.0
 40
13.0
 40
13.0
 40
14.0
 40
14.0
 40
14.0
 40
15.0
 40
15.0
 40
15.0
 40
16.0
 40
16.0
 40
16.0
 40
17.0
 40
17.0
 40
17.0
 40
18.0
 40
18.0
 40
18.0
 40
19.0
 40
19.0
 40
19.0
 40
20.0
 40
20.0
 40
20.0
 40
21.0
 40
21.0
 40
21.0
 40
22.0
 40
22.0
 40
22.0
 40
23.0
 40
23.0
 40
23.0
 40
24.0
 40
24.0
 40
24.0
 40
25.0
 40
25.0
 40
25.0
 40
26.0
 40
26.0
 40
26.0
 40
27.0
 40
27.0
 40
27.0
 40
28.0
 40
28.0
 40
28.0
 40
29.0
 40
29.0
 40
29.0
 40
30.0
 40
30.0
 40
30.0
 40
31.0
 40
31.0
 40
31.0
 40
32.0
 40
32.0
 40
32.0
 40
33.0
 40
33.0
 40
33.0
 40
34.0
 40
34.0
 40
34.0
 40
35.0
 40
35.0
 40
35.0
 40
36.0
 40
36.0
 40
36.0
 40
37.0
 40
37.0
 40
37.0
 40
38.0
 40
38.0
 40
38.0
 40
39.0
 40
39.0
 40
39.0
 40
40.0
 40
40.0
 40
40.0
 40
41.0
 40
41.0
 40
41.0
 40
42.0
 40
42.0
 40
42.0
 40
43.0
 40
43.0
 40
43.0
 40
44.0
 40
44.0
 40
44.0
 40
44.0
 10
36.13179838702581
 20
-17.17160027781872
 30
0.0
 10
36.21835980195636
 20
-16.96747837026664
 30
0.0
 10
36.30044530542859
 20
-16.78104987634303
 30
0.0
 10
36.37816340438692
 20
-16.61230123267983
 30
0.0
 10
36.45577299640081
 20
-16.44366109596108
 30
0.0
 10
36.52901518390081
 20
-16.28604119578747
 30
0.0
 10
36.59787640351886
 20
-16.13955682078747
 30
0.0
 10
36.66665624292859
 20
-15.9930792274715
 30
0.0
 10
36.73770116480359
 20
-15.84326535601783
 30
0.0
 10
36.81094335230359
 20
-15.69012105689858
 30
0.0
 10
36.88418553980359
 20
-15.53698384986733
 30
0.0
 10
36.96076431584525
 20
-15.37281284292289
 30
0.0
 10
37.04066611706053
 20
-15.19740458554442
 30
0.0
 10
37.12055435490775
 20
-15.02210483511039
 30
0.0
 10
37.2114831743522
 20
-14.82350321835692
 30
0.0
 10
37.3136560259147
 20
-14.60148444665553
 30
0.0
 10
37.0516931352897
 20
-15.06756924483261
 30
0.0
 10
36.82093955456053
 20
-15.46041185550969
 30
0.0
 10
36.62119183320636
 20
-15.78001227868678
 30
0.0
 10
36.42143054848414
 20
-16.09961270186386
 30
0.0
 10
36.24498469344942
 20
-16.36594299700275
 30
0.0
 10
36.0918542681022
 20
-16.57900994578747
 30
0.0
 10
35.93871027938692
 20
-16.79207689457219
 30
0.0
 10
35.80106922035914
 20
-16.96519294274928
 30
0.0
 10
35.67903959796331
 20
-17.09835809031872
 30
0.0
 10
35.55690146862303
 20
-17.23152323788817
 30
0.0
 10
35.44037857365775
 20
-17.34700853519719
 30
0.0
 10
35.32947091306747
 20
-17.44459018667289
 30
0.0
 10
35.14304241914387
 20
-17.60439378910344
 30
0.0
 10
34.97657920299803
 20
-17.71987230472844
 30
0.0
 10
34.83009482799803
 20
-17.79082228302705
 30
0.0
 10
34.68361045299803
 20
-17.86177904300969
 30
0.0
 10
34.55710491914387
 20
-17.90401537113469
 30
0.0
 10
34.45057822643553
 20
-17.91733459856525
 30
0.0
 10
34.34403797035914
 20
-17.93064704431178
 30
0.0
 10
34.25633723251192
 20
-17.92503180993678
 30
0.0
 10
34.18757095647025
 20
-17.90068556427705
 30
0.0
 10
34.11869617348414
 20
-17.87623759335692
 30
0.0
 10
34.0643884477897
 20
-17.84627611332219
 30
0.0
 10
34.02444432886609
 20
-17.81080112417289
 30
0.0
 10
33.98001073511609
 20
-17.76648281905136
 30
0.0
 10
33.95670886879664
 20
-17.68658101783608
 30
0.0
 10
33.9545251665397
 20
-17.57110250221108
 30
0.0
 10
33.95223295733831
 20
-17.4557257118465
 30
0.0
 10
33.97450400768553
 20
-17.31704027347844
 30
0.0
 10
34.02110774032442
 20
-17.15495124353053
 30
0.0
 10
34.06772503633137
 20
-16.99297072052705
 30
0.0
 10
34.14429024900497
 20
-16.81767097009303
 30
0.0
 10
34.25081694171331
 20
-16.628943485284
 30
0.0
 10
34.3573571977897
 20
-16.44033128910344
 30
0.0
 10
34.49718195907442
 20
-16.25056620663817
 30
0.0
 10
34.67029122556747
 20
-16.05966180125622
 30
0.0
 10
34.87889582626192
 20
-15.83327562504094
 30
0.0
 10
35.06750802244247
 20
-15.63685771054442
 30
0.0
 10
35.23624988442164
 20
-15.47040127608261
 30
0.0
 10
35.40489680282442
 20
-15.30393805993678
 30
0.0
 10
35.57468304414386
 20
-15.14975647356525
 30
0.0
 10
35.74562217174803
 20
-15.00764628476317
 30
0.0
 10
35.9164392290397
 20
-14.8656378212215
 30
0.0
 10
36.09622167261609
 20
-14.72695238285344
 30
0.0
 10
36.28494237574109
 20
-14.59150180776664
 30
0.0
 10
36.47355457192164
 20
-14.45614617625622
 30
0.0
 10
36.69214181150497
 20
-14.30852247833955
 30
0.0
 10
36.94078547469942
 20
-14.148718875909
 30
0.0
 10
36.69214181150497
 20
-14.30852247833955
 30
0.0
 10
36.47355457192164
 20
-14.45614617625622
 30
0.0
 10
36.28494237574109
 20
-14.59150180776664
 30
0.0
 10
36.09622167261609
 20
-14.72695238285344
 30
0.0
 10
35.9164392290397
 20
-14.8656378212215
 30
0.0
 10
35.74562217174803
 20
-15.00764628476317
 30
0.0
 10
35.57468304414386
 20
-15.14975647356525
 30
0.0
 10
35.40489680282442
 20
-15.30393805993678
 30
0.0
 10
35.23624988442164
 20
-15.47040127608261
 30
0.0
 10
35.06750802244247
 20
-15.63685771054442
 30
0.0
 10
34.87889582626192
 20
-15.83327562504094
 30
0.0
 10
34.67029122556747
 20
-16.05966180125622
 30
0.0
 10
34.49718195907442
 20
-16.25056620663817
 30
0.0
 10
34.3573571977897
 20
-16.44033128910344
 30
0.0
 10
34.25081694171331
 20
-16.628943485284
 30
0.0
 10
34.14429024900497
 20
-16.81767097009303
 30
0.0
 10
34.06772503633137
 20
-16.99297072052705
 30
0.0
 10
34.02110774032442
 20
-17.15495124353053
 30
0.0
 10
33.97450400768553
 20
-17.31704027347844
 30
0.0
 10
33.95223295733831
 20
-17.4557257118465
 30
0.0
 10
33.9545251665397
 20
-17.57110250221108
 30
0.0
 10
33.95670886879664
 20
-17.68658101783608
 30
0.0
 10
33.98001073511609
 20
-17.76648281905136
 30
0.0
 10
34.02444432886609
 20
-17.81080112417289
 30
0.0
 10
34.0643884477897
 20
-17.84627611332219
 30
0.0
 10
34.11869617348414
 20
-17.87623759335692
 30
0.0
 10
34.18757095647025
 20
-17.90068556427705
 30
0.0
 10
34.25633723251192
 20
-17.92503180993678
 30
0.0
 10
34.34403797035914
 20
-17.93064704431178
 30
0.0
 10
34.45057822643553
 20
-17.91733459856525
 30
0.0
 10
34.55710491914387
 20
-17.90401537113469
 30
0.0
 10
34.68361045299803
 20
-17.86177904300969
 30
0.0
 10
34.83009482799803
 20
-17.79082228302705
 30
0.0
 10
34.97657920299803
 20
-17.71987230472844
 30
0.0
 10
35.14304241914387
 20
-17.60439378910344
 30
0.0
 10
35.32947091306747
 20
-17.44459018667289
 30
0.0
 10
35.44037857365775
 20
-17.34700853519719
 30
0.0
 10
35.55690146862303
 20
-17.23152323788817
 30
0.0
 10
35.67903959796331
 20
-17.09835809031872
 30
0.0
 10
35.80106922035914
 20
-16.96519294274928
 30
0.0
 10
35.93871027938692
 20
-16.79207689457219
 30
0.0
 10
36.0918542681022
 20
-16.57900994578747
 30
0.0
 10
36.24498469344942
 20
-16.36594299700275
 30
0.0
 10
36.42143054848414
 20
-16.09961270186386
 30
0.0
 10
36.62119183320636
 20
-15.78001227868678
 30
0.0
 10
36.82093955456053
 20
-15.46041185550969
 30
0.0
 10
37.0516931352897
 20
-15.06756924483261
 30
0.0
 10
37.3136560259147
 20
-14.60148444665553
 30
0.0
 10
37.2114831743522
 20
-14.82350321835692
 30
0.0
 10
37.12055435490775
 20
-15.02210483511039
 30
0.0
 10
37.04066611706053
 20
-15.19740458554442
 30
0.0
 10
36.96076431584525
 20
-15.37281284292289
 30
0.0
 10
36.88418553980359
 20
-15.53698384986733
 30
0.0
 10
36.81094335230359
 20
-15.69012105689858
 30
0.0
 10
36.73770116480359
 20
-15.84326535601783
 30
0.0
 10
36.66665624292859
 20
-15.9930792274715
 30
0.0
 10
36.59787640351886
 20
-16.13955682078747
 30
0.0
 10
36.52901518390081
 20
-16.28604119578747
 30
0.0
 10
36.45577299640081
 20
-16.44366109596108
 30
0.0
 10
36.37816340438692
 20
-16.61230123267983
 30
0.0
 10
36.30044530542859
 20
-16.78104987634303
 30
0.0
 10
36.21835980195636
 20
-16.96747837026664
 30
0.0
 10
36.13179838702581
 20
-17.17160027781872
 30
0.0
 10
36.04523697209525
 20
-17.37582391063122
 30
0.0
 10
35.94640070907442
 20
-17.60886291887775
 30
0.0
 10
35.8355066118522
 20
-17.87072408424233
 30
0.0
 10
35.94640070907442
 20
-17.60886291887775
 30
0.0
 10
36.04523697209525
 20
-17.37582391063122
 30
0.0
 10
36.13179838702581
 20
-17.17160027781872
 30
0.0
  0
SPLINE
  5
52
330
42
100
AcDbEntity
  8
Layer 1
 62
   250
420
  2301728
370
    35
100
AcDbSpline
210
0.0
220
0.0
230
1.0
 70
    11
 71
     3
 72
    53
 73
    49
 74
     0
 42
0.0000000001
 43
0.0000000001
 12
1.0
 22
0.0
 32
0.0
 13
1.0
 23
0.0
 33
0.0
 40
0.0
 40
0.0
 40
0.0
 40
0.0
 40
1.0
 40
1.0
 40
1.0
 40
2.0
 40
2.0
 40
2.0
 40
3.0
 40
3.0
 40
3.0
 40
4.0
 40
4.0
 40
4.0
 40
5.0
 40
5.0
 40
5.0
 40
6.0
 40
6.0
 40
6.0
 40
7.0
 40
7.0
 40
7.0
 40
8.0
 40
8.0
 40
8.0
 40
9.0
 40
9.0
 40
9.0
 40
10.0
 40
10.0
 40
10.0
 40
11.0
 40
11.0
 40
11.0
 40
12.0
 40
12.0
 40
12.0
 40
13.0
 40
13.0
 40
13.0
 40
14.0
 40
14.0
 40
14.0
 40
15.0
 40
15.0
 40
15.0
 40
16.0
 40
16.0
 40
16.0
 40
16.0
 10
41.37516590004664
 20
-16.1595356619333
 30
0.0
 10
41.23306249292859
 20
-16.22611823571803
 30
0.0
 10
41.09323773164386
 20
-16.30383633467636
 30
0.0
 10
40.95569161619247
 20
-16.39257467017983
 30
0.0
 10
40.8180505571647
 20
-16.48142151262775
 30
0.0
 10
40.66938247990775
 20
-16.59128479387775
 30
0.0
 10
40.50959244084525
 20
-16.72216451392983
 30
0.0
 10
40.3497888384147
 20
-16.85314595924233
 30
0.0
 10
40.17334298337997
 20
-17.00961297313122
 30
0.0
 10
39.98025487574109
 20
-17.19157233728053
 30
0.0
 10
39.7871667681022
 20
-17.37364020837428
 30
0.0
 10
39.56410361706053
 20
-17.58889085941594
 30
0.0
 10
39.3110925493522
 20
-17.83743279734997
 30
0.0
 10
39.42198664657442
 20
-17.4601948416208
 30
0.0
 10
39.55630468042859
 20
-17.06506680342636
 30
0.0
 10
39.7139245806022
 20
-16.65225213328747
 30
0.0
 10
39.87143597383136
 20
-16.23943746314858
 30
0.0
 10
40.04350086098414
 20
-15.82557841366942
 30
0.0
 10
40.22994291827581
 20
-15.41047153432914
 30
0.0
 10
40.41637141219942
 20
-14.9954731619333
 30
0.0
 10
40.61164322209525
 20
-14.58931132382567
 30
0.0
 10
40.81586685490775
 20
-14.19199958337428
 30
0.0
 10
41.01999554414386
 20
-13.7947895681833
 30
0.0
 10
41.22421917695636
 20
-13.42524882382567
 30
0.0
 10
41.42844280976886
 20
-13.08339091366942
 30
0.0
 10
41.22421917695636
 20
-13.42524882382567
 30
0.0
 10
41.01999554414386
 20
-13.7947895681833
 30
0.0
 10
40.81586685490775
 20
-14.19199958337428
 30
0.0
 10
40.61164322209525
 20
-14.58931132382567
 30
0.0
 10
40.41637141219942
 20
-14.9954731619333
 30
0.0
 10
40.22994291827581
 20
-15.41047153432914
 30
0.0
 10
40.04350086098414
 20
-15.82557841366942
 30
0.0
 10
39.87143597383136
 20
-16.23943746314858
 30
0.0
 10
39.7139245806022
 20
-16.65225213328747
 30
0.0
 10
39.55630468042859
 20
-17.06506680342636
 30
0.0
 10
39.42198664657442
 20
-17.4601948416208
 30
0.0
 10
39.3110925493522
 20
-17.83743279734997
 30
0.0
 10
39.56410361706053
 20
-17.58889085941594
 30
0.0
 10
39.7871667681022
 20
-17.37364020837428
 30
0.0
 10
39.98025487574109
 20
-17.19157233728053
 30
0.0
 10
40.17334298337997
 20
-17.00961297313122
 30
0.0
 10
40.3497888384147
 20
-16.85314595924233
 30
0.0
 10
40.50959244084525
 20
-16.72216451392983
 30
0.0
 10
40.66938247990775
 20
-16.59128479387775
 30
0.0
 10
40.8180505571647
 20
-16.48142151262775
 30
0.0
 10
40.95569161619247
 20
-16.39257467017983
 30
0.0
 10
41.09323773164386
 20
-16.30383633467636
 30
0.0
 10
41.23306249292859
 20
-16.22611823571803
 30
0.0
 10
41.37516590004664
 20
-16.1595356619333
 30
0.0
  0
SPLINE
  5
53
330
42
100
AcDbEntity
  8
Layer 1
 62
   250
420
  2301728
370
    35
100
AcDbSpline
210
0.0
220
0.0
230
1.0
 70
    11
 71
     3
 72
    29
 73
    25
 74
     0
 42
0.0000000001
 43
0.0000000001
 12
1.0
 22
0.0
 32
0.0
 13
1.0
 23
0.0
 33
0.0
 40
0.0
 40
0.0
 40
0.0
 40
0.0
 40
1.0
 40
1.0
 40
1.0
 40
2.0
 40
2.0
 40
2.0
 40
3.0
 40
3.0
 40
3.0
 40
4.0
 40
4.0
 40
4.0
 40
5.0
 40
5.0
 40
5.0
 40
6.0
 40
6.0
 40
6.0
 40
7.0
 40
7.0
 40
7.0
 40
8.0
 40
8.0
 40
8.0
 40
8.0
 10
39.75719172469942
 20
-14.68804586158608
 30
0.0
 10
39.9835779009147
 20
-14.64809496097844
 30
0.0
 10
40.21328710230359
 20
-14.60710646271455
 30
0.0
 10
40.44633289223414
 20
-14.56486335290553
 30
0.0
 10
40.6793786821647
 20
-14.52272875004094
 30
0.0
 10
40.9067956743522
 20
-14.4827778494333
 30
0.0
 10
41.12881444605359
 20
-14.44501743276664
 30
0.0
 10
41.35072471081053
 20
-14.40735195967636
 30
0.0
 10
41.56379165959525
 20
-14.37292134986733
 30
0.0
 10
41.76801529240775
 20
-14.34181376523192
 30
0.0
 10
41.97213041827581
 20
-14.31080790585692
 30
0.0
 10
42.16303482365775
 20
-14.28417623267983
 30
0.0
 10
42.3406335649772
 20
-14.26191196401664
 30
0.0
 10
42.16303482365775
 20
-14.28417623267983
 30
0.0
 10
41.97213041827581
 20
-14.31080790585692
 30
0.0
 10
41.76801529240775
 20
-14.34181376523192
 30
0.0
 10
41.56379165959525
 20
-14.37292134986733
 30
0.0
 10
41.35072471081053
 20
-14.40735195967636
 30
0.0
 10
41.12881444605359
 20
-14.44501743276664
 30
0.0
 10
40.9067956743522
 20
-14.4827778494333
 30
0.0
 10
40.6793786821647
 20
-14.52272875004094
 30
0.0
 10
40.44633289223414
 20
-14.56486335290553
 30
0.0
 10
40.21328710230359
 20
-14.60710646271455
 30
0.0
 10
39.9835779009147
 20
-14.64809496097844
 30
0.0
 10
39.75719172469942
 20
-14.68804586158608
 30
0.0
  0
SPLINE
  5
54
330
42
100
AcDbEntity
  8
Layer 1
 62
   250
420
  2301728
370
    35
100
AcDbSpline
210
0.0
220
0.0
230
1.0
 70
    11
 71
     3
 72
    29
 73
    25
 74
     0
 42
0.0000000001
 43
0.0000000001
 12
1.0
 22
0.0
 32
0.0
 13
1.0
 23
0.0
 33
0.0
 40
0.0
 40
0.0
 40
0.0
 40
0.0
 40
1.0
 40
1.0
 40
1.0
 40
2.0
 40
2.0
 40
2.0
 40
3.0
 40
3.0
 40
3.0
 40
4.0
 40
4.0
 40
4.0
 40
5.0
 40
5.0
 40
5.0
 40
6.0
 40
6.0
 40
6.0
 40
7.0
 40
7.0
 40
7.0
 40
8.0
 40
8.0
 40
8.0
 40
8.0
 10
42.89987835664386
 20
-14.9743549978708
 30
0.0
 10
42.74893163355359
 20
-15.28511210507567
 30
0.0
 10
42.59463475855359
 20
-15.60585185116942
 30
0.0
 10
42.43713692869247
 20
-15.93647929257567
 30
0.0
 10
42.27951702851886
 20
-16.26721524092636
 30
0.0
 10
42.12418933754664
 20
-16.59898200524928
 30
0.0
 10
41.97104534883136
 20
-16.93190165585692
 30
0.0
 10
41.81790136011609
 20
-17.26481452478053
 30
0.0
 10
41.67912097817164
 20
-17.58004754344372
 30
0.0
 10
41.55490765351886
 20
-17.87738369795761
 30
0.0
 10
41.67912097817164
 20
-17.58004754344372
 30
0.0
 10
41.81790136011609
 20
-17.26481452478053
 30
0.0
 10
41.97104534883136
 20
-16.93190165585692
 30
0.0
 10
42.12418933754664
 20
-16.59898200524928
 30
0.0
 10
42.27951702851886
 20
-16.26721524092636
 30
0.0
 10
42.43713692869247
 20
-15.93647929257567
 30
0.0
 10
42.59463475855359
 20
-15.60585185116942
 30
0.0
 10
42.74893163355359
 20
-15.28511210507567
 30
0.0
 10
42.89987835664386
 20
-14.9743549978708
 30
0.0
 10
43.05073013615775
 20
-14.66369961592636
 30
0.0
 10
43.18618749292859
 20
-14.37957418189858
 30
0.0
 10
43.30604697643553
 20
-14.12208720273192
 30
0.0
 10
43.18618749292859
 20
-14.37957418189858
 30
0.0
 10
43.05073013615775
 20
-14.66369961592636
 30
0.0
 10
42.89987835664386
 20
-14.9743549978708
 30
0.0
  0
SPLINE
  5
55
330
42
100
AcDbEntity
  8
Layer 1
 62
   250
420
  2301728
370
    35
100
AcDbSpline
210
0.0
220
0.0
230
1.0
 70
    11
 71
     3
 72
    29
 73
    25
 74
     0
 42
0.0000000001
 43
0.0000000001
 12
1.0
 22
0.0
 32
0.0
 13
1.0
 23
0.0
 33
0.0
 40
0.0
 40
0.0
 40
0.0
 40
0.0
 40
1.0
 40
1.0
 40
1.0
 40
2.0
 40
2.0
 40
2.0
 40
3.0
 40
3.0
 40
3.0
 40
4.0
 40
4.0
 40
4.0
 40
5.0
 40
5.0
 40
5.0
 40
6.0
 40
6.0
 40
6.0
 40
7.0
 40
7.0
 40
7.0
 40
8.0
 40
8.0
 40
8.0
 40
8.0
 10
43.72884428546331
 20
-13.15663310116942
 30
0.0
 10
43.7177087602897
 20
-13.17889058814858
 30
0.0
 10
43.70772612140081
 20
-13.19772332469372
 30
0.0
 10
43.69888280542859
 20
-13.21322625438122
 30
0.0
 10
43.68993098251192
 20
-13.22883090932914
 30
0.0
 10
43.67994834362303
 20
-13.24547994361733
 30
0.0
 10
43.66892132539386
 20
-13.26315979387775
 30
0.0
 10
43.65778580022025
 20
-13.28095493276664
 30
0.0
 10
43.64332724987303
 20
-13.30758660594372
 30
0.0
 10
43.62564061792859
 20
-13.34306159509303
 30
0.0
 10
43.64332724987303
 20
-13.30758660594372
 30
0.0
 10
43.65778580022025
 20
-13.28095493276664
 30
0.0
 10
43.66892132539386
 20
-13.26315979387775
 30
0.0
 10
43.67994834362303
 20
-13.24547994361733
 30
0.0
 10
43.68993098251192
 20
-13.22883090932914
 30
0.0
 10
43.69888280542859
 20
-13.21322625438122
 30
0.0
 10
43.70772612140081
 20
-13.19772332469372
 30
0.0
 10
43.7177087602897
 20
-13.17889058814858
 30
0.0
 10
43.72884428546331
 20
-13.15663310116942
 30
0.0
 10
43.73987130369247
 20
-13.13447055776664
 30
0.0
 10
43.75651355629664
 20
-13.09670335941594
 30
0.0
 10
43.77878460664386
 20
-13.04344001306178
 30
0.0
 10
43.75651355629664
 20
-13.09670335941594
 30
0.0
 10
43.73987130369247
 20
-13.13447055776664
 30
0.0
 10
43.72884428546331
 20
-13.15663310116942
 30
0.0
  0
SPLINE
  5
56
330
42
100
AcDbEntity
  8
Layer 1
 62
   250
420
  2301728
370
    35
100
AcDbSpline
210
0.0
220
0.0
230
1.0
 70
    11
 71
     3
 72
   227
 73
   223
 74
     0
 42
0.0000000001
 43
0.0000000001
 12
1.0
 22
0.0
 32
0.0
 13
1.0
 23
0.0
 33
0.0
 40
0.0
 40
0.0
 40
0.0
 40
0.0
 40
1.0
 40
1.0
 40
1.0
 40
2.0
 40
2.0
 40
2.0
 40
3.0
 40
3.0
 40
3.0
 40
4.0
 40
4.0
 40
4.0
 40
5.0
 40
5.0
 40
5.0
 40
6.0
 40
6.0
 40
6.0
 40
7.0
 40
7.0
 40
7.0
 40
8.0
 40
8.0
 40
8.0
 40
9.0
 40
9.0
 40
9.0
 40
10.0
 40
10.0
 40
10.0
 40
11.0
 40
11.0
 40
11.0
 40
12.0
 40
12.0
 40
12.0
 40
13.0
 40
13.0
 40
13.0
 40
14.0
 40
14.0
 40
14.0
 40
15.0
 40
15.0
 40
15.0
 40
16.0
 40
16.0
 40
16.0
 40
17.0
 40
17.0
 40
17.0
 40
18.0
 40
18.0
 40
18.0
 40
19.0
 40
19.0
 40
19.0
 40
20.0
 40
20.0
 40
20.0
 40
21.0
 40
21.0
 40
21.0
 40
22.0
 40
22.0
 40
22.0
 40
23.0
 40
23.0
 40
23.0
 40
24.0
 40
24.0
 40
24.0
 40
25.0
 40
25.0
 40
25.0
 40
26.0
 40
26.0
 40
26.0
 40
27.0
 40
27.0
 40
27.0
 40
28.0
 40
28.0
 40
28.0
 40
29.0
 40
29.0
 40
29.0
 40
30.0
 40
30.0
 40
30.0
 40
31.0
 40
31.0
 40
31.0
 40
32.0
 40
32.0
 40
32.0
 40
33.0
 40
33.0
 40
33.0
 40
34.0
 40
34.0
 40
34.0
 40
35.0
 40
35.0
 40
35.0
 40
36.0
 40
36.0
 40
36.0
 40
37.0
 40
37.0
 40
37.0
 40
38.0
 40
38.0
 40
38.0
 40
39.0
 40
39.0
 40
39.0
 40
40.0
 40
40.0
 40
40.0
 40
41.0
 40
41.0
 40
41.0
 40
42.0
 40
42.0
 40
42.0
 40
43.0
 40
43.0
 40
43.0
 40
44.0
 40
44.0
 40
44.0
 40
45.0
 40
45.0
 40
45.0
 40
46.0
 40
46.0
 40
46.0
 40
47.0
 40
47.0
 40
47.0
 40
48.0
 40
48.0
 40
48.0
 40
49.0
 40
49.0
 40
49.0
 40
50.0
 40
50.0
 40
50.0
 40
51.0
 40
51.0
 40
51.0
 40
52.0
 40
52.0
 40
52.0
 40
53.0
 40
53.0
 40
53.0
 40
54.0
 40
54.0
 40
54.0
 40
55.0
 40
55.0
 40
55.0
 40
56.0
 40
56.0
 40
56.0
 40
57.0
 40
57.0
 40
57.0
 40
58.0
 40
58.0
 40
58.0
 40
59.0
 40
59.0
 40
59.0
 40
60.0
 40
60.0
 40
60.0
 40
61.0
 40
61.0
 40
61.0
 40
62.0
 40
62.0
 40
62.0
 40
63.0
 40
63.0
 40
63.0
 40
64.0
 40
64.0
 40
64.0
 40
65.0
 40
65.0
 40
65.0
 40
66.0
 40
66.0
 40
66.0
 40
67.0
 40
67.0
 40
67.0
 40
68.0
 40
68.0
 40
68.0
 40
69.0
 40
69.0
 40
69.0
 40
70.0
 40
70.0
 40
70.0
 40
71.0
 40
71.0
 40
71.0
 40
72.0
 40
72.0
 40
72.0
 40
73.0
 40
73.0
 40
73.0
 40
74.0
 40
74.0
 40
74.0
 40
74.0
 10
46.80829849553275
 20
-17.97725755863469
 30
0.0
 10
46.83046103893553
 20
-17.86177904300969
 30
0.0
 10
46.88706097383136
 20
-17.6954243338083
 30
0.0
 10
46.9780847368522
 20
-17.47788147356525
 30
0.0
 10
47.06901355629664
 20
-17.26044712026664
 30
0.0
 10
47.1766931352897
 20
-17.02178609596108
 30
0.0
 10
47.30101496688692
 20
-16.76211541453747
 30
0.0
 10
47.4252282915397
 20
-16.50243795142983
 30
0.0
 10
47.55842056584525
 20
-16.23724697920761
 30
0.0
 10
47.70051040959525
 20
-15.96644077261039
 30
0.0
 10
47.84251887313692
 20
-15.69574307295761
 30
0.0
 10
47.9745446977897
 20
-15.44709262807914
 30
0.0
 10
48.09669639049803
 20
-15.22071323354789
 30
0.0
 10
48.21873957626192
 20
-14.99432705733261
 30
0.0
 10
48.32306900334525
 20
-14.80570807946803
 30
0.0
 10
48.40963041827581
 20
-14.65475457469372
 30
0.0
 10
48.49619183320636
 20
-14.50390279517983
 30
0.0
 10
48.54830229327581
 20
-14.41952508250622
 30
0.0
 10
48.5660974321647
 20
-14.40173672530136
 30
0.0
 10
48.60157920299803
 20
-14.3529425087215
 30
0.0
 10
48.62271093042859
 20
-14.30747809899928
 30
0.0
 10
48.62935698077581
 20
-14.26524177087428
 30
0.0
 10
48.63600303112303
 20
-14.22310716800969
 30
0.0
 10
48.62374174640081
 20
-14.19532939023192
 30
0.0
 10
48.59273588702581
 20
-14.18201016280136
 30
0.0
 10
48.56162152070636
 20
-14.16432353085692
 30
0.0
 10
48.53501019258136
 20
-14.16318420794025
 30
0.0
 10
48.51284764917859
 20
-14.17868035594372
 30
0.0
 10
48.49057659883136
 20
-14.19428501089164
 30
0.0
 10
48.44844877765081
 20
-14.22643697486733
 30
0.0
 10
48.38632855195636
 20
-14.27523119144719
 30
0.0
 10
48.36405750160914
 20
-14.29301954865205
 30
0.0
 10
48.29081531410914
 20
-14.35960212243678
 30
0.0
 10
48.16660198945636
 20
-14.47497891280136
 30
0.0
 10
48.04228015785914
 20
-14.59045742842636
 30
0.0
 10
47.88581314397025
 20
-14.740271610284
 30
0.0
 10
47.6972009477897
 20
-14.92441467669025
 30
0.0
 10
47.5084802446647
 20
-15.10866625004094
 30
0.0
 10
47.29873632105359
 20
-15.31954271488469
 30
0.0
 10
47.06798274032442
 20
-15.55695590932914
 30
0.0
 10
46.83712065265081
 20
-15.794470829034
 30
0.0
 10
46.60293553980359
 20
-16.04415887156872
 30
0.0
 10
46.36552234535914
 20
-16.3060200369333
 30
0.0
 10
46.12801420733831
 20
-16.5679829275583
 30
0.0
 10
45.89944432886609
 20
-16.83431322269719
 30
0.0
 10
45.67971776636609
 20
-17.105017704034
 30
0.0
 10
45.45999120386609
 20
-17.37582391063122
 30
0.0
 10
45.26794747556747
 20
-17.63550137373886
 30
0.0
 10
45.10377646862303
 20
-17.88404331167289
 30
0.0
 10
45.12592544865775
 20
-17.77313565108261
 30
0.0
 10
45.17368206758136
 20
-17.61437642799233
 30
0.0
 10
45.24692425508136
 20
-17.40796909292289
 30
0.0
 10
45.32016644258136
 20
-17.20156175785344
 30
0.0
 10
45.40672785751192
 20
-16.97299187938122
 30
0.0
 10
45.50659493650497
 20
-16.72216451392983
 30
0.0
 10
45.60647557886609
 20
-16.47143887373886
 30
0.0
 10
45.71300227157442
 20
-16.21394511288817
 30
0.0
 10
45.82620214136609
 20
-15.94979852000622
 30
0.0
 10
45.9393884477897
 20
-15.68575365238469
 30
0.0
 10
46.04592870386609
 20
-15.44157911896455
 30
0.0
 10
46.14579578285914
 20
-15.21738342669025
 30
0.0
 10
46.24567642522025
 20
-14.99328945967636
 30
0.0
 10
46.32994563094942
 20
-14.80352437721108
 30
0.0
 10
46.39882041393553
 20
-14.64809496097844
 30
0.0
 10
46.4675866899772
 20
-14.49276727000622
 30
0.0
 10
46.51086739744247
 20
-14.39955302304442
 30
0.0
 10
46.52864897296331
 20
-14.368445438409
 30
0.0
 10
46.55965483233831
 20
-14.30633199439858
 30
0.0
 10
46.57858929414386
 20
-14.25754455950275
 30
0.0
 10
46.58524890785914
 20
-14.221961063409
 30
0.0
 10
46.59190852157442
 20
-14.18648607425969
 30
0.0
 10
46.57297405976886
 20
-14.16203810333955
 30
0.0
 10
46.52864897296331
 20
-14.148718875909
 30
0.0
 10
46.50202408147025
 20
-14.13987555993678
 30
0.0
 10
46.47538562660914
 20
-14.14768127825275
 30
0.0
 10
46.44874717174803
 20
-14.17202752391247
 30
0.0
 10
46.42212228025497
 20
-14.19647549483261
 30
0.0
 10
46.37104263615775
 20
-14.23974942061386
 30
0.0
 10
46.29561674640081
 20
-14.30186286462428
 30
0.0
 10
46.24233983667859
 20
-14.34628289500622
 30
0.0
 10
46.14684016219942
 20
-14.43066060767983
 30
0.0
 10
46.00930761011609
 20
-14.55488071401664
 30
0.0
 10
45.87166655108831
 20
-14.67920254561386
 30
0.0
 10
45.70967924640081
 20
-14.8334858572458
 30
0.0
 10
45.5232507524772
 20
-15.01762892365205
 30
0.0
 10
45.33680869518553
 20
-15.20188049700275
 30
0.0
 10
45.13258506237303
 20
-15.40943393667289
 30
0.0
 10
44.91067479761609
 20
-15.64018751740205
 30
0.0
 10
44.68866958928275
 20
-15.87104313309389
 30
0.0
 10
44.46560643824109
 20
-16.11074144535344
 30
0.0
 10
44.2415124712272
 20
-16.35928338328747
 30
0.0
 10
44.01732356063692
 20
-16.60793382816594
 30
0.0
 10
43.79978070039386
 20
-16.86094489587428
 30
0.0
 10
43.58900596081053
 20
-17.11833693146455
 30
0.0
 10
43.37812271428275
 20
-17.37582391063122
 30
0.0
 10
43.19054133407442
 20
-17.6221821463083
 30
0.0
 10
43.02637032712997
 20
-17.85740485681178
 30
0.0
 10
43.25712390785914
 20
-17.33805698492289
 30
0.0
 10
43.48351008407442
 20
-16.84315653866942
 30
0.0
 10
43.70552885577581
 20
-16.37260261071803
 30
0.0
 10
43.79873632105359
 20
-16.17284810767983
 30
0.0
 10
43.89632475421331
 20
-15.96758687721108
 30
0.0
 10
43.99848404240775
 20
-15.7567036306833
 30
0.0
 10
44.10054838702581
 20
-15.54592889109997
 30
0.0
 10
44.20156835230359
 20
-15.34285136288817
 30
0.0
 10
44.3014489946647
 20
-15.14747104604789
 30
0.0
 10
44.40131607365775
 20
-14.95219245446803
 30
0.0
 10
44.49558148164386
 20
-14.76908698571803
 30
0.0
 10
44.58442154240775
 20
-14.59815463979789
 30
0.0
 10
44.67316665959525
 20
-14.42733080082219
 30
0.0
 10
44.75525216306747
 20
-14.28188402347844
 30
0.0
 10
44.83078655976886
 20
-14.16203810333955
 30
0.0
 10
44.75525216306747
 20
-14.28188402347844
 30
0.0
 10
44.67316665959525
 20
-14.42733080082219
 30
0.0
 10
44.58442154240775
 20
-14.59815463979789
 30
0.0
 10
44.49558148164386
 20
-14.76908698571803
 30
0.0
 10
44.40131607365775
 20
-14.95219245446803
 30
0.0
 10
44.3014489946647
 20
-15.14747104604789
 30
0.0
 10
44.20156835230359
 20
-15.34285136288817
 30
0.0
 10
44.10054838702581
 20
-15.54592889109997
 30
0.0
 10
43.99848404240775
 20
-15.7567036306833
 30
0.0
 10
43.89632475421331
 20
-15.96758687721108
 30
0.0
 10
43.79873632105359
 20
-16.17284810767983
 30
0.0
 10
43.70552885577581
 20
-16.37260261071803
 30
0.0
 10
43.48351008407442
 20
-16.84315653866942
 30
0.0
 10
43.25712390785914
 20
-17.33805698492289
 30
0.0
 10
43.02637032712997
 20
-17.85740485681178
 30
0.0
 10
43.19054133407442
 20
-17.6221821463083
 30
0.0
 10
43.37812271428275
 20
-17.37582391063122
 30
0.0
 10
43.58900596081053
 20
-17.11833693146455
 30
0.0
 10
43.79978070039386
 20
-16.86094489587428
 30
0.0
 10
44.01732356063692
 20
-16.60793382816594
 30
0.0
 10
44.2415124712272
 20
-16.35928338328747
 30
0.0
 10
44.46560643824109
 20
-16.11074144535344
 30
0.0
 10
44.68866958928275
 20
-15.87104313309389
 30
0.0
 10
44.91067479761609
 20
-15.64018751740205
 30
0.0
 10
45.13258506237303
 20
-15.40943393667289
 30
0.0
 10
45.33680869518553
 20
-15.20188049700275
 30
0.0
 10
45.5232507524772
 20
-15.01762892365205
 30
0.0
 10
45.70967924640081
 20
-14.8334858572458
 30
0.0
 10
45.87166655108831
 20
-14.67805644101317
 30
0.0
 10
46.00930761011609
 20
-14.551550907159
 30
0.0
 10
46.14684016219942
 20
-14.4250385916208
 30
0.0
 10
46.24233983667859
 20
-14.34181376523192
 30
0.0
 10
46.29561674640081
 20
-14.30186286462428
 30
0.0
 10
46.37104263615775
 20
-14.23974942061386
 30
0.0
 10
46.42212228025497
 20
-14.19647549483261
 30
0.0
 10
46.44874717174803
 20
-14.17202752391247
 30
0.0
 10
46.47538562660914
 20
-14.14768127825275
 30
0.0
 10
46.50202408147025
 20
-14.13987555993678
 30
0.0
 10
46.52864897296331
 20
-14.148718875909
 30
0.0
 10
46.57297405976886
 20
-14.16203810333955
 30
0.0
 10
46.59190852157442
 20
-14.18648607425969
 30
0.0
 10
46.58524890785914
 20
-14.221961063409
 30
0.0
 10
46.57858929414386
 20
-14.25754455950275
 30
0.0
 10
46.55965483233831
 20
-14.30633199439858
 30
0.0
 10
46.52864897296331
 20
-14.368445438409
 30
0.0
 10
46.51086739744247
 20
-14.39955302304442
 30
0.0
 10
46.4675866899772
 20
-14.49276727000622
 30
0.0
 10
46.39882041393553
 20
-14.64809496097844
 30
0.0
 10
46.32994563094942
 20
-14.80352437721108
 30
0.0
 10
46.24567642522025
 20
-14.99328945967636
 30
0.0
 10
46.14579578285914
 20
-15.21738342669025
 30
0.0
 10
46.04592870386609
 20
-15.44157911896455
 30
0.0
 10
45.9393884477897
 20
-15.68575365238469
 30
0.0
 10
45.82620214136609
 20
-15.94979852000622
 30
0.0
 10
45.71300227157442
 20
-16.21394511288817
 30
0.0
 10
45.60647557886609
 20
-16.47143887373886
 30
0.0
 10
45.50659493650497
 20
-16.72216451392983
 30
0.0
 10
45.40672785751192
 20
-16.97299187938122
 30
0.0
 10
45.32016644258136
 20
-17.20156175785344
 30
0.0
 10
45.24692425508136
 20
-17.40796909292289
 30
0.0
 10
45.17368206758136
 20
-17.61437642799233
 30
0.0
 10
45.12592544865775
 20
-17.77313565108261
 30
0.0
 10
45.10377646862303
 20
-17.88404331167289
 30
0.0
 10
45.26794747556747
 20
-17.63550137373886
 30
0.0
 10
45.45999120386609
 20
-17.37582391063122
 30
0.0
 10
45.67971776636609
 20
-17.105017704034
 30
0.0
 10
45.89944432886609
 20
-16.83431322269719
 30
0.0
 10
46.12801420733831
 20
-16.5679829275583
 30
0.0
 10
46.36552234535914
 20
-16.3060200369333
 30
0.0
 10
46.60293553980359
 20
-16.04415887156872
 30
0.0
 10
46.83712065265081
 20
-15.794470829034
 30
0.0
 10
47.06798274032442
 20
-15.55695590932914
 30
0.0
 10
47.29873632105359
 20
-15.31954271488469
 30
0.0
 10
47.5084802446647
 20
-15.10866625004094
 30
0.0
 10
47.6972009477897
 20
-14.92441467669025
 30
0.0
 10
47.88581314397025
 20
-14.740271610284
 30
0.0
 10
48.04228015785914
 20
-14.59045742842636
 30
0.0
 10
48.16660198945636
 20
-14.47497891280136
 30
0.0
 10
48.29081531410914
 20
-14.35960212243678
 30
0.0
 10
48.36405750160914
 20
-14.29301954865205
 30
0.0
 10
48.38632855195636
 20
-14.27523119144719
 30
0.0
 10
48.44844877765081
 20
-14.22643697486733
 30
0.0
 10
48.49057659883136
 20
-14.19428501089164
 30
0.0
 10
48.51284764917859
 20
-14.17868035594372
 30
0.0
 10
48.53501019258136
 20
-14.16318420794025
 30
0.0
 10
48.56162152070636
 20
-14.16432353085692
 30
0.0
 10
48.59273588702581
 20
-14.18201016280136
 30
0.0
 10
48.62374174640081
 20
-14.19532939023192
 30
0.0
 10
48.63600303112303
 20
-14.22310716800969
 30
0.0
 10
48.62935698077581
 20
-14.26524177087428
 30
0.0
 10
48.62271093042859
 20
-14.30747809899928
 30
0.0
 10
48.60157920299803
 20
-14.3529425087215
 30
0.0
 10
48.5660974321647
 20
-14.40173672530136
 30
0.0
 10
48.54830229327581
 20
-14.41952508250622
 30
0.0
 10
48.49619183320636
 20
-14.50390279517983
 30
0.0
 10
48.40963041827581
 20
-14.65475457469372
 30
0.0
 10
48.32306900334525
 20
-14.80570807946803
 30
0.0
 10
48.21873957626192
 20
-14.99432705733261
 30
0.0
 10
48.09669639049803
 20
-15.22071323354789
 30
0.0
 10
47.9745446977897
 20
-15.44709262807914
 30
0.0
 10
47.84251887313692
 20
-15.69574307295761
 30
0.0
 10
47.70051040959525
 20
-15.96644077261039
 30
0.0
 10
47.55842056584525
 20
-16.23724697920761
 30
0.0
 10
47.4252282915397
 20
-16.50243795142983
 30
0.0
 10
47.30101496688692
 20
-16.76211541453747
 30
0.0
 10
47.1766931352897
 20
-17.02178609596108
 30
0.0
 10
47.06901355629664
 20
-17.26044712026664
 30
0.0
 10
46.9780847368522
 20
-17.47788147356525
 30
0.0
 10
46.88706097383136
 20
-17.6954243338083
 30
0.0
 10
46.83046103893553
 20
-17.86177904300969
 30
0.0
 10
46.80829849553275
 20
-17.97725755863469
 30
0.0
  0
SPLINE
  5
57
330
42
100
AcDbEntity
  8
Layer 1
 62
   250
420
  2301728
370
    35
100
AcDbSpline
210
0.0
220
0.0
230
1.0
 70
    11
 71
     3
 72
   161
 73
   157
 74
     0
 42
0.0000000001
 43
0.0000000001
 12
1.0
 22
0.0
 32
0.0
 13
1.0
 23
0.0
 33
0.0
 40
0.0
 40
0.0
 40
0.0
 40
0.0
 40
1.0
 40
1.0
 40
1.0
 40
2.0
 40
2.0
 40
2.0
 40
3.0
 40
3.0
 40
3.0
 40
4.0
 40
4.0
 40
4.0
 40
5.0
 40
5.0
 40
5.0
 40
6.0
 40
6.0
 40
6.0
 40
7.0
 40
7.0
 40
7.0
 40
8.0
 40
8.0
 40
8.0
 40
9.0
 40
9.0
 40
9.0
 40
10.0
 40
10.0
 40
10.0
 40
11.0
 40
11.0
 40
11.0
 40
12.0
 40
12.0
 40
12.0
 40
13.0
 40
13.0
 40
13.0
 40
14.0
 40
14.0
 40
14.0
 40
15.0
 40
15.0
 40
15.0
 40
16.0
 40
16.0
 40
16.0
 40
17.0
 40
17.0
 40
17.0
 40
18.0
 40
18.0
 40
18.0
 40
19.0
 40
19.0
 40
19.0
 40
20.0
 40
20.0
 40
20.0
 40
21.0
 40
21.0
 40
21.0
 40
22.0
 40
22.0
 40
22.0
 40
23.0
 40
23.0
 40
23.0
 40
24.0
 40
24.0
 40
24.0
 40
25.0
 40
25.0
 40
25.0
 40
26.0
 40
26.0
 40
26.0
 40
27.0
 40
27.0
 40
27.0
 40
28.0
 40
28.0
 40
28.0
 40
29.0
 40
29.0
 40
29.0
 40
30.0
 40
30.0
 40
30.0
 40
31.0
 40
31.0
 40
31.0
 40
32.0
 40
32.0
 40
32.0
 40
33.0
 40
33.0
 40
33.0
 40
34.0
 40
34.0
 40
34.0
 40
35.0
 40
35.0
 40
35.0
 40
36.0
 40
36.0
 40
36.0
 40
37.0
 40
37.0
 40
37.0
 40
38.0
 40
38.0
 40
38.0
 40
39.0
 40
39.0
 40
39.0
 40
40.0
 40
40.0
 40
40.0
 40
41.0
 40
41.0
 40
41.0
 40
42.0
 40
42.0
 40
42.0
 40
43.0
 40
43.0
 40
43.0
 40
44.0
 40
44.0
 40
44.0
 40
45.0
 40
45.0
 40
45.0
 40
46.0
 40
46.0
 40
46.0
 40
47.0
 40
47.0
 40
47.0
 40
48.0
 40
48.0
 40
48.0
 40
49.0
 40
49.0
 40
49.0
 40
50.0
 40
50.0
 40
50.0
 40
51.0
 40
51.0
 40
51.0
 40
52.0
 40
52.0
 40
52.0
 40
52.0
 10
50.26394628199108
 20
-16.84534024092636
 30
0.0
 10
50.17072525334525
 20
-16.9785053884958
 30
0.0
 10
50.06522937660914
 20
-17.12062235898192
 30
0.0
 10
49.94767566567164
 20
-17.2714741384958
 30
0.0
 10
49.82999988442164
 20
-17.42243442495414
 30
0.0
 10
49.70131064831053
 20
-17.55674567712428
 30
0.0
 10
49.56148588702581
 20
-17.6743061697458
 30
0.0
 10
49.42166112574109
 20
-17.79196838762775
 30
0.0
 10
49.27185372556747
 20
-17.87956740021455
 30
0.0
 10
49.11205012313692
 20
-17.93730665802705
 30
0.0
 10
48.95224652070636
 20
-17.99494419057914
 30
0.0
 10
48.78579686792859
 20
-17.9972296180965
 30
0.0
 10
48.61267403806747
 20
-17.94396627174233
 30
0.0
 10
48.49719552244247
 20
-17.91285868710692
 30
0.0
 10
48.41063410751192
 20
-17.85511942929442
 30
0.0
 10
48.35300335664386
 20
-17.77085022356525
 30
0.0
 10
48.29526409883136
 20
-17.68658101783608
 30
0.0
 10
48.25645930282442
 20
-17.59003696401664
 30
0.0
 10
48.23648046167859
 20
-17.48121128042289
 30
0.0
 10
48.21650162053275
 20
-17.37249410377358
 30
0.0
 10
48.21317859535914
 20
-17.257117313409
 30
0.0
 10
48.2264978227897
 20
-17.13497918406872
 30
0.0
 10
48.2398034868522
 20
-17.01294277998886
 30
0.0
 10
48.25978232799803
 20
-16.89423618276664
 30
0.0
 10
48.28642078285914
 20
-16.77875766714164
 30
0.0
 10
48.3130456743522
 20
-16.66338087677705
 30
0.0
 10
48.34186783147025
 20
-16.55903110464164
 30
0.0
 10
48.3729821977897
 20
-16.46581685767983
 30
0.0
 10
48.40397449379664
 20
-16.37260261071803
 30
0.0
 10
48.43061294865775
 20
-16.29936042321803
 30
0.0
 10
48.45287043563692
 20
-16.24609029517983
 30
0.0
 10
48.4750329790397
 20
-16.19282694882567
 30
0.0
 10
48.51831368650497
 20
-16.1074116384958
 30
0.0
 10
48.58271255803275
 20
-15.98974942061386
 30
0.0
 10
48.64700292261609
 20
-15.87218892799233
 30
0.0
 10
48.73024131237303
 20
-15.73901699873886
 30
0.0
 10
48.83240060056747
 20
-15.5902471962215
 30
0.0
 10
48.93446494518553
 20
-15.44157911896455
 30
0.0
 10
49.05317154240775
 20
-15.28625142799233
 30
0.0
 10
49.18861533581053
 20
-15.12416239804442
 30
0.0
 10
49.32397774900497
 20
-14.96218187504094
 30
0.0
 10
49.47492447209525
 20
-14.81018399092636
 30
0.0
 10
49.64138768824109
 20
-14.66806702044025
 30
0.0
 10
49.80785090438692
 20
-14.52605855689858
 30
0.0
 10
49.98532757539386
 20
-14.40402928126488
 30
0.0
 10
50.17404827851886
 20
-14.30186286462428
 30
0.0
 10
50.36267403806747
 20
-14.19980530169025
 30
0.0
 10
50.56128243650497
 20
-14.13540643016247
 30
0.0
 10
50.76996841740775
 20
-14.10876797530136
 30
0.0
 10
50.90751453285914
 20
-14.09108134335692
 30
0.0
 10
51.00405858667858
 20
-14.10440057078747
 30
0.0
 10
51.05961414223414
 20
-14.148718875909
 30
0.0
 10
51.11506119084525
 20
-14.19314568797497
 30
0.0
 10
51.13951594344942
 20
-14.258582157159
 30
0.0
 10
51.13285632973414
 20
-14.34514357208955
 30
0.0
 10
51.12619671601886
 20
-14.43169820533608
 30
0.0
 10
51.09060643824108
 20
-14.53386427521455
 30
0.0
 10
51.02631607365775
 20
-14.65142476783608
 30
0.0
 10
50.96191720212997
 20
-14.76908698571803
 30
0.0
 10
50.87983169865775
 20
-14.89112338979789
 30
0.0
 10
50.7799646196647
 20
-15.01762892365205
 30
0.0
 10
50.68008397730358
 20
-15.14414123919025
 30
0.0
 10
50.56689767087997
 20
-15.26846307078747
 30
0.0
 10
50.44039213702581
 20
-15.39049947486733
 30
0.0
 10
50.31387303980358
 20
-15.51263760420761
 30
0.0
 10
50.18175227157442
 20
-15.62020867625622
 30
0.0
 10
50.04421971949108
 20
-15.71342970490205
 30
0.0
 10
49.99532377765081
 20
-15.74900641931178
 30
0.0
 10
49.92208159015081
 20
-15.79665453129094
 30
0.0
 10
49.82449315699108
 20
-15.85658427304442
 30
0.0
 10
49.72679621688692
 20
-15.91650723311386
 30
0.0
 10
49.61360991046331
 20
-15.97976000004094
 30
0.0
 10
49.4849206743522
 20
-16.04634257382567
 30
0.0
 10
49.35612293129664
 20
-16.11292514761039
 30
0.0
 10
49.21629817001192
 20
-16.17732401913817
 30
0.0
 10
49.06544639049803
 20
-16.23943746314858
 30
0.0
 10
48.9144861040397
 20
-16.30164585073539
 30
0.0
 10
48.75915841306747
 20
-16.35262376957219
 30
0.0
 10
48.59935481063692
 20
-16.39257467017983
 30
0.0
 10
48.75915841306747
 20
-16.35262376957219
 30
0.0
 10
48.9144861040397
 20
-16.30164585073539
 30
0.0
 10
49.06544639049803
 20
-16.23943746314858
 30
0.0
 10
49.21629817001192
 20
-16.17732401913817
 30
0.0
 10
49.35612293129664
 20
-16.11292514761039
 30
0.0
 10
49.4849206743522
 20
-16.04634257382567
 30
0.0
 10
49.61360991046331
 20
-15.97976000004094
 30
0.0
 10
49.72679621688692
 20
-15.91650723311386
 30
0.0
 10
49.82449315699108
 20
-15.85658427304442
 30
0.0
 10
49.92208159015081
 20
-15.79665453129094
 30
0.0
 10
49.99532377765081
 20
-15.74900641931178
 30
0.0
 10
50.04421971949108
 20
-15.71342970490205
 30
0.0
 10
50.18175227157442
 20
-15.61584127174233
 30
0.0
 10
50.31387303980358
 20
-15.50701558814858
 30
0.0
 10
50.44039213702581
 20
-15.38716966800969
 30
0.0
 10
50.56689767087997
 20
-15.26731696618678
 30
0.0
 10
50.68008397730358
 20
-15.14414123919025
 30
0.0
 10
50.7799646196647
 20
-15.01762892365205
 30
0.0
 10
50.87983169865775
 20
-14.89112338979789
 30
0.0
 10
50.96191720212997
 20
-14.76908698571803
 30
0.0
 10
51.02631607365775
 20
-14.65142476783608
 30
0.0
 10
51.09060643824108
 20
-14.53386427521455
 30
0.0
 10
51.12619671601886
 20
-14.43169820533608
 30
0.0
 10
51.13285632973414
 20
-14.34514357208955
 30
0.0
 10
51.13951594344942
 20
-14.258582157159
 30
0.0
 10
51.11506119084525
 20
-14.19314568797497
 30
0.0
 10
51.05961414223414
 20
-14.148718875909
 30
0.0
 10
51.00405858667858
 20
-14.10440057078747
 30
0.0
 10
50.90751453285914
 20
-14.09108134335692
 30
0.0
 10
50.76996841740775
 20
-14.10876797530136
 30
0.0
 10
50.56128243650497
 20
-14.13540643016247
 30
0.0
 10
50.36267403806747
 20
-14.19980530169025
 30
0.0
 10
50.17404827851886
 20
-14.30186286462428
 30
0.0
 10
49.98532757539386
 20
-14.40402928126488
 30
0.0
 10
49.80785090438692
 20
-14.52605855689858
 30
0.0
 10
49.64138768824109
 20
-14.66806702044025
 30
0.0
 10
49.47492447209525
 20
-14.81018399092636
 30
0.0
 10
49.32397774900497
 20
-14.96218187504094
 30
0.0
 10
49.18861533581053
 20
-15.12416239804442
 30
0.0
 10
49.05317154240775
 20
-15.28625142799233
 30
0.0
 10
48.93446494518553
 20
-15.44157911896455
 30
0.0
 10
48.83240060056747
 20
-15.5902471962215
 30
0.0
 10
48.73024131237303
 20
-15.73901699873886
 30
0.0
 10
48.64700292261609
 20
-15.87218892799233
 30
0.0
 10
48.58271255803275
 20
-15.98974942061386
 30
0.0
 10
48.51831368650497
 20
-16.1074116384958
 30
0.0
 10
48.4750329790397
 20
-16.19282694882567
 30
0.0
 10
48.45287043563692
 20
-16.24609029517983
 30
0.0
 10
48.43061294865775
 20
-16.29499301870414
 30
0.0
 10
48.40397449379664
 20
-16.36708910160344
 30
0.0
 10
48.3729821977897
 20
-16.46248705082219
 30
0.0
 10
48.34186783147025
 20
-16.55799350698539
 30
0.0
 10
48.3130456743522
 20
-16.66338087677705
 30
0.0
 10
48.28642078285914
 20
-16.77875766714164
 30
0.0
 10
48.25978232799803
 20
-16.89423618276664
 30
0.0
 10
48.2398034868522
 20
-17.01294277998886
 30
0.0
 10
48.2264978227897
 20
-17.13497918406872
 30
0.0
 10
48.21317859535914
 20
-17.257117313409
 30
0.0
 10
48.21650162053275
 20
-17.37249410377358
 30
0.0
 10
48.23648046167859
 20
-17.48121128042289
 30
0.0
 10
48.25645930282442
 20
-17.59003696401664
 30
0.0
 10
48.29526409883136
 20
-17.68658101783608
 30
0.0
 10
48.35300335664386
 20
-17.77085022356525
 30
0.0
 10
48.41063410751192
 20
-17.85511942929442
 30
0.0
 10
48.49719552244247
 20
-17.91285868710692
 30
0.0
 10
48.61267403806747
 20
-17.94396627174233
 30
0.0
 10
48.78579686792859
 20
-17.9972296180965
 30
0.0
 10
48.95224652070636
 20
-17.99494419057914
 30
0.0
 10
49.11205012313692
 20
-17.93730665802705
 30
0.0
 10
49.27185372556747
 20
-17.87956740021455
 30
0.0
 10
49.42166112574109
 20
-17.79196838762775
 30
0.0
 10
49.56148588702581
 20
-17.6743061697458
 30
0.0
 10
49.70131064831053
 20
-17.55674567712428
 30
0.0
 10
49.82999988442164
 20
-17.42243442495414
 30
0.0
 10
49.94767566567164
 20
-17.2714741384958
 30
0.0
 10
50.06522937660914
 20
-17.12062235898192
 30
0.0
 10
50.17072525334525
 20
-16.9785053884958
 30
0.0
 10
50.26394628199108
 20
-16.84534024092636
 30
0.0
  0
ENDBLK
  5
45
330
42
100
AcDbEntity
  8
0
100
AcDbBlockEnd
  0
ENDSEC
  0
SECTION
  2
ENTITIES
  0
SPLINE
  5
41
330
1F
100
AcDbEntity
  8
Layer 1
 62
   250
420
  2301728
370
    35
100
AcDbSpline
210
0.0
220
0.0
230
1.0
 70
    11
 71
     3
 72
   524
 73
   520
 74
     0
 42
0.0000000001
 43
0.0000000001
 12
1.0
 22
0.0
 32
0.0
 13
1.0
 23
0.0
 33
0.0
 40
0.0
 40
0.0
 40
0.0
 40
0.0
 40
1.0
 40
1.0
 40
1.0
 40
2.0
 40
2.0
 40
2.0
 40
3.0
 40
3.0
 40
3.0
 40
4.0
 40
4.0
 40
4.0
 40
5.0
 40
5.0
 40
5.0
 40
6.0
 40
6.0
 40
6.0
 40
7.0
 40
7.0
 40
7.0
 40
8.0
 40
8.0
 40
8.0
 40
9.0
 40
9.0
 40
9.0
 40
10.0
 40
10.0
 40
10.0
 40
11.0
 40
11.0
 40
11.0
 40
12.0
 40
12.0
 40
12.0
 40
13.0
 40
13.0
 40
13.0
 40
14.0
 40
14.0
 40
14.0
 40
15.0
 40
15.0
 40
15.0
 40
16.0
 40
16.0
 40
16.0
 40
17.0
 40
17.0
 40
17.0
 40
18.0
 40
18.0
 40
18.0
 40
19.0
 40
19.0
 40
19.0
 40
20.0
 40
20.0
 40
20.0
 40
21.0
 40
21.0
 40
21.0
 40
22.0
 40
22.0
 40
22.0
 40
23.0
 40
23.0
 40
23.0
 40
24.0
 40
24.0
 40
24.0
 40
25.0
 40
25.0
 40
25.0
 40
26.0
 40
26.0
 40
26.0
 40
27.0
 40
27.0
 40
27.0
 40
28.0
 40
28.0
 40
28.0
 40
29.0
 40
29.0
 40
29.0
 40
30.0
 40
30.0
 40
30.0
 40
31.0
 40
31.0
 40
31.0
 40
32.0
 40
32.0
 40
32.0
 40
33.0
 40
33.0
 40
33.0
 40
34.0
 40
34.0
 40
34.0
 40
35.0
 40
35.0
 40
35.0
 40
36.0
 40
36.0
 40
36.0
 40
37.0
 40
37.0
 40
37.0
 40
38.0
 40
38.0
 40
38.0
 40
39.0
 40
39.0
 40
39.0
 40
40.0
 40
40.0
 40
40.0
 40
41.0
 40
41.0
 40
41.0
 40
42.0
 40
42.0
 40
42.0
 40
43.0
 40
43.0
 40
43.0
 40
44.0
 40
44.0
 40
44.0
 40
45.0
 40
45.0
 40
45.0
 40
46.0
 40
46.0
 40
46.0
 40
47.0
 40
47.0
 40
47.0
 40
48.0
 40
48.0
 40
48.0
 40
49.0
 40
49.0
 40
49.0
 40
50.0
 40
50.0
 40
50.0
 40
51.0
 40
51.0
 40
51.0
 40
52.0
 40
52.0
 40
52.0
 40
53.0
 40
53.0
 40
53.0
 40
54.0
 40
54.0
 40
54.0
 40
55.0
 40
55.0
 40
55.0
 40
56.0
 40
56.0
 40
56.0
 40
57.0
 40
57.0
 40
57.0
 40
58.0
 40
58.0
 40
58.0
 40
59.0
 40
59.0
 40
59.0
 40
60.0
 40
60.0
 40
60.0
 40
61.0
 40
61.0
 40
61.0
 40
62.0
 40
62.0
 40
62.0
 40
63.0
 40
63.0
 40
63.0
 40
64.0
 40
64.0
 40
64.0
 40
65.0
 40
65.0
 40
65.0
 40
66.0
 40
66.0
 40
66.0
 40
67.0
 40
67.0
 40
67.0
 40
68.0
 40
68.0
 40
68.0
 40
69.0
 40
69.0
 40
69.0
 40
70.0
 40
70.0
 40
70.0
 40
71.0
 40
71.0
 40
71.0
 40
72.0
 40
72.0
 40
72.0
 40
73.0
 40
73.0
 40
73.0
 40
74.0
 40
74.0
 40
74.0
 40
75.0
 40
75.0
 40
75.0
 40
76.0
 40
76.0
 40
76.0
 40
77.0
 40
77.0
 40
77.0
 40
78.0
 40
78.0
 40
78.0
 40
79.0
 40
79.0
 40
79.0
 40
80.0
 40
80.0
 40
80.0
 40
81.0
 40
81.0
 40
81.0
 40
82.0
 40
82.0
 40
82.0
 40
83.0
 40
83.0
 40
83.0
 40
84.0
 40
84.0
 40
84.0
 40
85.0
 40
85.0
 40
85.0
 40
86.0
 40
86.0
 40
86.0
 40
87.0
 40
87.0
 40
87.0
 40
88.0
 40
88.0
 40
88.0
 40
89.0
 40
89.0
 40
89.0
 40
90.0
 40
90.0
 40
90.0
 40
91.0
 40
91.0
 40
91.0
 40
92.0
 40
92.0
 40
92.0
 40
93.0
 40
93.0
 40
93.0
 40
94.0
 40
94.0
 40
94.0
 40
95.0
 40
95.0
 40
95.0
 40
96.0
 40
96.0
 40
96.0
 40
97.0
 40
97.0
 40
97.0
 40
98.0
 40
98.0
 40
98.0
 40
99.0
 40
99.0
 40
99.0
 40
100.0
 40
100.0
 40
100.0
 40
101.0
 40
101.0
 40
101.0
 40
102.0
 40
102.0
 40
102.0
 40
103.0
 40
103.0
 40
103.0
 40
104.0
 40
104.0
 40
104.0
 40
105.0
 40
105.0
 40
105.0
 40
106.0
 40
106.0
 40
106.0
 40
107.0
 40
107.0
 40
107.0
 40
108.0
 40
108.0
 40
108.0
 40
109.0
 40
109.0
 40
109.0
 40
110.0
 40
110.0
 40
110.0
 40
111.0
 40
111.0
 40
111.0
 40
112.0
 40
112.0
 40
112.0
 40
113.0
 40
113.0
 40
113.0
 40
114.0
 40
114.0
 40
114.0
 40
115.0
 40
115.0
 40
115.0
 40
116.0
 40
116.0
 40
116.0
 40
117.0
 40
117.0
 40
117.0
 40
118.0
 40
118.0
 40
118.0
 40
119.0
 40
119.0
 40
119.0
 40
120.0
 40
120.0
 40
120.0
 40
121.0
 40
121.0
 40
121.0
 40
122.0
 40
122.0
 40
122.0
 40
123.0
 40
123.0
 40
123.0
 40
124.0
 40
124.0
 40
124.0
 40
125.0
 40
125.0
 40
125.0
 40
126.0
 40
126.0
 40
126.0
 40
127.0
 40
127.0
 40
127.0
 40
128.0
 40
128.0
 40
128.0
 40
129.0
 40
129.0
 40
129.0
 40
130.0
 40
130.0
 40
130.0
 40
131.0
 40
131.0
 40
131.0
 40
132.0
 40
132.0
 40
132.0
 40
133.0
 40
133.0
 40
133.0
 40
134.0
 40
134.0
 40
134.0
 40
135.0
 40
135.0
 40
135.0
 40
136.0
 40
136.0
 40
136.0
 40
137.0
 40
137.0
 40
137.0
 40
138.0
 40
138.0
 40
138.0
 40
139.0
 40
139.0
 40
139.0
 40
140.0
 40
140.0
 40
140.0
 40
141.0
 40
141.0
 40
141.0
 40
142.0
 40
142.0
 40
142.0
 40
143.0
 40
143.0
 40
143.0
 40
144.0
 40
144.0
 40
144.0
 40
145.0
 40
145.0
 40
145.0
 40
146.0
 40
146.0
 40
146.0
 40
147.0
 40
147.0
 40
147.0
 40
148.0
 40
148.0
 40
148.0
 40
149.0
 40
149.0
 40
149.0
 40
150.0
 40
150.0
 40
150.0
 40
151.0
 40
151.0
 40
151.0
 40
152.0
 40
152.0
 40
152.0
 40
153.0
 40
153.0
 40
153.0
 40
154.0
 40
154.0
 40
154.0
 40
155.0
 40
155.0
 40
155.0
 40
156.0
 40
156.0
 40
156.0
 40
157.0
 40
157.0
 40
157.0
 40
158.0
 40
158.0
 40
158.0
 40
159.0
 40
159.0
 40
159.0
 40
160.0
 40
160.0
 40
160.0
 40
161.0
 40
161.0
 40
161.0
 40
162.0
 40
162.0
 40
162.0
 40
163.0
 40
163.0
 40
163.0
 40
164.0
 40
164.0
 40
164.0
 40
165.0
 40
165.0
 40
165.0
 40
166.0
 40
166.0
 40
166.0
 40
167.0
 40
167.0
 40
167.0
 40
168.0
 40
168.0
 40
168.0
 40
169.0
 40
169.0
 40
169.0
 40
170.0
 40
170.0
 40
170.0
 40
171.0
 40
171.0
 40
171.0
 40
172.0
 40
172.0
 40
172.0
 40
173.0
 40
173.0
 40
173.0
 40
173.0
 10
52.08638823077581
 20
-16.05254103302705
 30
0.0
 10
52.0869714556022
 20
-16.05180861115205
 30
0.0
 10
52.08755468042858
 20
-16.051062625909
 30
0.0
 10
52.08813790525497
 20
-16.050330204034
 30
0.0
 10
52.24499825681747
 20
-15.85162008033608
 30
0.0
 10
52.37964181150497
 20
-15.65017693797497
 30
0.0
 10
52.48860991046331
 20
-15.45110738502358
 30
0.0
 10
52.66930109969942
 20
-15.12069695750622
 30
0.0
 10
52.76939875594942
 20
-14.80075066844372
 30
0.0
 10
52.7946130571647
 20
-14.47299187938122
 30
0.0
 10
52.79865494084525
 20
-14.42046773658608
 30
0.0
 10
52.80066231931747
 20
-14.36823520620414
 30
0.0
 10
52.80064875594942
 20
-14.31634176002358
 30
0.0
 10
52.8005945024772
 20
-14.08559496097844
 30
0.0
 10
52.76054187660914
 20
-13.86159593754094
 30
0.0
 10
52.68104697643553
 20
-13.64854255212428
 30
0.0
 10
52.56395442001192
 20
-13.33469977868678
 30
0.0
 10
52.36365060056747
 20
-13.057898563409
 30
0.0
 10
52.10175552678275
 20
-12.84806647790553
 30
0.0
 10
52.10083321775497
 20
-12.84732049266247
 30
0.0
 10
52.09989734535914
 20
-12.84657450741942
 30
0.0
 10
52.09897503633136
 20
-12.84582852217636
 30
0.0
 10
51.80922080456053
 20
-12.61468838545761
 30
0.0
 10
51.30658951115775
 20
-12.35935120012775
 30
0.0
 10
50.55740331324108
 20
-12.45571214847844
 30
0.0
 10
50.18702503090609
 20
-12.50315680993678
 30
0.0
 10
49.8296302826422
 20
-12.61164340932914
 30
0.0
 10
49.49280099119247
 20
-12.7783270302058
 30
0.0
 10
49.44580392087997
 20
-12.74868428932038
 30
0.0
 10
49.39738269692164
 20
-12.72096246043596
 30
0.0
 10
49.34732030542859
 20
-12.69574985464164
 30
0.0
 10
48.76821874292859
 20
-12.39857646054442
 30
0.0
 10
48.08935860837997
 20
-12.44111796445067
 30
0.0
 10
47.55781021428275
 20
-12.812781375909
 30
0.0
 10
47.55736262313692
 20
-12.8131001150583
 30
0.0
 10
47.55691503199109
 20
-12.81341207252358
 30
0.0
 10
47.55646744084525
 20
-12.81372402998886
 30
0.0
 10
47.55361913355359
 20
-12.81571784509303
 30
0.0
 10
47.55074369952581
 20
-12.8177387869333
 30
0.0
 10
47.54785470212997
 20
-12.81978685550969
 30
0.0
 10
47.39159113876192
 20
-12.70544766280136
 30
0.0
 10
47.21556574813692
 20
-12.61689243276664
 30
0.0
 10
47.0249597368522
 20
-12.557654422784
 30
0.0
 10
46.56224543563692
 20
-12.41303501089164
 30
0.0
 10
46.06286935056747
 20
-12.47181864804442
 30
0.0
 10
45.64585003633136
 20
-12.70822815325275
 30
0.0
 10
45.56022110295471
 20
-12.66012227760163
 30
0.0
 10
45.47195070364915
 20
-12.62043586267108
 30
0.0
 10
45.38205270017693
 20
-12.58883999678566
 30
0.0
 10
45.2481042681022
 20
-12.11760111874747
 30
0.0
 10
44.90884713377068
 20
-11.70945902890372
 30
0.0
 10
44.42172894258136
 20
-11.5057745399715
 30
0.0
 10
43.77149090547206
 20
-11.23389682729789
 30
0.0
 10
43.04670859752928
 20
-11.40505635963288
 30
0.0
 10
42.58337038138345
 20
-11.88144423126928
 30
0.0
 10
42.49408951115775
 20
-11.79580342994538
 30
0.0
 10
42.39392403806747
 20
-11.71873976349581
 30
0.0
 10
42.28319270126192
 20
-11.65259121748886
 30
0.0
 10
42.17763578936956
 20
-11.58953172855649
 30
0.0
 10
42.06789457843206
 20
-11.53962531579608
 30
0.0
 10
41.95588828502928
 20
-11.50214633901664
 30
0.0
 10
41.95929269041122
 20
-11.49415412438983
 30
0.0
 10
41.9626123247429
 20
-11.48629923886469
 30
0.0
 10
41.96602690265081
 20
-11.47828837460692
 30
0.0
 10
42.13708810056747
 20
-11.07698900394719
 30
0.0
 10
42.30858332626192
 20
-10.67976542538817
 30
0.0
 10
42.47583321775497
 20
-10.29750902347844
 30
0.0
 10
42.63837662053275
 20
-9.925906647176362
 30
0.0
 10
42.79978070039386
 20
-9.572051937974972
 30
0.0
 10
42.95567805282442
 20
-9.245588450561778
 30
0.0
 10
43.10665190265081
 20
-8.929277144138167
 30
0.0
 10
43.2393152056022
 20
-8.664642270006222
 30
0.0
 10
43.34997872556747
 20
-8.458967356811778
 30
0.0
 10
43.46385676376192
 20
-8.248735151950667
 30
0.0
 10
43.52790298772025
 20
-8.024505551256222
 30
0.0
 10
43.54596939397025
 20
-7.800201352037472
 30
0.0
 10
43.54596939397025
 20
-7.800201352037472
 30
0.0
 10
43.54598295733831
 20
-7.800058936672889
 30
0.0
 10
43.54598295733831
 20
-7.800058936672889
 30
0.0
 10
43.54605077417859
 20
-7.799326514797889
 30
0.0
 10
43.54609146428275
 20
-7.798695818183305
 30
0.0
 10
43.54615928112303
 20
-7.797963396308305
 30
0.0
 10
43.54617284449109
 20
-7.797753164103445
 30
0.0
 10
43.54618640785914
 20
-7.797536150214555
 30
0.0
 10
43.5461999712272
 20
-7.797325918009695
 30
0.0
 10
43.54624066133136
 20
-7.796796946655528
 30
0.0
 10
43.54628135143553
 20
-7.796274756985389
 30
0.0
 10
43.5463220415397
 20
-7.795745785631222
 30
0.0
 10
43.54636273164386
 20
-7.795379574693722
 30
0.0
 10
43.54638985837997
 20
-7.794952328599972
 30
0.0
 10
43.54641698511609
 20
-7.794586117662472
 30
0.0
 10
43.5464441118522
 20
-7.794213125040945
 30
0.0
 10
43.54647123858831
 20
-7.793853695787472
 30
0.0
 10
43.54649836532442
 20
-7.793487484849972
 30
0.0
 10
43.54655261879664
 20
-7.792911041707612
 30
0.0
 10
43.54657974553275
 20
-7.792402415405528
 30
0.0
 10
43.54663399900497
 20
-7.791825972263167
 30
0.0
 10
43.54664756237303
 20
-7.791615740058305
 30
0.0
 10
43.54664756237303
 20
-7.791486888061778
 30
0.0
 10
43.54667468910914
 20
-7.791276655856917
 30
0.0
 10
43.54672894258136
 20
-7.790544233981917
 30
0.0
 10
43.54678319605359
 20
-7.789805030422889
 30
0.0
 10
43.54683744952581
 20
-7.789065826863862
 30
0.0
 10
43.54683744952581
 20
-7.789065826863862
 30
0.0
 10
43.54683744952581
 20
-7.78903870012775
 30
0.0
 10
43.54683744952581
 20
-7.78903870012775
 30
0.0
 10
43.56091622556747
 20
-7.598181766534
 30
0.0
 10
43.54175118650497
 20
-7.407345177992333
 30
0.0
 10
43.49183799206053
 20
-7.225182363322195
 30
0.0
 10
43.4917566118522
 20
-7.224883969224972
 30
0.0
 10
43.49168879501192
 20
-7.224599138495805
 30
0.0
 10
43.49160741480359
 20
-7.224300744398583
 30
0.0
 10
43.49145821775497
 20
-7.223798899780528
 30
0.0
 10
43.49134971081053
 20
-7.223391998738862
 30
0.0
 10
43.49121407712997
 20
-7.222890154120805
 30
0.0
 10
43.49101062660914
 20
-7.222137387193722
 30
0.0
 10
43.49080717608831
 20
-7.221425310370805
 30
0.0
 10
43.49060372556747
 20
-7.220672543443722
 30
0.0
 10
43.49059016219942
 20
-7.220625071655528
 30
0.0
 10
43.49059016219942
 20
-7.2206182899715
 30
0.0
 10
43.49057659883136
 20
-7.220570818183305
 30
0.0
 10
43.41266861272025
 20
-6.939266564711083
 30
0.0
 10
43.26130142522025
 20
-6.678402306898583
 30
0.0
 10
43.04545398598414
 20
-6.469139882853445
 30
0.0
 10
43.04545398598414
 20
-6.469139882853445
 30
0.0
 10
43.04538616914386
 20
-6.469072066013167
 30
0.0
 10
43.04538616914386
 20
-6.469072066013167
 30
0.0
 10
43.04484363442164
 20
-6.468549876343028
 30
0.0
 10
43.04430109969942
 20
-6.468027686672889
 30
0.0
 10
43.04377212834525
 20
-6.46750549700275
 30
0.0
 10
43.04360936792859
 20
-6.467356299954139
 30
0.0
 10
43.04350086098414
 20
-6.467241011325667
 30
0.0
 10
43.04333810056747
 20
-6.467098595961083
 30
0.0
 10
43.04295832626192
 20
-6.466725603339555
 30
0.0
 10
43.04248360837997
 20
-6.466271230509695
 30
0.0
 10
43.04210383407442
 20
-6.465898237888167
 30
0.0
 10
43.04183256671331
 20
-6.465640533895112
 30
0.0
 10
43.04153417261609
 20
-6.465348921481917
 30
0.0
 10
43.04126290525497
 20
-6.465091217488862
 30
0.0
 10
43.04099163789386
 20
-6.464826731811778
 30
0.0
 10
43.04067968042859
 20
-6.464528337714555
 30
0.0
 10
43.04040841306747
 20
-6.464263852037472
 30
0.0
 10
43.04002863876192
 20
-6.463897641099972
 30
0.0
 10
43.03955392087997
 20
-6.463443268270112
 30
0.0
 10
43.03916058320636
 20
-6.463070275648583
 30
0.0
 10
43.03905207626192
 20
-6.462961768704139
 30
0.0
 10
43.03886218910914
 20
-6.462778663235389
 30
0.0
 10
43.03874011879664
 20
-6.462670156290945
 30
0.0
 10
43.03819758407442
 20
-6.462147966620805
 30
0.0
 10
43.03762792261609
 20
-6.461598650214555
 30
0.0
 10
43.03708538789386
 20
-6.461083242228445
 30
0.0
 10
43.03708538789386
 20
-6.461083242228445
 30
0.0
 10
43.03703113442164
 20
-6.461028988756222
 30
0.0
 10
43.03703113442164
 20
-6.461028988756222
 30
0.0
 10
42.93363757973414
 20
-6.362192725735389
 30
0.0
 10
42.81569053112303
 20
-6.27512268450275
 30
0.0
 10
42.6842614946647
 20
-6.20322327044025
 30
0.0
 10
42.68186077851886
 20
-6.201907623738862
 30
0.0
 10
42.67952787921331
 20
-6.200632667141639
 30
0.0
 10
42.67711359969942
 20
-6.199330583808305
 30
0.0
 10
42.6770593462272
 20
-6.199303457072195
 30
0.0
 10
42.67703221949109
 20
-6.199283112020112
 30
0.0
 10
42.67697796601886
 20
-6.199262766968028
 30
0.0
 10
42.67673382539386
 20
-6.199127133287472
 30
0.0
 10
42.67662531844942
 20
-6.199066098131222
 30
0.0
 10
42.67638117782442
 20
-6.198937246134695
 30
0.0
 10
42.44676692001192
 20
-6.074845991794417
 30
0.0
 10
42.20068673337997
 20
-6.010196197957612
 30
0.0
 10
41.95584081324109
 20
-5.999894819919417
 30
0.0
 10
41.95573230629664
 20
-5.999888038235389
 30
0.0
 10
41.95556954587997
 20
-5.999881256551362
 30
0.0
 10
41.95546103893553
 20
-5.999881256551362
 30
0.0
 10
41.95509482799803
 20
-5.999860911499278
 30
0.0
 10
41.95474218042859
 20
-5.999847348131222
 30
0.0
 10
41.95437596949109
 20
-5.999833784763167
 30
0.0
 10
41.95388768824109
 20
-5.999813439711084
 30
0.0
 10
41.95339940699109
 20
-5.999786312974972
 30
0.0
 10
41.95295181584525
 20
-5.999772749606917
 30
0.0
 10
41.9524499712272
 20
-5.999752404554834
 30
0.0
 10
41.9519616899772
 20
-5.99973205950275
 30
0.0
 10
41.95150053546331
 20
-5.999718496134695
 30
0.0
 10
41.95109363442164
 20
-5.999698151082612
 30
0.0
 10
41.95080880369247
 20
-5.999691369398584
 30
0.0
 10
41.95040190265081
 20
-5.9996710243465
 30
0.0
 10
41.95029339570636
 20
-5.9996710243465
 30
0.0
 10
41.95014419865775
 20
-5.999664242662472
 30
0.0
 10
41.95003569171331
 20
-5.999657460978445
 30
0.0
 10
41.74568998858831
 20
-5.991777144138167
 30
0.0
 10
41.54222590438692
 20
-6.021738624172889
 30
0.0
 10
41.35033137313692
 20
-6.0865850868465
 30
0.0
 10
41.35033137313692
 20
-6.0865850868465
 30
0.0
 10
41.35030424640081
 20
-6.086591868530528
 30
0.0
 10
41.35030424640081
 20
-6.086591868530528
 30
0.0
 10
41.34976171167859
 20
-6.086774973999278
 30
0.0
 10
41.34928699379664
 20
-6.086937734415945
 30
0.0
 10
41.34874445907442
 20
-6.087120839884695
 30
0.0
 10
41.34870376897025
 20
-6.08713440325275
 30
0.0
 10
41.3486902056022
 20
-6.087141184936778
 30
0.0
 10
41.34863595212997
 20
-6.087154748304834
 30
0.0
 10
41.3482019243522
 20
-6.087303945353445
 30
0.0
 10
41.34767295299803
 20
-6.087480269138167
 30
0.0
 10
41.34723892522025
 20
-6.087636247870805
 30
0.0
 10
41.34714398164386
 20
-6.087670156290945
 30
0.0
 10
41.34694053112303
 20
-6.087731191447195
 30
0.0
 10
41.34684558754664
 20
-6.087765099867334
 30
0.0
 10
41.34645224987303
 20
-6.087900733547889
 30
0.0
 10
41.34607247556747
 20
-6.088029585544417
 30
0.0
 10
41.34567913789386
 20
-6.088165219224972
 30
0.0
 10
41.34547568737303
 20
-6.08823303606525
 30
0.0
 10
41.34531292695636
 20
-6.088287289537472
 30
0.0
 10
41.34512303980359
 20
-6.08835510637775
 30
0.0
 10
41.34482464570636
 20
-6.088456831638167
 30
0.0
 10
41.34444487140081
 20
-6.088585683634695
 30
0.0
 10
41.34414647730359
 20
-6.088687408895112
 30
0.0
 10
41.34384808320636
 20
-6.088789134155528
 30
0.0
 10
41.3436853227897
 20
-6.088850169311778
 30
0.0
 10
41.34338692869247
 20
-6.088945112888167
 30
0.0
 10
41.34308853459525
 20
-6.089046838148584
 30
0.0
 10
41.34287152070636
 20
-6.089128218356917
 30
0.0
 10
41.34257312660914
 20
-6.089229943617334
 30
0.0
 10
41.34227473251192
 20
-6.08933166887775
 30
0.0
 10
41.34194921167859
 20
-6.089440175822195
 30
0.0
 10
41.34165081758136
 20
-6.089541901082612
 30
0.0
 10
41.34144736706053
 20
-6.089609717922889
 30
0.0
 10
41.3412439165397
 20
-6.089684316447195
 30
0.0
 10
41.34105402938692
 20
-6.089752133287472
 30
0.0
 10
41.34066069171331
 20
-6.089887766968028
 30
0.0
 10
41.34032160751192
 20
-6.0900030555965
 30
0.0
 10
41.33992826983831
 20
-6.090138689277055
 30
0.0
 10
41.3397790727897
 20
-6.09018616106525
 30
0.0
 10
41.33962987574109
 20
-6.090240414537472
 30
0.0
 10
41.33948067869247
 20
-6.090294668009695
 30
0.0
 10
41.33903308754664
 20
-6.090443865058305
 30
0.0
 10
41.33861262313692
 20
-6.090593062106917
 30
0.0
 10
41.33817859535914
 20
-6.090742259155528
 30
0.0
 10
41.33812434188692
 20
-6.090762604207612
 30
0.0
 10
41.33800227157442
 20
-6.090803294311778
 30
0.0
 10
41.3379480181022
 20
-6.090823639363862
 30
0.0
 10
41.33740548337997
 20
-6.091006744832612
 30
0.0
 10
41.33698501897025
 20
-6.091155941881222
 30
0.0
 10
41.33644248424803
 20
-6.091345829034
 30
0.0
 10
41.33644248424803
 20
-6.091345829034
 30
0.0
 10
41.33640179414386
 20
-6.091359392402055
 30
0.0
 10
41.33640179414386
 20
-6.091359392402055
 30
0.0
 10
41.23639908147025
 20
-6.1261358680965
 30
0.0
 10
41.13955663355359
 20
-6.170433828165945
 30
0.0
 10
41.0474206743522
 20
-6.223805681464555
 30
0.0
 10
41.00826323077581
 20
-6.199493344224972
 30
0.0
 10
40.96781726723414
 20
-6.17661194231525
 30
0.0
 10
40.92606922035914
 20
-6.155229292575667
 30
0.0
 10
40.37101211857971
 20
-5.871042823391639
 30
0.0
 10
39.73114327634872
 20
-5.928232764797889
 30
0.0
 10
39.24565608016817
 20
-6.24936245772316
 30
0.0
 10
38.8995019731804
 20
-6.031049876343028
 30
0.0
 10
38.48211983884872
 20
-5.94681118819191
 30
0.0
 10
38.0775245697515
 20
-6.015038320353445
 30
0.0
 10
38.00085763181747
 20
-5.594322988322195
 30
0.0
 10
37.76338340221678
 20
-5.203107981811778
 30
0.0
 10
37.38379220212997
 20
-4.941470612020112
 30
0.0
 10
36.63087607799803
 20
-4.422509023478445
 30
0.0
 10
35.60035849987303
 20
-4.607147152818722
 30
0.0
 10
35.07445246688692
 20
-5.355268626343028
 30
0.0
 10
34.90714832192164
 20
-5.593258263929834
 30
0.0
 10
34.74555435490775
 20
-5.876630931030528
 30
0.0
 10
34.58084759492512
 20
-6.220909902384695
 30
0.0
 10
34.25052532930012
 20
-6.376847944919417
 30
0.0
 10
33.92387195473414
 20
-6.580569733113862
 30
0.0
 10
33.60659086749456
 20
-6.828765805162472
 30
0.0
 10
33.379160311939
 20
-7.006688371894281
 30
0.0
 10
33.15917604544595
 20
-7.199427222805664
 30
0.0
 10
32.94909981931747
 20
-7.404412099650244
 30
0.0
 10
32.93037219887484
 20
-7.321100806790114
 30
0.0
 10
32.906015780689
 20
-7.239118723999278
 30
0.0
 10
32.87602039223414
 20
-7.158701514797889
 30
0.0
 10
32.75893461749456
 20
-6.844790924520112
 30
0.0
 10
32.558603671314
 20
-6.567942237454139
 30
0.0
 10
32.29668147079317
 20
-6.358076243530528
 30
0.0
 10
32.29575238008137
 20
-6.357330258287472
 30
0.0
 10
32.29481650768553
 20
-6.356584273044417
 30
0.0
 10
32.29388741697372
 20
-6.355838287801362
 30
0.0
 10
32.00413996688692
 20
-6.124698151082612
 30
0.0
 10
31.50146120169595
 20
-5.869401655856917
 30
0.0
 10
30.75230891219942
 20
-5.965721914103445
 30
0.0
 10
30.353525546314
 20
-6.016815121568722
 30
0.0
 10
29.96975004718206
 20
-6.138649770548719
 30
0.0
 10
29.61053441675679
 20
-6.327758725084272
 30
0.0
 10
29.45509143715609
 20
-6.214543596503581
 30
0.0
 10
29.28039186575845
 20
-6.126568200453309
 30
0.0
 10
29.09111506454317
 20
-6.067718441881222
 30
0.0
 10
28.62837363659178
 20
-5.923024431464555
 30
0.0
 10
28.12887548120984
 20
-5.981821631985389
 30
0.0
 10
27.71182904023761
 20
-6.218244700561778
 30
0.0
 10
27.33656794540262
 20
-6.007437747979275
 30
0.0
 10
26.91084603513775
 20
-5.957400787801362
 30
0.0
 10
26.51801190156581
 20
-6.049055247436778
 30
0.0
 10
26.50705270017693
 20
-6.031131256551362
 30
0.0
 10
26.49600533689568
 20
-6.013259823717198
 30
0.0
 10
26.48466297035914
 20
-5.995574887193722
 30
0.0
 10
26.24266535751192
 20
-5.618845557766639
 30
0.0
 10
25.91960627548067
 20
-5.31369690325275
 30
0.0
 10
25.52378650551539
 20
-5.088219472697195
 30
0.0
 10
25.11992365829317
 20
-4.858422109415945
 30
0.0
 10
24.65145170733831
 20
-4.736982493530528
 30
0.0
 10
24.13139148598414
 20
-4.72727112200275
 30
0.0
 10
24.12811593259872
 20
-4.7272100868465
 30
0.0
 10
24.12484037921331
 20
-4.727155833374278
 30
0.0
 10
24.12157160751192
 20
-4.727115143270112
 30
0.0
 10
23.5629236040397
 20
-4.719919776516639
 30
0.0
 10
23.01012819388345
 20
-4.823143789103445
 30
0.0
 10
22.47785415959525
 20
-5.033843930162472
 30
0.0
 10
21.98905750160914
 20
-5.227427100735389
 30
0.0
 10
21.53264338485567
 20
-5.496056386759695
 30
0.0
 10
21.12099516436956
 20
-5.832509294745805
 30
0.0
 10
20.71419584796331
 20
-6.165157677992334
 30
0.0
 10
20.35614327634872
 20
-6.561540327731917
 30
0.0
 10
20.05697606714734
 20
-7.010365740058305
 30
0.0
 10
19.74962336532442
 20
-7.471269331638167
 30
0.0
 10
19.52059911402234
 20
-7.974226145874278
 30
0.0
 10
19.37622384275497
 20
-8.505347293877751
 30
0.0
 10
19.2655603227897
 20
-8.909501753513167
 30
0.0
 10
19.20450482148761
 20
-9.329783057766639
 30
0.0
 10
19.19477310490775
 20
-9.754560618530528
 30
0.0
 10
19.19397286619247
 20
-9.789615143270112
 30
0.0
 10
19.19357274683484
 20
-9.824534034329139
 30
0.0
 10
19.19358631020289
 20
-9.859310510023583
 30
0.0
 10
19.19368803546331
 20
-10.30574876957219
 30
0.0
 10
19.26056900334525
 20
-10.72862067712428
 30
0.0
 10
19.39268298989039
 20
-11.11757738285344
 30
0.0
 10
19.56905424640081
 20
-11.63702725264511
 30
0.0
 10
19.86378623424803
 20
-12.07743659509303
 30
0.0
 10
20.26822552461261
 20
-12.42617113285344
 30
0.0
 10
20.5987648041265
 20
-12.71138841800969
 30
0.0
 10
21.17523507322372
 20
-13.05412794708955
 30
0.0
 10
22.04445029674803
 20
-13.06718268884303
 30
0.0
 10
22.0527917681022
 20
-13.06731154083955
 30
0.0
 10
22.06114002114039
 20
-13.0673725759958
 30
0.0
 10
22.06948827417859
 20
-13.0673725759958
 30
0.0
 10
22.591318515064
 20
-13.0673725759958
 30
0.0
 10
23.08903986923067
 20
-12.98854906254094
 30
0.0
 10
23.54903471515081
 20
-12.83301113936386
 30
0.0
 10
23.70984200681747
 20
-12.77861525177705
 30
0.0
 10
23.86675322101026
 20
-12.71499966475441
 30
0.0
 10
24.01947674531582
 20
-12.64283915585692
 30
0.0
 10
24.09726605195636
 20
-12.70817389978053
 30
0.0
 10
24.18188112357095
 20
-12.76736613339593
 30
0.0
 10
24.27329144258136
 20
-12.81894592669025
 30
0.0
 10
24.79355511445636
 20
-13.11250468320067
 30
0.0
 10
25.40969823511609
 20
-13.09767992191594
 30
0.0
 10
25.90207562226886
 20
-12.82441874570067
 30
0.0
 10
26.1138269243522
 20
-13.00912469188122
 30
0.0
 10
26.37519980846678
 20
-13.14269674049233
 30
0.0
 10
26.67051502114039
 20
-13.20162279300969
 30
0.0
 10
26.78059531627928
 20
-13.22358188589164
 30
0.0
 10
26.89028227374456
 20
-13.23415453129094
 30
0.0
 10
26.99840266219942
 20
-13.23415453129094
 30
0.0
 10
27.35681466306747
 20
-13.23415453129094
 30
0.0
 10
27.69770279240775
 20
-13.11787577695067
 30
0.0
 10
27.97671822752068
 20
-12.91511020620414
 30
0.0
 10
28.04417224770289
 20
-12.94794203400357
 30
0.0
 10
28.11384218314122
 20
-12.97747626794454
 30
0.0
 10
28.1855873138922
 20
-13.00361796445067
 30
0.0
 10
28.06601096569331
 20
-13.08445902890372
 30
0.0
 10
27.95358251245984
 20
-13.16261454648192
 30
0.0
 10
27.84924630369247
 20
-13.23749111983261
 30
0.0
 10
27.62915353025497
 20
-13.39545010420761
 30
0.0
 10
27.4161950884147
 20
-13.55982456167289
 30
0.0
 10
27.21626426159178
 20
-13.72603007382567
 30
0.0
 10
27.0094093353765
 20
-13.89800001740205
 30
0.0
 10
26.80258831758136
 20
-14.0858051931833
 30
0.0
 10
26.60191828719942
 20
-14.28388462026664
 30
0.0
 10
26.41561864527234
 20
-14.46766147573539
 30
0.0
 10
26.20662070690428
 20
-14.68513651913817
 30
0.0
 10
25.98074993867511
 20
-14.93027405169025
 30
0.0
 10
25.97773887096678
 20
-14.93353604170761
 30
0.0
 10
25.9747413666265
 20
-14.93681159509303
 30
0.0
 10
25.97176420733831
 20
-14.9401007118465
 30
0.0
 10
25.71652874726886
 20
-15.22157450741942
 30
0.0
 10
25.50255305282442
 20
-15.51398715932914
 30
0.0
 10
25.33552017522025
 20
-15.80969570967636
 30
0.0
 10
25.16329252765081
 20
-16.11482401913817
 30
0.0
 10
25.03901138615775
 20
-16.40408318797497
 30
0.0
 10
24.9554542572515
 20
-16.69440708120414
 30
0.0
 10
24.86703466089734
 20
-17.00192932512775
 30
0.0
 10
24.82383533364039
 20
-17.28369473311386
 30
0.0
 10
24.82380820690428
 20
-17.55388380646455
 30
0.0
 10
24.82380820690428
 20
-17.57070238285344
 30
0.0
 10
24.82397096732095
 20
-17.58747348745414
 30
0.0
 10
24.82430326983831
 20
-17.60420390195067
 30
0.0
 10
24.82430326983831
 20
-17.60420390195067
 30
0.0
 10
24.82431005152234
 20
-17.60420390195067
 30
0.0
 10
24.82431005152234
 20
-17.60420390195067
 30
0.0
 10
24.83794123641817
 20
-18.30281908207219
 30
0.0
 10
25.13591486923067
 20
-18.7438116493465
 30
0.0
 10
25.38358196992511
 20
-18.99084127174233
 30
0.0
 10
25.40635486489039
 20
-19.01355313155136
 30
0.0
 10
25.42977880152234
 20
-19.03560716800969
 30
0.0
 10
25.45382665308484
 20
-19.05696269101317
 30
0.0
 10
25.65485611272025
 20
-19.23549730472844
 30
0.0
 10
25.89452082626192
 20
-19.3749151649715
 30
0.0
 10
26.16744969995984
 20
-19.4717915213083
 30
0.0
 10
26.39148263181747
 20
-19.55111009769719
 30
0.0
 10
26.63063871905706
 20
-19.59093892799233
 30
0.0
 10
26.88154746471678
 20
-19.5909321463083
 30
0.0
 10
26.983652499439
 20
-19.5909321463083
 30
0.0
 10
27.08771065916122
 20
-19.5843403494333
 30
0.0
 10
27.19347780325845
 20
-19.57112284726317
 30
0.0
 10
27.38410415959525
 20
-19.54729200958955
 30
0.0
 10
27.57620892305011
 20
-19.49965746097844
 30
0.0
 10
27.77449180065428
 20
-19.42676792104789
 30
0.0
 10
28.26125395343206
 20
-19.61391018721542
 30
0.0
 10
28.78540013941304
 20
-19.55696353872367
 30
0.0
 10
29.20762100529845
 20
-19.31257962080917
 30
0.0
 10
29.45185996471678
 20
-19.44106201555744
 30
0.0
 10
29.71783422144429
 20
-19.50413337243678
 30
0.0
 10
29.9823571977897
 20
-19.50413337243678
 30
0.0
 10
30.40845040525497
 20
-19.50413337243678
 30
0.0
 10
30.83054241914386
 20
-19.34102030820067
 30
0.0
 10
31.15080744735567
 20
-19.02643154952011
 30
0.0
 10
31.39378162270289
 20
-18.7877569618465
 30
0.0
 10
31.61066665959525
 20
-18.57839959422497
 30
0.0
 10
31.79503352157442
 20
-18.40455790585692
 30
0.0
 10
31.959482577564
 20
-18.24959642582219
 30
0.0
 10
32.10848295733831
 20
-18.11723829865205
 30
0.0
 10
32.23740277070637
 20
-18.01157287981525
 30
0.0
 10
32.26557727699984
 20
-17.98849989533174
 30
0.0
 10
32.29296510794595
 20
-17.96656284292289
 30
0.0
 10
32.31954930933484
 20
-17.94574392066811
 30
0.0
 10
32.40419150768553
 20
-18.45028001957219
 30
0.0
 10
32.64290339462137
 20
-18.78680922150362
 30
0.0
 10
32.84746272079317
 20
-18.99084127174233
 30
0.0
 10
32.87023561575845
 20
-19.01355313155136
 30
0.0
 10
32.89365955239039
 20
-19.03560716800969
 30
0.0
 10
32.91770740395289
 20
-19.05696269101317
 30
0.0
 10
33.11873686358831
 20
-19.23549730472844
 30
0.0
 10
33.35840157712997
 20
-19.3749151649715
 30
0.0
 10
33.63133045082789
 20
-19.4717915213083
 30
0.0
 10
33.85536338268553
 20
-19.55111009769719
 30
0.0
 10
34.09451946992512
 20
-19.59093892799233
 30
0.0
 10
34.34542821558484
 20
-19.5909321463083
 30
0.0
 10
34.44753325030706
 20
-19.5909321463083
 30
0.0
 10
34.55159141002928
 20
-19.5843403494333
 30
0.0
 10
34.6573585541265
 20
-19.57112284726317
 30
0.0
 10
34.84798491046331
 20
-19.54729200958955
 30
0.0
 10
35.04008967391817
 20
-19.49965746097844
 30
0.0
 10
35.23837255152234
 20
-19.42676792104789
 30
0.0
 10
36.07344877765081
 20
-19.74782640629094
 30
0.0
 10
37.01872058754664
 20
-19.35072489804442
 30
0.0
 10
37.37022883407442
 20
-18.52065355472844
 30
0.0
 10
37.45125639483831
 20
-18.32931512156872
 30
0.0
 10
37.52584135577581
 20
-18.15338467452011
 30
0.0
 10
37.59388877331053
 20
-17.99285543189858
 30
0.0
 10
37.59388877331053
 20
-17.99285543189858
 30
0.0
 10
37.6448327837272
 20
-17.87267720924233
 30
0.0
 10
37.6448327837272
 20
-17.87267720924233
 30
0.0
 10
37.65676854761609
 20
-18.43407349016681
 30
0.0
 10
37.9527246294304
 20
-18.96627716448322
 30
0.0
 10
38.4540368852897
 20
-19.26684902998886
 30
0.0
 10
38.7200280962272
 20
-19.42632711158608
 30
0.0
 10
39.01622492782442
 20
-19.50413337243678
 30
0.0
 10
39.31057714136609
 20
-19.50413337243678
 30
0.0
 10
39.70709542478622
 20
-19.50413337243678
 30
0.0
 10
40.10013470430011
 20
-19.36278442766681
 30
0.0
 10
40.41088502982095
 20
-19.08963938779051
 30
0.0
 10
40.55309694388345
 20
-19.22389892961994
 30
0.0
 10
40.72131322535053
 20
-19.33540337840466
 30
0.0
 10
40.91245159883136
 20
-19.41525262156872
 30
0.0
 10
41.12241253633136
 20
-19.50296014109997
 30
0.0
 10
41.34007746688692
 20
-19.54449117408608
 30
0.0
 10
41.55421592174803
 20
-19.54448439240205
 30
0.0
 10
41.81906102808484
 20
-19.54447930613903
 30
0.0
 10
42.07848078719942
 20
-19.48093916535127
 30
0.0
 10
42.3110925493522
 20
-19.36265303253877
 30
0.0
 10
42.88779678654846
 20
-19.63723494171846
 30
0.0
 10
43.56020414874456
 20
-19.55329549537515
 30
0.0
 10
44.04843792695636
 20
-19.17428582469372
 30
0.0
 10
44.17307171601886
 20
-19.27622131731525
 30
0.0
 10
44.31422568737303
 20
-19.36139248702011
 30
0.0
 10
44.46947199813692
 20
-19.42528951392983
 30
0.0
 10
44.93837119518553
 20
-19.61825555125622
 30
0.0
 10
45.45243640785914
 20
-19.58283481557914
 30
0.0
 10
45.87751236272025
 20
-19.36032098094372
 30
0.0
 10
46.05843412921331
 20
-19.48218784292289
 30
0.0
 10
46.26640125160914
 20
-19.57034295359997
 30
0.0
 10
46.49417089136609
 20
-19.614050907159
 30
0.0
 10
46.60031780976886
 20
-19.63442308597844
 30
0.0
 10
46.70590863008136
 20
-19.64422940108261
 30
0.0
 10
46.81014311358831
 20
-19.64422940108261
 30
0.0
 10
47.13938370061096
 20
-19.64422940108261
 30
0.0
 10
47.45359946666998
 20
-19.54611538741074
 30
0.0
 10
47.71867175942164
 20
-19.37319176951794
 30
0.0
 10
47.85328818737303
 20
-19.44432315786429
 30
0.0
 10
47.99732776528109
 20
-19.50192423886473
 30
0.0
 10
48.14952570907442
 20
-19.54507439891247
 30
0.0
 10
48.38333104761609
 20
-19.61425435767983
 30
0.0
 10
48.62093412921331
 20
-19.6487934744333
 30
0.0
 10
48.85716731063692
 20
-19.6487934744333
 30
0.0
 10
49.13573176376192
 20
-19.6487934744333
 30
0.0
 10
49.41237021862303
 20
-19.60075202478053
 30
0.0
 10
49.6784021196647
 20
-19.5047979774715
 30
0.0
 10
50.0230066118522
 20
-19.3802862587215
 30
0.0
 10
50.34471613876192
 20
-19.1934712088083
 30
0.0
 10
50.63404990612303
 20
-18.94999518884303
 30
0.0
 10
50.86205012313692
 20
-18.75829732642983
 30
0.0
 10
51.07336739744247
 20
-18.53830627825275
 30
0.0
 10
51.26231867782442
 20
-18.29592210941594
 30
0.0
 10
51.39694866914386
 20
-18.12316549049233
 30
0.0
 10
51.52041600855358
 20
-17.95669549266247
 30
0.0
 10
51.62930272730358
 20
-17.80115078780136
 30
0.0
 10
51.83292957192164
 20
-17.51027079648192
 30
0.0
 10
51.9307214556022
 20
-17.17696458988469
 30
0.0
 10
51.93074858233831
 20
-16.84694750004094
 30
0.0
 10
51.93077570907442
 20
-16.67181051002358
 30
0.0
 10
51.9032556352897
 20
-16.49760939240205
 30
0.0
 10
51.84940906410914
 20
-16.33115295794025
 30
0.0
 10
51.93294584796331
 20
-16.23957987851317
 30
0.0
 10
52.01212879067164
 20
-16.14648770186386
 30
0.0
 10
52.08637466740775
 20
-16.05254781471108
 30
0.0
 10
52.08637466740775
 20
-16.05254781471108
 30
0.0
 10
52.08638823077581
 20
-16.05254103302705
 30
0.0
 10
52.08638823077581
 20
-16.05254103302705
 30
0.0
  0
INSERT
  5
43
330
1F
100
AcDbEntity
  8
Layer 1
100
AcDbBlockReference
  2
block 2
 10
0.0
 20
0.0
 30
0.0
  0
ENDSEC
  0
SECTION
  2
OBJECTS
  0
DICTIONARY
  5
C
330
0
100
AcDbDictionary
281
     1
  3
ACAD_GROUP
350
D
  3
ACAD_LAYOUT
350
1A
  3
ACAD_MATERIAL
350
3B
  3
ACAD_MLEADERSTYLE
350
59
  3
ACAD_MLINESTYLE
350
17
  3
ACAD_PLOTSETTINGS
350
19
  3
ACAD_PLOTSTYLENAME
350
E
  3
ACAD_TABLESTYLE
350
58
  3
ACAD_VISUALSTYLE
350
2A
  0
SUN
  5
3F
330
29
100
AcDbSun
 90
        1
290
     0
 63
     7
421
 16777215
 40
1.0
291
     1
 91
  2455826
 92
 54000000
292
     0
 70
     2
 71
   256
280
     1
  0
DICTIONARY
  5
D
102
{ACAD_REACTORS
330
C
102
}
330
C
100
AcDbDictionary
281
     1
  0
DICTIONARY
  5
1A
102
{ACAD_REACTORS
330
C
102
}
330
C
100
AcDbDictionary
281
     1
  3
Layout1
350
1E
  3
Layout2
350
26
  3
Model
350
22
  0
DICTIONARY
  5
3B
102
{ACAD_REACTORS
330
C
102
}
330
C
100
AcDbDictionary
281
     1
  3
ByBlock
350
3D
  3
ByLayer
350
3C
  3
Global
350
3E
  0
DICTIONARY
  5
59
102
{ACAD_REACTORS
330
C
102
}
330
C
100
AcDbDictionary
281
     1
  0
DICTIONARY
  5
17
102
{ACAD_REACTORS
330
C
102
}
330
C
100
AcDbDictionary
281
     1
  3
Standard
350
18
  0
DICTIONARY
  5
19
102
{ACAD_REACTORS
330
C
102
}
330
C
100
AcDbDictionary
281
     1
  0
ACDBDICTIONARYWDFLT
  5
E
102
{ACAD_REACTORS
330
C
102
}
330
C
100
AcDbDictionary
281
     1
  3
Normal
350
F
100
AcDbDictionaryWithDefault
340
F
  0
DICTIONARY
  5
58
102
{ACAD_REACTORS
330
C
102
}
330
C
100
AcDbDictionary
281
     1
  0
DICTIONARY
  5
2A
102
{ACAD_REACTORS
330
C
102
}
330
C
100
AcDbDictionary
281
     1
  3
2dWireframe
350
2F
  3
3D Hidden
350
31
  3
3dWireframe
350
30
  3
Basic
350
32
  3
Brighten
350
36
  3
ColorChange
350
3A
  3
Conceptual
350
34
  3
Dim
350
35
  3
Facepattern
350
39
  3
Flat
350
2B
  3
FlatWithEdges
350
2C
  3
Gouraud
350
2D
  3
GouraudWithEdges
350
2E
  3
Linepattern
350
38
  3
Realistic
350
33
  3
Thicken
350
37
  0
LAYOUT
  5
1E
102
{ACAD_REACTORS
330
1A
102
}
330
1A
100
AcDbPlotSettings
  1

  2
none_device
  4

  6

 40
0.0
 41
0.0
 42
0.0
 43
0.0
 44
0.0
 45
0.0
 46
0.0
 47
0.0
 48
0.0
 49
0.0
140
0.0
141
0.0
142
1.0
143
1.0
 70
   688
 72
     0
 73
     0
 74
     5
  7

 75
    16
 76
     0
 77
     2
 78
   300
147
1.0
148
0.0
149
0.0
100
AcDbLayout
  1
Layout1
 70
     1
 71
     1
 10
0.0
 20
0.0
 11
12.0
 21
9.0
 12
0.0
 22
0.0
 32
0.0
 14
1.000000000000000E+20
 24
1.000000000000000E+20
 34
1.000000000000000E+20
 15
-1.000000000000000E+20
 25
-1.000000000000000E+20
 35
-1.000000000000000E+20
146
0.0
 13
0.0
 23
0.0
 33
0.0
 16
1.0
 26
0.0
 36
0.0
 17
0.0
 27
1.0
 37
0.0
 76
     0
330
1B
  0
LAYOUT
  5
26
102
{ACAD_REACTORS
330
1A
102
}
330
1A
100
AcDbPlotSettings
  1

  2
none_device
  4

  6

 40
0.0
 41
0.0
 42
0.0
 43
0.0
 44
0.0
 45
0.0
 46
0.0
 47
0.0
 48
0.0
 49
0.0
140
0.0
141
0.0
142
1.0
143
1.0
 70
   688
 72
     0
 73
     0
 74
     5
  7

 75
    16
 76
     0
 77
     2
 78
   300
147
1.0
148
0.0
149
0.0
100
AcDbLayout
  1
Layout2
 70
     1
 71
     2
 10
0.0
 20
0.0
 11
0.0
 21
0.0
 12
0.0
 22
0.0
 32
0.0
 14
0.0
 24
0.0
 34
0.0
 15
0.0
 25
0.0
 35
0.0
146
0.0
 13
0.0
 23
0.0
 33
0.0
 16
1.0
 26
0.0
 36
0.0
 17
0.0
 27
1.0
 37
0.0
 76
     0
330
23
  0
LAYOUT
  5
22
102
{ACAD_REACTORS
330
1A
102
}
330
1A
100
AcDbPlotSettings
  1

  2
none_device
  4

  6

 40
0.0
 41
0.0
 42
0.0
 43
0.0
 44
0.0
 45
0.0
 46
0.0
 47
0.0
 48
0.0
 49
0.0
140
0.0
141
0.0
142
1.0
143
1.0
 70
  1712
 72
     0
 73
     0
 74
     0
  7

 75
     0
 76
     0
 77
     2
 78
   300
147
1.0
148
0.0
149
0.0
100
AcDbLayout
  1
Model
 70
     1
 71
     0
 10
0.0
 20
0.0
 11
12.0
 21
9.0
 12
0.0
 22
0.0
 32
0.0
 14
1.000000000000000E+20
 24
1.000000000000000E+20
 34
1.000000000000000E+20
 15
-1.000000000000000E+20
 25
-1.000000000000000E+20
 35
-1.000000000000000E+20
146
0.0
 13
0.0
 23
0.0
 33
0.0
 16
1.0
 26
0.0
 36
0.0
 17
0.0
 27
1.0
 37
0.0
 76
     0
330
1F
331
29
  0
MATERIAL
  5
3D
102
{ACAD_REACTORS
330
3B
102
}
330
3B
100
AcDbMaterial
  1
ByBlock
 72
     1
 94
      127
  0
MATERIAL
  5
3C
102
{ACAD_REACTORS
330
3B
102
}
330
3B
100
AcDbMaterial
  1
ByLayer
 72
     1
 94
      127
  0
MATERIAL
  5
3E
102
{ACAD_REACTORS
330
3B
102
}
330
3B
100
AcDbMaterial
  1
Global
 72
     1
 94
      127
  0
MLINESTYLE
  5
18
102
{ACAD_REACTORS
330
17
102
}
330
17
100
AcDbMlineStyle
  2
Standard
 70
     0
  3

 62
   256
 51
90.0
 52
90.0
 71
     2
 49
0.5
 62
   256
  6
BYLAYER
 49
-0.5
 62
   256
  6
BYLAYER
  0
ACDBPLACEHOLDER
  5
F
102
{ACAD_REACTORS
330
E
102
}
330
E
  0
VISUALSTYLE
  5
2F
102
{ACAD_REACTORS
330
2A
102
}
330
2A
100
AcDbVisualStyle
  2
2dWireframe
 70
     4
177
     2
291
     0
 71
     0
176
     1
 72
     2
176
     1
 73
     0
176
     1
 90
        0
176
     1
 40
-0.6
176
     1
 41
-30.0
176
     1
 62
     5
 63
     7
421
 16777215
176
     1
 74
     1
176
     1
 91
        4
176
     1
 64
     7
176
     1
 65
   257
176
     1
 75
     1
176
     1
175
     1
176
     1
 42
1.0
176
     1
 92
        0
176
     1
 66
   257
176
     1
 43
1.0
176
     1
 76
     1
176
     1
 77
     6
176
     1
 78
     2
176
     1
 67
     7
176
     1
 79
     5
176
     1
170
     0
176
     1
171
     0
176
     1
290
     0
176
     1
 93
        1
176
     1
 44
0.0
176
     1
173
     0
176
     1
  0
VISUALSTYLE
  5
31
102
{ACAD_REACTORS
330
2A
102
}
330
2A
100
AcDbVisualStyle
  2
3D Hidden
 70
     6
177
     2
291
     0
 71
     1
176
     1
 72
     2
176
     1
 73
     2
176
     1
 90
        0
176
     1
 40
-0.6
176
     1
 41
-30.0
176
     1
 62
     5
 63
     7
421
 16777215
176
     1
 74
     2
176
     1
 91
        2
176
     1
 64
     7
176
     1
 65
   257
176
     1
 75
     2
176
     1
175
     1
176
     1
 42
40.0
176
     1
 92
        0
176
     1
 66
   257
176
     1
 43
1.0
176
     1
 76
     1
176
     1
 77
     6
176
     1
 78
     2
176
     1
 67
     7
176
     1
 79
     3
176
     1
170
     0
176
     1
171
     0
176
     1
290
     0
176
     1
 93
        1
176
     1
 44
0.0
176
     1
173
     0
176
     1
  0
VISUALSTYLE
  5
30
102
{ACAD_REACTORS
330
2A
102
}
330
2A
100
AcDbVisualStyle
  2
3dWireframe
 70
     5
177
     2
291
     0
 71
     0
176
     1
 72
     2
176
     1
 73
     0
176
     1
 90
        0
176
     1
 40
-0.6
176
     1
 41
-30.0
176
     1
 62
     5
 63
     7
421
 16777215
176
     1
 74
     1
176
     1
 91
        4
176
     1
 64
     7
176
     1
 65
   257
176
     1
 75
     1
176
     1
175
     1
176
     1
 42
1.0
176
     1
 92
        0
176
     1
 66
   257
176
     1
 43
1.0
176
     1
 76
     1
176
     1
 77
     6
176
     1
 78
     2
176
     1
 67
     7
176
     1
 79
     5
176
     1
170
     0
176
     1
171
     0
176
     1
290
     0
176
     1
 93
        1
176
     1
 44
0.0
176
     1
173
     0
176
     1
  0
VISUALSTYLE
  5
32
102
{ACAD_REACTORS
330
2A
102
}
330
2A
100
AcDbVisualStyle
  2
Basic
 70
     7
177
     2
291
     1
 71
     1
176
     1
 72
     0
176
     1
 73
     1
176
     1
 90
        0
176
     1
 40
-0.6
176
     1
 41
-30.0
176
     1
 62
     5
 63
     7
421
 16777215
176
     1
 74
     0
176
     1
 91
        4
176
     1
 64
     7
176
     1
 65
   257
176
     1
 75
     1
176
     1
175
     1
176
     1
 42
1.0
176
     1
 92
        8
176
     1
 66
     7
176
     1
 43
1.0
176
     1
 76
     1
176
     1
 77
     6
176
     1
 78
     2
176
     1
 67
     7
176
     1
 79
     5
176
     1
170
     0
176
     1
171
     0
176
     1
290
     0
176
     1
 93
        1
176
     1
 44
0.0
176
     1
173
     0
176
     1
  0
VISUALSTYLE
  5
36
102
{ACAD_REACTORS
330
2A
102
}
330
2A
100
AcDbVisualStyle
  2
Brighten
 70
    12
177
     2
291
     1
 71
     2
176
     1
 72
     2
176
     1
 73
     0
176
     1
 90
        0
176
     1
 40
-0.6
176
     1
 41
-30.0
176
     1
 62
     5
 63
     7
421
 16777215
176
     1
 74
     1
176
     1
 91
        4
176
     1
 64
     7
176
     1
 65
   257
176
     1
 75
     1
176
     1
175
     1
176
     1
 42
1.0
176
     1
 92
        8
176
     1
 66
     7
176
     1
 43
1.0
176
     1
 76
     1
176
     1
 77
     6
176
     1
 78
     2
176
     1
 67
     7
176
     1
 79
     5
176
     1
170
     0
176
     1
171
     0
176
     1
290
     0
176
     1
 93
        1
176
     1
 44
50.0
176
     1
173
     0
176
     1
  0
VISUALSTYLE
  5
3A
102
{ACAD_REACTORS
330
2A
102
}
330
2A
100
AcDbVisualStyle
  2
ColorChange
 70
    16
177
     2
291
     1
 71
     2
176
     1
 72
     2
176
     1
 73
     3
176
     1
 90
        0
176
     1
 40
-0.6
176
     1
 41
-30.0
176
     1
 62
     5
 63
     8
421
  8421504
176
     1
 74
     1
176
     1
 91
        4
176
     1
 64
     7
176
     1
 65
   257
176
     1
 75
     1
176
     1
175
     1
176
     1
 42
1.0
176
     1
 92
        8
176
     1
 66
     8
424
  8421504
176
     1
 43
1.0
176
     1
 76
     1
176
     1
 77
     6
176
     1
 78
     2
176
     1
 67
     7
176
     1
 79
     5
176
     1
170
     0
176
     1
171
     0
176
     1
290
     0
176
     1
 93
        1
176
     1
 44
0.0
176
     1
173
     0
176
     1
  0
VISUALSTYLE
  5
34
102
{ACAD_REACTORS
330
2A
102
}
330
2A
100
AcDbVisualStyle
  2
Conceptual
 70
     9
177
     2
291
     0
 71
     3
176
     1
 72
     2
176
     1
 73
     0
176
     1
 90
        0
176
     1
 40
-0.6
176
     1
 41
-30.0
176
     1
 62
     5
 63
     7
421
 16777215
176
     1
 74
     2
176
     1
 91
        2
176
     1
 64
     7
176
     1
 65
   257
176
     1
 75
     1
176
     1
175
     1
176
     1
 42
40.0
176
     1
 92
        8
176
     1
 66
     7
176
     1
 43
1.0
176
     1
 76
     1
176
     1
 77
     6
176
     1
 78
     2
176
     1
 67
     7
176
     1
 79
     3
176
     1
170
     0
176
     1
171
     0
176
     1
290
     0
176
     1
 93
        1
176
     1
 44
0.0
176
     1
173
     0
176
     1
  0
VISUALSTYLE
  5
35
102
{ACAD_REACTORS
330
2A
102
}
330
2A
100
AcDbVisualStyle
  2
Dim
 70
    11
177
     2
291
     1
 71
     2
176
     1
 72
     2
176
     1
 73
     0
176
     1
 90
        0
176
     1
 40
-0.6
176
     1
 41
-30.0
176
     1
 62
     5
 63
     7
421
 16777215
176
     1
 74
     1
176
     1
 91
        4
176
     1
 64
     7
176
     1
 65
   257
176
     1
 75
     1
176
     1
175
     1
176
     1
 42
1.0
176
     1
 92
        8
176
     1
 66
     7
176
     1
 43
1.0
176
     1
 76
     1
176
     1
 77
     6
176
     1
 78
     2
176
     1
 67
     7
176
     1
 79
     5
176
     1
170
     0
176
     1
171
     0
176
     1
290
     0
176
     1
 93
        1
176
     1
 44
-50.0
176
     1
173
     0
176
     1
  0
VISUALSTYLE
  5
39
102
{ACAD_REACTORS
330
2A
102
}
330
2A
100
AcDbVisualStyle
  2
Facepattern
 70
    15
177
     2
291
     1
 71
     2
176
     1
 72
     2
176
     1
 73
     0
176
     1
 90
        0
176
     1
 40
-0.6
176
     1
 41
-30.0
176
     1
 62
     5
 63
     7
421
 16777215
176
     1
 74
     1
176
     1
 91
        4
176
     1
 64
     7
176
     1
 65
   257
176
     1
 75
     1
176
     1
175
     1
176
     1
 42
1.0
176
     1
 92
        8
176
     1
 66
     7
176
     1
 43
1.0
176
     1
 76
     1
176
     1
 77
     6
176
     1
 78
     2
176
     1
 67
     7
176
     1
 79
     5
176
     1
170
     0
176
     1
171
     0
176
     1
290
     0
176
     1
 93
        1
176
     1
 44
0.0
176
     1
173
     0
176
     1
  0
VISUALSTYLE
  5
2B
102
{ACAD_REACTORS
330
2A
102
}
330
2A
100
AcDbVisualStyle
  2
Flat
 70
     0
177
     2
291
     1
 71
     2
176
     1
 72
     1
176
     1
 73
     1
176
     1
 90
        2
176
     1
 40
-0.6
176
     1
 41
30.0
176
     1
 62
     5
 63
     7
421
 16777215
176
     1
 74
     0
176
     1
 91
        4
176
     1
 64
     7
176
     1
 65
   257
176
     1
 75
     1
176
     1
175
     1
176
     1
 42
1.0
176
     1
 92
        8
176
     1
 66
     7
176
     1
 43
1.0
176
     1
 76
     1
176
     1
 77
     6
176
     1
 78
     2
176
     1
 67
     7
176
     1
 79
     5
176
     1
170
     0
176
     1
171
     0
176
     1
290
     0
176
     1
 93
       13
176
     1
 44
0.0
176
     1
173
     0
176
     1
  0
VISUALSTYLE
  5
2C
102
{ACAD_REACTORS
330
2A
102
}
330
2A
100
AcDbVisualStyle
  2
FlatWithEdges
 70
     1
177
     2
291
     1
 71
     2
176
     1
 72
     1
176
     1
 73
     1
176
     1
 90
        2
176
     1
 40
-0.6
176
     1
 41
30.0
176
     1
 62
     5
 63
     7
421
 16777215
176
     1
 74
     1
176
     1
 91
        4
176
     1
 64
     7
176
     1
 65
   257
176
     1
 75
     1
176
     1
175
     1
176
     1
 42
1.0
176
     1
 92
        0
176
     1
 66
   257
176
     1
 43
1.0
176
     1
 76
     1
176
     1
 77
     6
176
     1
 78
     2
176
     1
 67
     7
176
     1
 79
     5
176
     1
170
     0
176
     1
171
     0
176
     1
290
     0
176
     1
 93
       13
176
     1
 44
0.0
176
     1
173
     0
176
     1
  0
VISUALSTYLE
  5
2D
102
{ACAD_REACTORS
330
2A
102
}
330
2A
100
AcDbVisualStyle
  2
Gouraud
 70
     2
177
     2
291
     1
 71
     2
176
     1
 72
     2
176
     1
 73
     1
176
     1
 90
        2
176
     1
 40
-0.6
176
     1
 41
30.0
176
     1
 62
     5
 63
     7
421
 16777215
176
     1
 74
     0
176
     1
 91
        4
176
     1
 64
     7
176
     1
 65
   257
176
     1
 75
     1
176
     1
175
     1
176
     1
 42
1.0
176
     1
 92
        0
176
     1
 66
     7
176
     1
 43
1.0
176
     1
 76
     1
176
     1
 77
     6
176
     1
 78
     2
176
     1
 67
     7
176
     1
 79
     5
176
     1
170
     0
176
     1
171
     0
176
     1
290
     0
176
     1
 93
       13
176
     1
 44
0.0
176
     1
173
     0
176
     1
  0
VISUALSTYLE
  5
2E
102
{ACAD_REACTORS
330
2A
102
}
330
2A
100
AcDbVisualStyle
  2
GouraudWithEdges
 70
     3
177
     2
291
     1
 71
     2
176
     1
 72
     2
176
     1
 73
     1
176
     1
 90
        2
176
     1
 40
-0.6
176
     1
 41
30.0
176
     1
 62
     5
 63
     7
421
 16777215
176
     1
 74
     1
176
     1
 91
        4
176
     1
 64
     7
176
     1
 65
   257
176
     1
 75
     1
176
     1
175
     1
176
     1
 42
1.0
176
     1
 92
        0
176
     1
 66
   257
176
     1
 43
1.0
176
     1
 76
     1
176
     1
 77
     6
176
     1
 78
     2
176
     1
 67
     7
176
     1
 79
     5
176
     1
170
     0
176
     1
171
     0
176
     1
290
     0
176
     1
 93
       13
176
     1
 44
0.0
176
     1
173
     0
176
     1
  0
VISUALSTYLE
  5
38
102
{ACAD_REACTORS
330
2A
102
}
330
2A
100
AcDbVisualStyle
  2
Linepattern
 70
    14
177
     2
291
     1
 71
     2
176
     1
 72
     2
176
     1
 73
     0
176
     1
 90
        0
176
     1
 40
-0.6
176
     1
 41
-30.0
176
     1
 62
     5
 63
     7
421
 16777215
176
     1
 74
     1
176
     1
 91
        4
176
     1
 64
     7
176
     1
 65
   257
176
     1
 75
     7
176
     1
175
     7
176
     1
 42
1.0
176
     1
 92
        8
176
     1
 66
     7
176
     1
 43
1.0
176
     1
 76
     1
176
     1
 77
     6
176
     1
 78
     2
176
     1
 67
     7
176
     1
 79
     5
176
     1
170
     0
176
     1
171
     0
176
     1
290
     0
176
     1
 93
        1
176
     1
 44
0.0
176
     1
173
     0
176
     1
  0
VISUALSTYLE
  5
33
102
{ACAD_REACTORS
330
2A
102
}
330
2A
100
AcDbVisualStyle
  2
Realistic
 70
     8
177
     2
291
     0
 71
     2
176
     1
 72
     2
176
     1
 73
     0
176
     1
 90
        0
176
     1
 40
-0.6
176
     1
 41
-30.0
176
     1
 62
     5
 63
     7
421
 16777215
176
     1
 74
     1
176
     1
 91
        0
176
     1
 64
     7
176
     1
 65
   257
176
     1
 75
     1
176
     1
175
     1
176
     1
 42
1.0
176
     1
 92
        8
176
     1
 66
     8
424
  7895160
176
     1
 43
1.0
176
     1
 76
     1
176
     1
 77
     6
176
     1
 78
     2
176
     1
 67
     7
176
     1
 79
     5
176
     1
170
     0
176
     1
171
     0
176
     1
290
     0
176
     1
 93
       13
176
     1
 44
0.0
176
     1
173
     0
176
     1
  0
VISUALSTYLE
  5
37
102
{ACAD_REACTORS
330
2A
102
}
330
2A
100
AcDbVisualStyle
  2
Thicken
 70
    13
177
     2
291
     1
 71
     2
176
     1
 72
     2
176
     1
 73
     0
176
     1
 90
        0
176
     1
 40
-0.6
176
     1
 41
-30.0
176
     1
 62
     5
 63
     7
421
 16777215
176
     1
 74
     1
176
     1
 91
        4
176
     1
 64
     7
176
     1
 65
   257
176
     1
 75
     1
176
     1
175
     1
176
     1
 42
1.0
176
     1
 92
       12
176
     1
 66
     7
176
     1
 43
1.0
176
     1
 76
     1
176
     1
 77
     6
176
     1
 78
     2
176
     1
 67
     7
176
     1
 79
     5
176
     1
170
     0
176
     1
171
     0
176
     1
290
     0
176
     1
 93
        1
176
     1
 44
0.0
176
     1
173
     0
176
     1
  0
ENDSEC
  0
EOF
