  0
SECTION
  2
HEADER
  9
$ACADVER
  1
AC1009
  9
$DWGCODEPAGE
  3
ansi_1252
  9
$INSBASE
 10
0.0
 20
0.0
 30
0.0
  9
$EXTMIN
 10
1.788076377513412
 20
1.657497848537215
 30
0.0
  9
$EXTMAX
 10
3.785078640323799
 20
2.426723713655076
 30
0.0
  9
$LIMMIN
 10
0.0
 20
0.0
  9
$LIMMAX
 10
12.0
 20
9.0
  9
$ORTHOMODE
 70
     0
  9
$REGENMODE
 70
     1
  9
$FILLMODE
 70
     1
  9
$QTEXTMODE
 70
     0
  9
$MIRRTEXT
 70
     1
  9
$DRAGMODE
 70
     2
  9
$LTSCALE
 40
1.0
  9
$OSMODE
 70
    37
  9
$ATTMODE
 70
     1
  9
$TEXTSIZE
 40
0.2
  9
$TRACEWID
 40
0.05
  9
$TEXTSTYLE
  7
STANDARD
  9
$CLAYER
  8
0
  9
$CELTYPE
  6
BYLAYER
  9
$CECOLOR
 62
   256
  9
$DIMSCALE
 40
1.0
  9
$DIMASZ
 40
0.18
  9
$DIMEXO
 40
0.0625
  9
$DIMDLI
 40
0.38
  9
$DIMRND
 40
0.0
  9
$DIMDLE
 40
0.0
  9
$DIMEXE
 40
0.18
  9
$DIMTP
 40
0.0
  9
$DIMTM
 40
0.0
  9
$DIMTXT
 40
0.18
  9
$DIMCEN
 40
0.09
  9
$DIMTSZ
 40
0.0
  9
$DIMTOL
 70
     0
  9
$DIMLIM
 70
     0
  9
$DIMTIH
 70
     1
  9
$DIMTOH
 70
     1
  9
$DIMSE1
 70
     0
  9
$DIMSE2
 70
     0
  9
$DIMTAD
 70
     0
  9
$DIMZIN
 70
     0
  9
$DIMBLK
  1

  9
$DIMASO
 70
     1
  9
$DIMSHO
 70
     1
  9
$DIMPOST
  1

  9
$DIMAPOST
  1

  9
$DIMALT
 70
     0
  9
$DIMALTD
 70
     2
  9
$DIMALTF
 40
25.4
  9
$DIMLFAC
 40
1.0
  9
$DIMTOFL
 70
     0
  9
$DIMTVP
 40
0.0
  9
$DIMTIX
 70
     0
  9
$DIMSOXD
 70
     0
  9
$DIMSAH
 70
     0
  9
$DIMBLK1
  1

  9
$DIMBLK2
  1

  9
$DIMSTYLE
  2
STANDARD
  9
$DIMCLRD
 70
     0
  9
$DIMCLRE
 70
     0
  9
$DIMCLRT
 70
     0
  9
$DIMTFAC
 40
1.0
  9
$DIMGAP
 40
0.09
  9
$LUNITS
 70
     2
  9
$LUPREC
 70
     4
  9
$SKETCHINC
 40
0.1
  9
$FILLETRAD
 40
0.0
  9
$AUNITS
 70
     0
  9
$AUPREC
 70
     0
  9
$MENU
  1
.
  9
$ELEVATION
 40
0.0
  9
$PELEVATION
 40
0.0
  9
$THICKNESS
 40
0.0
  9
$LIMCHECK
 70
     0
  9
$CHAMFERA
 40
0.0
  9
$CHAMFERB
 40
0.0
  9
$SKPOLY
 70
     0
  9
$TDCREATE
 40
2454910.5
  9
$TDUPDATE
 40
2459565.456492628
  9
$TDINDWG
 40
0.0000000116
  9
$TDUSRTIMER
 40
0.0000000116
  9
$USRTIMER
 70
     1
  9
$ANGBASE
 50
0.0
  9
$ANGDIR
 70
     0
  9
$PDMODE
 70
     0
  9
$PDSIZE
 40
0.0
  9
$PLINEWID
 40
0.0
  9
$COORDS
 70
     1
  9
$SPLFRAME
 70
     0
  9
$SPLINETYPE
 70
     6
  9
$SPLINESEGS
 70
     8
  9
$ATTDIA
 70
     0
  9
$ATTREQ
 70
     1
  9
$HANDLING
 70
     1
  9
$HANDSEED
  5
C28
  9
$SURFTAB1
 70
     6
  9
$SURFTAB2
 70
     6
  9
$SURFTYPE
 70
     6
  9
$SURFU
 70
     6
  9
$SURFV
 70
     6
  9
$UCSNAME
  2

  9
$UCSORG
 10
0.0
 20
0.0
 30
0.0
  9
$UCSXDIR
 10
1.0
 20
0.0
 30
0.0
  9
$UCSYDIR
 10
0.0
 20
1.0
 30
0.0
  9
$PUCSNAME
  2

  9
$PUCSORG
 10
0.0
 20
0.0
 30
0.0
  9
$PUCSXDIR
 10
1.0
 20
0.0
 30
0.0
  9
$PUCSYDIR
 10
0.0
 20
1.0
 30
0.0
  9
$USERI1
 70
     0
  9
$USERI2
 70
     0
  9
$USERI3
 70
     0
  9
$USERI4
 70
     0
  9
$USERI5
 70
     0
  9
$USERR1
 40
0.0
  9
$USERR2
 40
0.0
  9
$USERR3
 40
0.0
  9
$USERR4
 40
0.0
  9
$USERR5
 40
0.0
  9
$WORLDVIEW
 70
     1
  9
$SHADEDGE
 70
     3
  9
$SHADEDIF
 70
    70
  9
$TILEMODE
 70
     1
  9
$MAXACTVP
 70
    64
  9
$PLIMCHECK
 70
     0
  9
$PEXTMIN
 10
1.000000000000000E+20
 20
1.000000000000000E+20
 30
1.000000000000000E+20
  9
$PEXTMAX
 10
-1.000000000000000E+20
 20
-1.000000000000000E+20
 30
-1.000000000000000E+20
  9
$PLIMMIN
 10
0.0
 20
0.0
  9
$PLIMMAX
 10
12.0
 20
9.0
  9
$UNITMODE
 70
     0
  9
$VISRETAIN
 70
     1
  9
$PLINEGEN
 70
     0
  9
$PSLTSCALE
 70
     1
  0
ENDSEC
  0
SECTION
  2
TABLES
  0
TABLE
  2
VPORT
 70
     1
  0
VPORT
  2
*ACTIVE
 70
     0
 10
0.0
 20
0.0
 11
1.0
 21
1.0
 12
10.42990654205607
 22
4.5
 13
0.0
 23
0.0
 14
0.5
 24
0.5
 15
0.5
 25
0.5
 16
0.0
 26
0.0
 36
1.0
 17
0.0
 27
0.0
 37
0.0
 40
9.0
 41
1.972972972850329
 42
50.0
 43
0.0
 44
0.0
 50
0.0
 51
0.0
 71
     0
 72
   100
 73
     1
 74
     3
 75
     0
 76
     0
 77
     0
 78
     0
  0
ENDTAB
  0
TABLE
  2
LTYPE
 70
     2
  0
LTYPE
  2
CONTINUOUS
 70
     0
  3
Solid line
 72
    65
 73
     0
 40
0.0
  0
LTYPE
  2
CONTINUOUS2
 70
     0
  3
Solid Line
 72
    65
 73
     0
 40
0.0
  0
ENDTAB
  0
TABLE
  2
LAYER
 70
     2
  0
LAYER
  2
0
 70
     0
 62
     7
  6
CONTINUOUS
  0
LAYER
  2
LAYER_1
 70
     0
 62
     7
  6
CONTINUOUS
  0
ENDTAB
  0
TABLE
  2
STYLE
 70
     1
  0
STYLE
  2
STANDARD
 70
     0
 40
0.0
 41
1.0
 50
0.0
 71
     0
 42
0.2
  3
txt
  4

  0
ENDTAB
  0
TABLE
  2
VIEW
 70
     0
  0
ENDTAB
  0
TABLE
  2
UCS
 70
     0
  0
ENDTAB
  0
TABLE
  2
APPID
 70
     1
  0
APPID
  2
ACAD
 70
     0
  0
ENDTAB
  0
TABLE
  2
DIMSTYLE
 70
     1
  0
DIMSTYLE
  2
STANDARD
 70
     0
  3

  4

  5

  6

  7

 40
1.0
 41
0.18
 42
0.0625
 43
0.38
 44
0.18
 45
0.0
 46
0.0
 47
0.0
 48
0.0
140
0.18
141
0.09
142
0.0
143
25.4
144
1.0
145
0.0
146
1.0
147
0.09
 71
     0
 72
     0
 73
     1
 74
     1
 75
     0
 76
     0
 77
     0
 78
     0
170
     0
171
     2
172
     0
173
     0
174
     0
175
     0
176
     0
177
     0
178
     0
  0
ENDTAB
  0
ENDSEC
  0
SECTION
  2
BLOCKS
  0
BLOCK
  8
0
  2
$MODEL_SPACE
 70
     0
 10
0.0
 20
0.0
 30
0.0
  3
$MODEL_SPACE
  1

  0
ENDBLK
  5
21
  8
0
  0
BLOCK
 67
     1
  8
0
  2
$PAPER_SPACE
 70
     0
 10
0.0
 20
0.0
 30
0.0
  3
$PAPER_SPACE
  1

  0
ENDBLK
  5
1D
 67
     1
  8
0
  0
ENDSEC
  0
SECTION
  2
ENTITIES
  0
POLYLINE
  5
60
  8
LAYER_1
 66
     1
 10
0.0
 20
0.0
 30
0.0
 70
     1
  0
VERTEX
  5
8F
  8
LAYER_1
 10
2.13948217987778
 20
1.700710774099823
 30
0.0
  0
VERTEX
  5
90
  8
LAYER_1
 10
2.149858406075126
 20
1.686705003759373
 30
0.0
  0
VERTEX
  5
91
  8
LAYER_1
 10
2.158056905786609
 20
1.676072574446044
 30
0.0
  0
VERTEX
  5
92
  8
LAYER_1
 10
2.160960541101092
 20
1.672955436534907
 30
0.0
  0
VERTEX
  5
93
  8
LAYER_1
 10
2.162455059277665
 20
1.672571131860931
 30
0.0
  0
VERTEX
  5
94
  8
LAYER_1
 10
2.163565272780261
 20
1.672571131860931
 30
0.0
  0
VERTEX
  5
95
  8
LAYER_1
 10
2.163565272780261
 20
1.669880999143101
 30
0.0
  0
VERTEX
  5
96
  8
LAYER_1
 10
2.157373697477318
 20
1.670179902778415
 30
0.0
  0
VERTEX
  5
97
  8
LAYER_1
 10
2.152249635157641
 20
1.669880999143101
 30
0.0
  0
VERTEX
  5
98
  8
LAYER_1
 10
2.137133651314595
 20
1.690291847383147
 30
0.0
  0
VERTEX
  5
99
  8
LAYER_1
 10
2.132756848083204
 20
1.695864265155795
 30
0.0
  0
VERTEX
  5
9A
  8
LAYER_1
 10
2.128081141216499
 20
1.701308581370452
 30
0.0
  0
VERTEX
  5
9B
  8
LAYER_1
 10
2.128508146409805
 20
1.702760399027694
 30
0.0
  0
VERTEX
  5
9C
  8
LAYER_1
 10
2.13218039107224
 20
1.702546896431041
 30
0.0
  0
VERTEX
  5
9D
  8
LAYER_1
 10
2.135552397708132
 20
1.702776411722443
 30
0.0
  0
VERTEX
  5
9E
  8
LAYER_1
 10
2.13853743088759
 20
1.703464957596649
 30
0.0
  0
VERTEX
  5
9F
  8
LAYER_1
 10
2.141135490610613
 20
1.70461253405366
 30
0.0
  0
VERTEX
  5
A0
  8
LAYER_1
 10
2.143346576877203
 20
1.706219141093476
 30
0.0
  0
VERTEX
  5
A1
  8
LAYER_1
 10
2.145111976473279
 20
1.708210052807267
 30
0.0
  0
VERTEX
  5
A2
  8
LAYER_1
 10
2.146372976184762
 20
1.710510543286205
 30
0.0
  0
VERTEX
  5
A3
  8
LAYER_1
 10
2.147129576011652
 20
1.71312061253029
 30
0.0
  0
VERTEX
  5
A4
  8
LAYER_1
 10
2.147381775953948
 20
1.716040260539523
 30
0.0
  0
VERTEX
  5
A5
  8
LAYER_1
 10
2.147168273357296
 20
1.718643657827463
 30
0.0
  0
VERTEX
  5
A6
  8
LAYER_1
 10
2.146527765567336
 20
1.72094548269763
 30
0.0
  0
VERTEX
  5
A7
  8
LAYER_1
 10
2.14546025258407
 20
1.722945735150025
 30
0.0
  0
VERTEX
  5
A8
  8
LAYER_1
 10
2.143965734407497
 20
1.724644415184647
 30
0.0
  0
VERTEX
  5
A9
  8
LAYER_1
 10
2.142068230079742
 20
1.725998822282166
 30
0.0
  0
VERTEX
  5
AA
  8
LAYER_1
 10
2.139791758642927
 20
1.726966255923251
 30
0.0
  0
VERTEX
  5
AB
  8
LAYER_1
 10
2.137136320097053
 20
1.727546716107902
 30
0.0
  0
VERTEX
  5
AC
  8
LAYER_1
 10
2.134101914442119
 20
1.727740202836119
 30
0.0
  0
VERTEX
  5
AD
  8
LAYER_1
 10
2.129607684782569
 20
1.727323872772645
 30
0.0
  0
VERTEX
  5
AE
  8
LAYER_1
 10
2.125092104863354
 20
1.726074882582224
 30
0.0
  0
VERTEX
  5
AF
  8
LAYER_1
 10
2.124579698631386
 20
1.711556706009806
 30
0.0
  0
VERTEX
  5
B0
  8
LAYER_1
 10
2.124579698631386
 20
1.690932355173107
 30
0.0
  0
VERTEX
  5
B1
  8
LAYER_1
 10
2.124761175838541
 20
1.679216400181762
 30
0.0
  0
VERTEX
  5
B2
  8
LAYER_1
 10
2.125305607460007
 20
1.674215101855161
 30
0.0
  0
VERTEX
  5
B3
  8
LAYER_1
 10
2.125871389341139
 20
1.673495864982685
 30
0.0
  0
VERTEX
  5
B4
  8
LAYER_1
 10
2.126842826155911
 20
1.672982124359488
 30
0.0
  0
VERTEX
  5
B5
  8
LAYER_1
 10
2.130002664586378
 20
1.672571131860931
 30
0.0
  0
VERTEX
  5
B6
  8
LAYER_1
 10
2.133333305094168
 20
1.672571131860931
 30
0.0
  0
VERTEX
  5
B7
  8
LAYER_1
 10
2.133333305094168
 20
1.669880999143101
 30
0.0
  0
VERTEX
  5
B8
  8
LAYER_1
 10
2.121590662278241
 20
1.670179902778415
 30
0.0
  0
VERTEX
  5
B9
  8
LAYER_1
 10
2.108310800766412
 20
1.669880999143101
 30
0.0
  0
VERTEX
  5
BA
  8
LAYER_1
 10
2.108310800766412
 20
1.672571131860931
 30
0.0
  0
VERTEX
  5
BB
  8
LAYER_1
 10
2.11151333971621
 20
1.672571131860931
 30
0.0
  0
VERTEX
  5
BC
  8
LAYER_1
 10
2.114438325290359
 20
1.672971449229656
 30
0.0
  0
VERTEX
  5
BD
  8
LAYER_1
 10
2.115340373761219
 20
1.673471845940562
 30
0.0
  0
VERTEX
  5
BE
  8
LAYER_1
 10
2.115868792687936
 20
1.67417240133583
 30
0.0
  0
VERTEX
  5
BF
  8
LAYER_1
 10
2.116381198919903
 20
1.679184374792264
 30
0.0
  0
VERTEX
  5
C0
  8
LAYER_1
 10
2.116552000997226
 20
1.691017756211768
 30
0.0
  0
VERTEX
  5
C1
  8
LAYER_1
 10
2.116552000997226
 20
1.711556706009806
 30
0.0
  0
VERTEX
  5
C2
  8
LAYER_1
 10
2.116354511095322
 20
1.721879556557988
 30
0.0
  0
VERTEX
  5
C3
  8
LAYER_1
 10
2.115762041389609
 20
1.726373786217538
 30
0.0
  0
VERTEX
  5
C4
  8
LAYER_1
 10
2.115144218250544
 20
1.727065000874203
 30
0.0
  0
VERTEX
  5
C5
  8
LAYER_1
 10
2.114080708440965
 20
1.727558725628963
 30
0.0
  0
VERTEX
  5
C6
  8
LAYER_1
 10
2.110616628810267
 20
1.727953705432772
 30
0.0
  0
VERTEX
  5
C7
  8
LAYER_1
 10
2.108310800766412
 20
1.727953705432772
 30
0.0
  0
VERTEX
  5
C8
  8
LAYER_1
 10
2.108310800766412
 20
1.730643838150602
 30
0.0
  0
VERTEX
  5
C9
  8
LAYER_1
 10
2.120437748256314
 20
1.730344934515288
 30
0.0
  0
VERTEX
  5
CA
  8
LAYER_1
 10
2.128550846929136
 20
1.730558437111941
 30
0.0
  0
VERTEX
  5
CB
  8
LAYER_1
 10
2.137389854430578
 20
1.730771939708594
 30
0.0
  0
VERTEX
  5
CC
  8
LAYER_1
 10
2.143885670933752
 20
1.730382297469702
 30
0.0
  0
VERTEX
  5
CD
  8
LAYER_1
 10
2.148598740754871
 20
1.729213370753026
 30
0.0
  0
VERTEX
  5
CE
  8
LAYER_1
 10
2.15196140665216
 20
1.727307860077896
 30
0.0
  0
VERTEX
  5
CF
  8
LAYER_1
 10
2.154406011383839
 20
1.724708465963643
 30
0.0
  0
VERTEX
  5
D0
  8
LAYER_1
 10
2.155895191995495
 20
1.721473901624347
 30
0.0
  0
VERTEX
  5
D1
  8
LAYER_1
 10
2.156391585532714
 20
1.717662880274087
 30
0.0
  0
VERTEX
  5
D2
  8
LAYER_1
 10
2.15612070411321
 20
1.714740563482397
 30
0.0
  0
VERTEX
  5
D3
  8
LAYER_1
 10
2.155308059854699
 20
1.711994386332945
 30
0.0
  0
VERTEX
  5
D4
  8
LAYER_1
 10
2.15395365275718
 20
1.709424348825732
 30
0.0
  0
VERTEX
  5
D5
  8
LAYER_1
 10
2.152057482820653
 20
1.707030450960758
 30
0.0
  0
VERTEX
  5
D6
  8
LAYER_1
 10
2.149646237869701
 20
1.704906100124059
 30
0.0
  0
VERTEX
  5
D7
  8
LAYER_1
 10
2.146746605728905
 20
1.70314470370167
 30
0.0
  0
VERTEX
  5
D8
  8
LAYER_1
 10
2.143358586398264
 20
1.701746261693591
 30
0.0
  0
SEQEND
  5
C00
  8
LAYER_1
  0
POLYLINE
  5
61
  8
LAYER_1
 66
     1
 10
0.0
 20
0.0
 30
0.0
 70
     1
  0
VERTEX
  5
D9
  8
LAYER_1
 10
2.183591816346331
 20
1.698917352287936
 30
0.0
  0
VERTEX
  5
DA
  8
LAYER_1
 10
2.183591816346331
 20
1.688437710770337
 30
0.0
  0
VERTEX
  5
DB
  8
LAYER_1
 10
2.183634516865662
 20
1.682406929610498
 30
0.0
  0
VERTEX
  5
DC
  8
LAYER_1
 10
2.183762618423654
 20
1.674151718271779
 30
0.0
  0
VERTEX
  5
DD
  8
LAYER_1
 10
2.197148564038195
 20
1.673681345363528
 30
0.0
  0
VERTEX
  5
DE
  8
LAYER_1
 10
2.205188271193417
 20
1.674108350556834
 30
0.0
  0
VERTEX
  5
DF
  8
LAYER_1
 10
2.209635797159949
 20
1.675218564059431
 30
0.0
  0
VERTEX
  5
E0
  8
LAYER_1
 10
2.211816859623885
 20
1.684612678312172
 30
0.0
  0
VERTEX
  5
E1
  8
LAYER_1
 10
2.214635093899707
 20
1.684612678312172
 30
0.0
  0
VERTEX
  5
E2
  8
LAYER_1
 10
2.21348217987778
 20
1.672107430908825
 30
0.0
  0
VERTEX
  5
E3
  8
LAYER_1
 10
2.213567580916441
 20
1.670179902778415
 30
0.0
  0
VERTEX
  5
E4
  8
LAYER_1
 10
2.203917263547716
 20
1.669752897585109
 30
0.0
  0
VERTEX
  5
E5
  8
LAYER_1
 10
2.197213282012806
 20
1.669880999143101
 30
0.0
  0
VERTEX
  5
E6
  8
LAYER_1
 10
2.180901683628501
 20
1.670179902778415
 30
0.0
  0
VERTEX
  5
E7
  8
LAYER_1
 10
2.167621822116672
 20
1.669880999143101
 30
0.0
  0
VERTEX
  5
E8
  8
LAYER_1
 10
2.167621822116672
 20
1.672571131860931
 30
0.0
  0
VERTEX
  5
E9
  8
LAYER_1
 10
2.168945538215922
 20
1.672571131860931
 30
0.0
  0
VERTEX
  5
EA
  8
LAYER_1
 10
2.17197193752348
 20
1.672752609068086
 30
0.0
  0
VERTEX
  5
EB
  8
LAYER_1
 10
2.173621245082627
 20
1.673297040689552
 30
0.0
  0
VERTEX
  5
EC
  8
LAYER_1
 10
2.174421879820077
 20
1.674514005490475
 30
0.0
  0
VERTEX
  5
ED
  8
LAYER_1
 10
2.174902260662546
 20
1.676713082236003
 30
0.0
  0
VERTEX
  5
EE
  8
LAYER_1
 10
2.175222514557526
 20
1.688583826609921
 30
0.0
  0
VERTEX
  5
EF
  8
LAYER_1
 10
2.175222514557526
 20
1.712026411722443
 30
0.0
  0
VERTEX
  5
F0
  8
LAYER_1
 10
2.174944961181877
 20
1.721463226494514
 30
0.0
  0
VERTEX
  5
F1
  8
LAYER_1
 10
2.174347153911248
 20
1.725840029725905
 30
0.0
  0
VERTEX
  5
F2
  8
LAYER_1
 10
2.173429092745639
 20
1.726928892968836
 30
0.0
  0
VERTEX
  5
F3
  8
LAYER_1
 10
2.169756848083204
 20
1.727612101278127
 30
0.0
  0
VERTEX
  5
F4
  8
LAYER_1
 10
2.166468908094744
 20
1.727953705432772
 30
0.0
  0
VERTEX
  5
F5
  8
LAYER_1
 10
2.166468908094744
 20
1.730643838150602
 30
0.0
  0
VERTEX
  5
F6
  8
LAYER_1
 10
2.171080564182454
 20
1.730643838150602
 30
0.0
  0
VERTEX
  5
F7
  8
LAYER_1
 10
2.175606819231501
 20
1.730494386332945
 30
0.0
  0
VERTEX
  5
F8
  8
LAYER_1
 10
2.181371389341138
 20
1.730344934515288
 30
0.0
  0
VERTEX
  5
F9
  8
LAYER_1
 10
2.197768388764104
 20
1.730593798479511
 30
0.0
  0
VERTEX
  5
FA
  8
LAYER_1
 10
2.205539883282281
 20
1.730643838150602
 30
0.0
  0
VERTEX
  5
FB
  8
LAYER_1
 10
2.213567580916441
 20
1.730344934515288
 30
0.0
  0
VERTEX
  5
FC
  8
LAYER_1
 10
2.212307915596187
 20
1.724510642463932
 30
0.0
  0
VERTEX
  5
FD
  8
LAYER_1
 10
2.211774159104554
 20
1.71715047404212
 30
0.0
  0
VERTEX
  5
FE
  8
LAYER_1
 10
2.208870523790071
 20
1.71715047404212
 30
0.0
  0
VERTEX
  5
FF
  8
LAYER_1
 10
2.208400818077433
 20
1.724964669079627
 30
0.0
  0
VERTEX
  5
100
  8
LAYER_1
 10
2.202785699785454
 20
1.726373786217538
 30
0.0
  0
VERTEX
  5
101
  8
LAYER_1
 10
2.196017667471548
 20
1.726843491930175
 30
0.0
  0
VERTEX
  5
102
  8
LAYER_1
 10
2.183762618423654
 20
1.726331752893822
 30
0.0
  0
VERTEX
  5
103
  8
LAYER_1
 10
2.183677217384993
 20
1.718318733563182
 30
0.0
  0
VERTEX
  5
104
  8
LAYER_1
 10
2.183591816346331
 20
1.711754863107324
 30
0.0
  0
VERTEX
  5
105
  8
LAYER_1
 10
2.183591816346331
 20
1.703102003182339
 30
0.0
  0
VERTEX
  5
106
  8
LAYER_1
 10
2.191064407229193
 20
1.702803099547024
 30
0.0
  0
VERTEX
  5
107
  8
LAYER_1
 10
2.199022716519441
 20
1.702979239189263
 30
0.0
  0
VERTEX
  5
108
  8
LAYER_1
 10
2.202572197188801
 20
1.70350765811598
 30
0.0
  0
VERTEX
  5
109
  8
LAYER_1
 10
2.203160663720826
 20
1.7040454177813
 30
0.0
  0
VERTEX
  5
10A
  8
LAYER_1
 10
2.203580996957987
 20
1.704954138208306
 30
0.0
  0
VERTEX
  5
10B
  8
LAYER_1
 10
2.203917263547716
 20
1.707884461347371
 30
0.0
  0
VERTEX
  5
10C
  8
LAYER_1
 10
2.203917263547716
 20
1.710659995103862
 30
0.0
  0
VERTEX
  5
10D
  8
LAYER_1
 10
2.2068208988622
 20
1.710659995103862
 30
0.0
  0
VERTEX
  5
10E
  8
LAYER_1
 10
2.206521995226885
 20
1.700369169945178
 30
0.0
  0
VERTEX
  5
10F
  8
LAYER_1
 10
2.2068208988622
 20
1.690804253615115
 30
0.0
  0
VERTEX
  5
110
  8
LAYER_1
 10
2.203917263547716
 20
1.690804253615115
 30
0.0
  0
VERTEX
  5
111
  8
LAYER_1
 10
2.203917263547716
 20
1.693280883736292
 30
0.0
  0
VERTEX
  5
112
  8
LAYER_1
 10
2.203516946178992
 20
1.6965848364195
 30
0.0
  0
VERTEX
  5
113
  8
LAYER_1
 10
2.203016549468085
 20
1.697640339881704
 30
0.0
  0
VERTEX
  5
114
  8
LAYER_1
 10
2.202315994072817
 20
1.698298194757642
 30
0.0
  0
VERTEX
  5
115
  8
LAYER_1
 10
2.201009625059545
 20
1.698699846517596
 30
0.0
  0
VERTEX
  5
116
  8
LAYER_1
 10
2.198691787494629
 20
1.698986740631848
 30
0.0
  0
VERTEX
  5
117
  8
LAYER_1
 10
2.191021706709863
 20
1.699216255923251
 30
0.0
  0
SEQEND
  5
C01
  8
LAYER_1
  0
POLYLINE
  5
62
  8
LAYER_1
 66
     1
 10
0.0
 20
0.0
 30
0.0
 70
     1
  0
VERTEX
  5
118
  8
LAYER_1
 10
2.26242965174737
 20
1.690377248421808
 30
0.0
  0
VERTEX
  5
119
  8
LAYER_1
 10
2.237727401314594
 20
1.690377248421808
 30
0.0
  0
VERTEX
  5
11A
  8
LAYER_1
 10
2.2348324395431
 20
1.683502464809575
 30
0.0
  0
VERTEX
  5
11B
  8
LAYER_1
 10
2.232686738446735
 20
1.677994097815922
 30
0.0
  0
VERTEX
  5
11C
  8
LAYER_1
 10
2.231971504747947
 20
1.67513316302077
 30
0.0
  0
VERTEX
  5
11D
  8
LAYER_1
 10
2.232104943870855
 20
1.674289827763989
 30
0.0
  0
VERTEX
  5
11E
  8
LAYER_1
 10
2.23250526123958
 20
1.673724045882858
 30
0.0
  0
VERTEX
  5
11F
  8
LAYER_1
 10
2.235216744217075
 20
1.673040837573568
 30
0.0
  0
VERTEX
  5
120
  8
LAYER_1
 10
2.239315994072817
 20
1.672571131860931
 30
0.0
  0
VERTEX
  5
121
  8
LAYER_1
 10
2.239315994072817
 20
1.669880999143101
 30
0.0
  0
VERTEX
  5
122
  8
LAYER_1
 10
2.230092681897399
 20
1.670179902778415
 30
0.0
  0
VERTEX
  5
123
  8
LAYER_1
 10
2.219289450506746
 20
1.669880999143101
 30
0.0
  0
VERTEX
  5
124
  8
LAYER_1
 10
2.219289450506746
 20
1.672571131860931
 30
0.0
  0
VERTEX
  5
125
  8
LAYER_1
 10
2.220570466086666
 20
1.672613832380262
 30
0.0
  0
VERTEX
  5
126
  8
LAYER_1
 10
2.223031083513094
 20
1.672811322282166
 30
0.0
  0
VERTEX
  5
127
  8
LAYER_1
 10
2.224434863086089
 20
1.673232989910556
 30
0.0
  0
VERTEX
  5
128
  8
LAYER_1
 10
2.225336911556949
 20
1.674156388641081
 30
0.0
  0
VERTEX
  5
129
  8
LAYER_1
 10
2.226292335676971
 20
1.67585907184939
 30
0.0
  0
VERTEX
  5
12A
  8
LAYER_1
 10
2.232483910979914
 20
1.68913893336122
 30
0.0
  0
VERTEX
  5
12B
  8
LAYER_1
 10
2.244226553795841
 20
1.715741356904209
 30
0.0
  0
VERTEX
  5
12C
  8
LAYER_1
 10
2.250631631695437
 20
1.731113543863239
 30
0.0
  0
VERTEX
  5
12D
  8
LAYER_1
 10
2.25353526700992
 20
1.731113543863239
 30
0.0
  0
VERTEX
  5
12E
  8
LAYER_1
 10
2.275141729791224
 20
1.680855032611075
 30
0.0
  0
VERTEX
  5
12F
  8
LAYER_1
 10
2.278045365105708
 20
1.674684807567798
 30
0.0
  0
VERTEX
  5
130
  8
LAYER_1
 10
2.279710685359603
 20
1.673190289391225
 30
0.0
  0
VERTEX
  5
131
  8
LAYER_1
 10
2.281237228925673
 20
1.672811322282166
 30
0.0
  0
VERTEX
  5
132
  8
LAYER_1
 10
2.283938036773336
 20
1.672571131860931
 30
0.0
  0
VERTEX
  5
133
  8
LAYER_1
 10
2.283938036773336
 20
1.669880999143101
 30
0.0
  0
VERTEX
  5
134
  8
LAYER_1
 10
2.273348307979338
 20
1.670179902778415
 30
0.0
  0
VERTEX
  5
135
  8
LAYER_1
 10
2.26083705581546
 20
1.669880999143101
 30
0.0
  0
VERTEX
  5
136
  8
LAYER_1
 10
2.26083705581546
 20
1.672571131860931
 30
0.0
  0
VERTEX
  5
137
  8
LAYER_1
 10
2.265064407229193
 20
1.672827334976915
 30
0.0
  0
VERTEX
  5
138
  8
LAYER_1
 10
2.267754539947024
 20
1.673297040689552
 30
0.0
  0
VERTEX
  5
139
  8
LAYER_1
 10
2.268234920789493
 20
1.673830797181185
 30
0.0
  0
VERTEX
  5
13A
  8
LAYER_1
 10
2.268395047736983
 20
1.67449265523081
 30
0.0
  0
VERTEX
  5
13B
  8
LAYER_1
 10
2.267114032157064
 20
1.67850650404789
 30
0.0
  0
SEQEND
  5
C02
  8
LAYER_1
  0
POLYLINE
  5
63
  8
LAYER_1
 66
     1
 10
0.0
 20
0.0
 30
0.0
 70
     1
  0
VERTEX
  5
13C
  8
LAYER_1
 10
2.239318662855275
 20
1.693878691006921
 30
0.0
  0
VERTEX
  5
13D
  8
LAYER_1
 10
2.260830383859314
 20
1.693878691006921
 30
0.0
  0
VERTEX
  5
13E
  8
LAYER_1
 10
2.250081862509055
 20
1.719531027994803
 30
0.0
  0
SEQEND
  5
C03
  8
LAYER_1
  0
POLYLINE
  5
64
  8
LAYER_1
 66
     1
 10
0.0
 20
0.0
 30
0.0
 70
     1
  0
VERTEX
  5
13F
  8
LAYER_1
 10
2.304605088129366
 20
1.674065650037504
 30
0.0
  0
VERTEX
  5
140
  8
LAYER_1
 10
2.312760887321518
 20
1.67385214744085
 30
0.0
  0
VERTEX
  5
141
  8
LAYER_1
 10
2.325314840004727
 20
1.674279152634157
 30
0.0
  0
VERTEX
  5
142
  8
LAYER_1
 10
2.331848019462315
 20
1.675517467694745
 30
0.0
  0
VERTEX
  5
143
  8
LAYER_1
 10
2.334410050622153
 20
1.685552089737446
 30
0.0
  0
VERTEX
  5
144
  8
LAYER_1
 10
2.337185584378645
 20
1.685552089737446
 30
0.0
  0
VERTEX
  5
145
  8
LAYER_1
 10
2.33552026412475
 20
1.67047880641373
 30
0.0
  0
VERTEX
  5
146
  8
LAYER_1
 10
2.330972658816037
 20
1.66999842557126
 30
0.0
  0
VERTEX
  5
147
  8
LAYER_1
 10
2.325015936369412
 20
1.66983829862377
 30
0.0
  0
VERTEX
  5
148
  8
LAYER_1
 10
2.304690489168027
 20
1.670179902778415
 30
0.0
  0
VERTEX
  5
149
  8
LAYER_1
 10
2.291923033888166
 20
1.669710197065778
 30
0.0
  0
VERTEX
  5
14A
  8
LAYER_1
 10
2.291923033888166
 20
1.671973324590302
 30
0.0
  0
VERTEX
  5
14B
  8
LAYER_1
 10
2.294639854430578
 20
1.673521218416038
 30
0.0
  0
VERTEX
  5
14C
  8
LAYER_1
 10
2.295958232964912
 20
1.6751758635401
 30
0.0
  0
VERTEX
  5
14D
  8
LAYER_1
 10
2.296422601112632
 20
1.679413890083666
 30
0.0
  0
VERTEX
  5
14E
  8
LAYER_1
 10
2.296577390495206
 20
1.688711928167913
 30
0.0
  0
VERTEX
  5
14F
  8
LAYER_1
 10
2.296577390495206
 20
1.712197213799765
 30
0.0
  0
VERTEX
  5
150
  8
LAYER_1
 10
2.296422601112632
 20
1.722173122628386
 30
0.0
  0
VERTEX
  5
151
  8
LAYER_1
 10
2.295958232964912
 20
1.726480537515865
 30
0.0
  0
VERTEX
  5
152
  8
LAYER_1
 10
2.295508543120711
 20
1.727125048479512
 30
0.0
  0
VERTEX
  5
153
  8
LAYER_1
 10
2.294778631118402
 20
1.727585413453545
 30
0.0
  0
VERTEX
  5
154
  8
LAYER_1
 10
2.292478140639464
 20
1.727953705432772
 30
0.0
  0
VERTEX
  5
155
  8
LAYER_1
 10
2.287823784032424
 20
1.727953705432772
 30
0.0
  0
VERTEX
  5
156
  8
LAYER_1
 10
2.287823784032424
 20
1.730643838150602
 30
0.0
  0
VERTEX
  5
157
  8
LAYER_1
 10
2.301317148140907
 20
1.730344934515288
 30
0.0
  0
VERTEX
  5
158
  8
LAYER_1
 10
2.313358694592147
 20
1.730643838150602
 30
0.0
  0
VERTEX
  5
159
  8
LAYER_1
 10
2.313358694592147
 20
1.727953705432772
 30
0.0
  0
VERTEX
  5
15A
  8
LAYER_1
 10
2.308063830195148
 20
1.727953705432772
 30
0.0
  0
VERTEX
  5
15B
  8
LAYER_1
 10
2.306217032734098
 20
1.727628113972876
 30
0.0
  0
VERTEX
  5
15C
  8
LAYER_1
 10
2.305202895399995
 20
1.726651339593187
 30
0.0
  0
VERTEX
  5
15D
  8
LAYER_1
 10
2.304754539947023
 20
1.723294011260815
 30
0.0
  0
VERTEX
  5
15E
  8
LAYER_1
 10
2.304605088129366
 20
1.71582675794287
 30
0.0
  0
VERTEX
  5
15F
  8
LAYER_1
 10
2.304605088129366
 20
1.688626527129252
 30
0.0
  0
VERTEX
  5
160
  8
LAYER_1
 10
2.304733189687358
 20
1.676584980678011
 30
0.0
  0
SEQEND
  5
C04
  8
LAYER_1
  0
POLYLINE
  5
65
  8
LAYER_1
 66
     1
 10
0.0
 20
0.0
 30
0.0
 70
     1
  0
VERTEX
  5
161
  8
LAYER_1
 10
2.380313108902592
 20
1.698917352287936
 30
0.0
  0
VERTEX
  5
162
  8
LAYER_1
 10
2.380313108902592
 20
1.688437710770337
 30
0.0
  0
VERTEX
  5
163
  8
LAYER_1
 10
2.380355809421922
 20
1.682406929610498
 30
0.0
  0
VERTEX
  5
164
  8
LAYER_1
 10
2.380483910979914
 20
1.674151718271779
 30
0.0
  0
VERTEX
  5
165
  8
LAYER_1
 10
2.393869856594455
 20
1.673681345363528
 30
0.0
  0
VERTEX
  5
166
  8
LAYER_1
 10
2.401909563749677
 20
1.674108350556834
 30
0.0
  0
VERTEX
  5
167
  8
LAYER_1
 10
2.406357089716209
 20
1.675218564059431
 30
0.0
  0
VERTEX
  5
168
  8
LAYER_1
 10
2.408538152180145
 20
1.684612678312172
 30
0.0
  0
VERTEX
  5
169
  8
LAYER_1
 10
2.411356386455967
 20
1.684612678312172
 30
0.0
  0
VERTEX
  5
16A
  8
LAYER_1
 10
2.41020347243404
 20
1.672107430908825
 30
0.0
  0
VERTEX
  5
16B
  8
LAYER_1
 10
2.410288873472701
 20
1.670179902778415
 30
0.0
  0
VERTEX
  5
16C
  8
LAYER_1
 10
2.400638556103976
 20
1.669752897585109
 30
0.0
  0
VERTEX
  5
16D
  8
LAYER_1
 10
2.393934574569066
 20
1.669880999143101
 30
0.0
  0
VERTEX
  5
16E
  8
LAYER_1
 10
2.377622976184761
 20
1.670179902778415
 30
0.0
  0
VERTEX
  5
16F
  8
LAYER_1
 10
2.364343114672932
 20
1.669880999143101
 30
0.0
  0
VERTEX
  5
170
  8
LAYER_1
 10
2.364343114672932
 20
1.672571131860931
 30
0.0
  0
VERTEX
  5
171
  8
LAYER_1
 10
2.365666830772182
 20
1.672571131860931
 30
0.0
  0
VERTEX
  5
172
  8
LAYER_1
 10
2.368693230079741
 20
1.672752609068086
 30
0.0
  0
VERTEX
  5
173
  8
LAYER_1
 10
2.370342537638887
 20
1.673297040689552
 30
0.0
  0
VERTEX
  5
174
  8
LAYER_1
 10
2.371143172376337
 20
1.674514005490475
 30
0.0
  0
VERTEX
  5
175
  8
LAYER_1
 10
2.371623553218806
 20
1.676713082236003
 30
0.0
  0
VERTEX
  5
176
  8
LAYER_1
 10
2.371943807113786
 20
1.688583826609921
 30
0.0
  0
VERTEX
  5
177
  8
LAYER_1
 10
2.371943807113786
 20
1.712026411722443
 30
0.0
  0
VERTEX
  5
178
  8
LAYER_1
 10
2.371666253738137
 20
1.721463226494514
 30
0.0
  0
VERTEX
  5
179
  8
LAYER_1
 10
2.371068446467508
 20
1.725840029725905
 30
0.0
  0
VERTEX
  5
17A
  8
LAYER_1
 10
2.370150385301899
 20
1.726928892968836
 30
0.0
  0
VERTEX
  5
17B
  8
LAYER_1
 10
2.366478140639464
 20
1.727612101278127
 30
0.0
  0
VERTEX
  5
17C
  8
LAYER_1
 10
2.363190200651005
 20
1.727953705432772
 30
0.0
  0
VERTEX
  5
17D
  8
LAYER_1
 10
2.363190200651005
 20
1.730643838150602
 30
0.0
  0
VERTEX
  5
17E
  8
LAYER_1
 10
2.367801856738714
 20
1.730643838150602
 30
0.0
  0
VERTEX
  5
17F
  8
LAYER_1
 10
2.372328111787762
 20
1.730494386332945
 30
0.0
  0
VERTEX
  5
180
  8
LAYER_1
 10
2.378092681897398
 20
1.730344934515288
 30
0.0
  0
VERTEX
  5
181
  8
LAYER_1
 10
2.394489681320364
 20
1.730593798479511
 30
0.0
  0
VERTEX
  5
182
  8
LAYER_1
 10
2.402261175838541
 20
1.730643838150602
 30
0.0
  0
VERTEX
  5
183
  8
LAYER_1
 10
2.410288873472701
 20
1.730344934515288
 30
0.0
  0
VERTEX
  5
184
  8
LAYER_1
 10
2.409029208152447
 20
1.724510642463932
 30
0.0
  0
VERTEX
  5
185
  8
LAYER_1
 10
2.408495451660814
 20
1.71715047404212
 30
0.0
  0
VERTEX
  5
186
  8
LAYER_1
 10
2.405591816346331
 20
1.71715047404212
 30
0.0
  0
VERTEX
  5
187
  8
LAYER_1
 10
2.405122110633694
 20
1.724964669079627
 30
0.0
  0
VERTEX
  5
188
  8
LAYER_1
 10
2.399506992341714
 20
1.726373786217538
 30
0.0
  0
VERTEX
  5
189
  8
LAYER_1
 10
2.392738960027808
 20
1.726843491930175
 30
0.0
  0
VERTEX
  5
18A
  8
LAYER_1
 10
2.380483910979914
 20
1.726331752893822
 30
0.0
  0
VERTEX
  5
18B
  8
LAYER_1
 10
2.380398509941253
 20
1.718318733563182
 30
0.0
  0
VERTEX
  5
18C
  8
LAYER_1
 10
2.380313108902592
 20
1.711754863107324
 30
0.0
  0
VERTEX
  5
18D
  8
LAYER_1
 10
2.380313108902592
 20
1.703102003182339
 30
0.0
  0
VERTEX
  5
18E
  8
LAYER_1
 10
2.387785699785454
 20
1.702803099547024
 30
0.0
  0
VERTEX
  5
18F
  8
LAYER_1
 10
2.395744009075702
 20
1.702979239189263
 30
0.0
  0
VERTEX
  5
190
  8
LAYER_1
 10
2.399293489745061
 20
1.70350765811598
 30
0.0
  0
VERTEX
  5
191
  8
LAYER_1
 10
2.399881956277087
 20
1.7040454177813
 30
0.0
  0
VERTEX
  5
192
  8
LAYER_1
 10
2.400302289514248
 20
1.704954138208306
 30
0.0
  0
VERTEX
  5
193
  8
LAYER_1
 10
2.400638556103976
 20
1.707884461347371
 30
0.0
  0
VERTEX
  5
194
  8
LAYER_1
 10
2.400638556103976
 20
1.710659995103862
 30
0.0
  0
VERTEX
  5
195
  8
LAYER_1
 10
2.40354219141846
 20
1.710659995103862
 30
0.0
  0
VERTEX
  5
196
  8
LAYER_1
 10
2.403243287783146
 20
1.700369169945178
 30
0.0
  0
VERTEX
  5
197
  8
LAYER_1
 10
2.40354219141846
 20
1.690804253615115
 30
0.0
  0
VERTEX
  5
198
  8
LAYER_1
 10
2.400638556103976
 20
1.690804253615115
 30
0.0
  0
VERTEX
  5
199
  8
LAYER_1
 10
2.400638556103976
 20
1.693280883736292
 30
0.0
  0
VERTEX
  5
19A
  8
LAYER_1
 10
2.400238238735252
 20
1.6965848364195
 30
0.0
  0
VERTEX
  5
19B
  8
LAYER_1
 10
2.399737842024345
 20
1.697640339881704
 30
0.0
  0
VERTEX
  5
19C
  8
LAYER_1
 10
2.399037286629077
 20
1.698298194757642
 30
0.0
  0
VERTEX
  5
19D
  8
LAYER_1
 10
2.397730917615805
 20
1.698699846517596
 30
0.0
  0
VERTEX
  5
19E
  8
LAYER_1
 10
2.395413080050889
 20
1.698986740631848
 30
0.0
  0
VERTEX
  5
19F
  8
LAYER_1
 10
2.387742999266123
 20
1.699216255923251
 30
0.0
  0
SEQEND
  5
C05
  8
LAYER_1
  0
POLYLINE
  5
66
  8
LAYER_1
 66
     1
 10
0.0
 20
0.0
 30
0.0
 70
     1
  0
VERTEX
  5
1A0
  8
LAYER_1
 10
2.455337921366527
 20
1.727782903355449
 30
0.0
  0
VERTEX
  5
1A1
  8
LAYER_1
 10
2.454419860200918
 20
1.722616140516442
 30
0.0
  0
VERTEX
  5
1A2
  8
LAYER_1
 10
2.454056905786608
 20
1.715997560020192
 30
0.0
  0
VERTEX
  5
1A3
  8
LAYER_1
 10
2.451110569952794
 20
1.715997560020192
 30
0.0
  0
VERTEX
  5
1A4
  8
LAYER_1
 10
2.451110569952794
 20
1.719413601566644
 30
0.0
  0
VERTEX
  5
1A5
  8
LAYER_1
 10
2.450886392226308
 20
1.722210485582801
 30
0.0
  0
VERTEX
  5
1A6
  8
LAYER_1
 10
2.45021385904685
 20
1.723939856615692
 30
0.0
  0
VERTEX
  5
1A7
  8
LAYER_1
 10
2.448596576877202
 20
1.725172834111364
 30
0.0
  0
VERTEX
  5
1A8
  8
LAYER_1
 10
2.445538152180145
 20
1.726480537515865
 30
0.0
  0
VERTEX
  5
1A9
  8
LAYER_1
 10
2.441657742485973
 20
1.727489337285051
 30
0.0
  0
VERTEX
  5
1AA
  8
LAYER_1
 10
2.437574505324981
 20
1.72782560387478
 30
0.0
  0
VERTEX
  5
1AB
  8
LAYER_1
 10
2.434341275376914
 20
1.727609766093476
 30
0.0
  0
VERTEX
  5
1AC
  8
LAYER_1
 10
2.431473668625616
 20
1.726962252749563
 30
0.0
  0
VERTEX
  5
1AD
  8
LAYER_1
 10
2.428971685071086
 20
1.725883063843043
 30
0.0
  0
VERTEX
  5
1AE
  8
LAYER_1
 10
2.426835324713325
 20
1.724372199373914
 30
0.0
  0
VERTEX
  5
1AF
  8
LAYER_1
 10
2.42512596954887
 20
1.722522941629035
 30
0.0
  0
VERTEX
  5
1B0
  8
LAYER_1
 10
2.423905001574259
 20
1.720428572895264
 30
0.0
  0
VERTEX
  5
1B1
  8
LAYER_1
 10
2.423172420789493
 20
1.718089093172601
 30
0.0
  0
VERTEX
  5
1B2
  8
LAYER_1
 10
2.422928227194571
 20
1.715504502461046
 30
0.0
  0
VERTEX
  5
1B3
  8
LAYER_1
 10
2.423328544563295
 20
1.712333655302939
 30
0.0
  0
VERTEX
  5
1B4
  8
LAYER_1
 10
2.42452949666947
 20
1.709642521791687
 30
0.0
  0
VERTEX
  5
1B5
  8
LAYER_1
 10
2.426408319520018
 20
1.707532265462345
 30
0.0
  0
VERTEX
  5
1B6
  8
LAYER_1
 10
2.428842249121865
 20
1.706104049849967
 30
0.0
  0
VERTEX
  5
1B7
  8
LAYER_1
 10
2.433074938100514
 20
1.705081322372327
 30
0.0
  0
VERTEX
  5
1B8
  8
LAYER_1
 10
2.440350039081472
 20
1.704187530447198
 30
0.0
  0
VERTEX
  5
1B9
  8
LAYER_1
 10
2.447721216230924
 20
1.703194076177146
 30
0.0
  0
VERTEX
  5
1BA
  8
LAYER_1
 10
2.452242133715056
 20
1.701923068531445
 30
0.0
  0
VERTEX
  5
1BB
  8
LAYER_1
 10
2.45502834260138
 20
1.700086028806257
 30
0.0
  0
VERTEX
  5
1BC
  8
LAYER_1
 10
2.45719539395741
 20
1.697394478297746
 30
0.0
  0
VERTEX
  5
1BD
  8
LAYER_1
 10
2.458588498400572
 20
1.693987360492639
 30
0.0
  0
VERTEX
  5
1BE
  8
LAYER_1
 10
2.459052866548293
 20
1.690003618877665
 30
0.0
  0
VERTEX
  5
1BF
  8
LAYER_1
 10
2.458604511095321
 20
1.685859708615475
 30
0.0
  0
VERTEX
  5
1C0
  8
LAYER_1
 10
2.457259444736406
 20
1.682014785388052
 30
0.0
  0
VERTEX
  5
1C1
  8
LAYER_1
 10
2.455017667471548
 20
1.678468849195394
 30
0.0
  0
VERTEX
  5
1C2
  8
LAYER_1
 10
2.451879179300745
 20
1.675221900037503
 30
0.0
  0
VERTEX
  5
1C3
  8
LAYER_1
 10
2.447993432041657
 20
1.672511626352059
 30
0.0
  0
VERTEX
  5
1C4
  8
LAYER_1
 10
2.44350987751194
 20
1.670575716576742
 30
0.0
  0
VERTEX
  5
1C5
  8
LAYER_1
 10
2.438428515711593
 20
1.669414170711552
 30
0.0
  0
VERTEX
  5
1C6
  8
LAYER_1
 10
2.432749346640618
 20
1.669026988756488
 30
0.0
  0
VERTEX
  5
1C7
  8
LAYER_1
 10
2.428634084090127
 20
1.669235153788225
 30
0.0
  0
VERTEX
  5
1C8
  8
LAYER_1
 10
2.42448679615014
 20
1.669859648883435
 30
0.0
  0
VERTEX
  5
1C9
  8
LAYER_1
 10
2.420307482820653
 20
1.670889798912287
 30
0.0
  0
VERTEX
  5
1CA
  8
LAYER_1
 10
2.416096144101668
 20
1.672314928744947
 30
0.0
  0
VERTEX
  5
1CB
  8
LAYER_1
 10
2.416661925982799
 20
1.678164899893245
 30
0.0
  0
VERTEX
  5
1CC
  8
LAYER_1
 10
2.416822052930289
 20
1.685466688698785
 30
0.0
  0
VERTEX
  5
1CD
  8
LAYER_1
 10
2.419725688244773
 20
1.685466688698785
 30
0.0
  0
VERTEX
  5
1CE
  8
LAYER_1
 10
2.419725688244773
 20
1.683331662732253
 30
0.0
  0
VERTEX
  5
1CF
  8
LAYER_1
 10
2.419832439543099
 20
1.679979671964797
 30
0.0
  0
VERTEX
  5
1D0
  8
LAYER_1
 10
2.420152693438079
 20
1.678207600412576
 30
0.0
  0
VERTEX
  5
1D1
  8
LAYER_1
 10
2.420867927136868
 20
1.677193463078473
 30
0.0
  0
VERTEX
  5
1D2
  8
LAYER_1
 10
2.422159617846619
 20
1.676115274965374
 30
0.0
  0
VERTEX
  5
1D3
  8
LAYER_1
 10
2.424732324136291
 20
1.674647444613383
 30
0.0
  0
VERTEX
  5
1D4
  8
LAYER_1
 10
2.427753385878933
 20
1.673574594065201
 30
0.0
  0
VERTEX
  5
1D5
  8
LAYER_1
 10
2.431126726906054
 20
1.672918073580492
 30
0.0
  0
VERTEX
  5
1D6
  8
LAYER_1
 10
2.434756271049158
 20
1.672699233418923
 30
0.0
  0
VERTEX
  5
1D7
  8
LAYER_1
 10
2.438561954834502
 20
1.6729367550577
 30
0.0
  0
VERTEX
  5
1D8
  8
LAYER_1
 10
2.441908608037041
 20
1.67364931997403
 30
0.0
  0
VERTEX
  5
1D9
  8
LAYER_1
 10
2.444796230656776
 20
1.674836928167913
 30
0.0
  0
VERTEX
  5
1DA
  8
LAYER_1
 10
2.447224822693705
 20
1.67649957963935
 30
0.0
  0
VERTEX
  5
1DB
  8
LAYER_1
 10
2.449149014846042
 20
1.678527854307555
 30
0.0
  0
VERTEX
  5
1DC
  8
LAYER_1
 10
2.450523437811998
 20
1.680812332091745
 30
0.0
  0
VERTEX
  5
1DD
  8
LAYER_1
 10
2.451348091591571
 20
1.683353012991918
 30
0.0
  0
VERTEX
  5
1DE
  8
LAYER_1
 10
2.451622976184761
 20
1.686149897008075
 30
0.0
  0
VERTEX
  5
1DF
  8
LAYER_1
 10
2.451249346640618
 20
1.689304397873626
 30
0.0
  0
VERTEX
  5
1E0
  8
LAYER_1
 10
2.450128458008189
 20
1.691935817377376
 30
0.0
  0
VERTEX
  5
1E1
  8
LAYER_1
 10
2.448335036196302
 20
1.694001454999996
 30
0.0
  0
VERTEX
  5
1E2
  8
LAYER_1
 10
2.445943807113786
 20
1.695458610222154
 30
0.0
  0
VERTEX
  5
1E3
  8
LAYER_1
 10
2.442111435503861
 20
1.696472747556257
 30
0.0
  0
VERTEX
  5
1E4
  8
LAYER_1
 10
2.435994586109747
 20
1.697209331514711
 30
0.0
  0
VERTEX
  5
1E5
  8
LAYER_1
 10
2.427892162566758
 20
1.69817009319965
 30
0.0
  0
VERTEX
  5
1E6
  8
LAYER_1
 10
2.42288552667524
 20
1.699515159558565
 30
0.0
  0
VERTEX
  5
1E7
  8
LAYER_1
 10
2.419800414153602
 20
1.701495396142524
 30
0.0
  0
VERTEX
  5
1E8
  8
LAYER_1
 10
2.417462560720249
 20
1.704361668502593
 30
0.0
  0
VERTEX
  5
1E9
  8
LAYER_1
 10
2.416603212768719
 20
1.706116392968836
 30
0.0
  0
VERTEX
  5
1EA
  8
LAYER_1
 10
2.415989392803342
 20
1.708071276119442
 30
0.0
  0
VERTEX
  5
1EB
  8
LAYER_1
 10
2.415498336831039
 20
1.712581518473741
 30
0.0
  0
VERTEX
  5
1EC
  8
LAYER_1
 10
2.415874635157641
 20
1.716555335553949
 30
0.0
  0
VERTEX
  5
1ED
  8
LAYER_1
 10
2.417003530137444
 20
1.720150185525097
 30
0.0
  0
VERTEX
  5
1EE
  8
LAYER_1
 10
2.418885021770451
 20
1.723366068387186
 30
0.0
  0
VERTEX
  5
1EF
  8
LAYER_1
 10
2.42151911005666
 20
1.726202984140216
 30
0.0
  0
VERTEX
  5
1F0
  8
LAYER_1
 10
2.424817725174952
 20
1.728519487313903
 30
0.0
  0
VERTEX
  5
1F1
  8
LAYER_1
 10
2.428692797304207
 20
1.730174132437965
 30
0.0
  0
VERTEX
  5
1F2
  8
LAYER_1
 10
2.433144326444427
 20
1.731166919512403
 30
0.0
  0
VERTEX
  5
1F3
  8
LAYER_1
 10
2.43817231259561
 20
1.731497848537215
 30
0.0
  0
VERTEX
  5
1F4
  8
LAYER_1
 10
2.44244770209359
 20
1.731268333245813
 30
0.0
  0
VERTEX
  5
1F5
  8
LAYER_1
 10
2.446733766721403
 20
1.730579787371606
 30
0.0
  0
VERTEX
  5
1F6
  8
LAYER_1
 10
2.451030506479049
 20
1.729421535784762
 30
0.0
  0
SEQEND
  5
C06
  8
LAYER_1
  0
POLYLINE
  5
67
  8
LAYER_1
 66
     1
 10
0.0
 20
0.0
 30
0.0
 70
     1
  0
VERTEX
  5
1F7
  8
LAYER_1
 10
2.49154796175891
 20
1.726758090891514
 30
0.0
  0
VERTEX
  5
1F8
  8
LAYER_1
 10
2.491078256046273
 20
1.713264726783031
 30
0.0
  0
VERTEX
  5
1F9
  8
LAYER_1
 10
2.491078256046273
 20
1.688925430764566
 30
0.0
  0
VERTEX
  5
1FA
  8
LAYER_1
 10
2.491249058123596
 20
1.678394415184647
 30
0.0
  0
VERTEX
  5
1FB
  8
LAYER_1
 10
2.491761464355563
 20
1.673958898739177
 30
0.0
  0
VERTEX
  5
1FC
  8
LAYER_1
 10
2.492321908671778
 20
1.673351750729944
 30
0.0
  0
VERTEX
  5
1FD
  8
LAYER_1
 10
2.493320033311131
 20
1.672918073580492
 30
0.0
  0
VERTEX
  5
1FE
  8
LAYER_1
 10
2.496629323559256
 20
1.672571131860931
 30
0.0
  0
VERTEX
  5
1FF
  8
LAYER_1
 10
2.499831862509054
 20
1.672571131860931
 30
0.0
  0
VERTEX
  5
200
  8
LAYER_1
 10
2.499831862509054
 20
1.669880999143101
 30
0.0
  0
VERTEX
  5
201
  8
LAYER_1
 10
2.487021706709862
 20
1.670179902778415
 30
0.0
  0
VERTEX
  5
202
  8
LAYER_1
 10
2.474296951949331
 20
1.669880999143101
 30
0.0
  0
VERTEX
  5
203
  8
LAYER_1
 10
2.474296951949331
 20
1.672571131860931
 30
0.0
  0
VERTEX
  5
204
  8
LAYER_1
 10
2.477883795573105
 20
1.672571131860931
 30
0.0
  0
VERTEX
  5
205
  8
LAYER_1
 10
2.480210973876625
 20
1.672757946633003
 30
0.0
  0
VERTEX
  5
206
  8
LAYER_1
 10
2.48155604023554
 20
1.673318390949217
 30
0.0
  0
VERTEX
  5
207
  8
LAYER_1
 10
2.482249923674663
 20
1.674423266886898
 30
0.0
  0
VERTEX
  5
208
  8
LAYER_1
 10
2.482623553218806
 20
1.676243376523366
 30
0.0
  0
VERTEX
  5
209
  8
LAYER_1
 10
2.483050558412113
 20
1.68913893336122
 30
0.0
  0
VERTEX
  5
20A
  8
LAYER_1
 10
2.483050558412113
 20
1.713520929899015
 30
0.0
  0
VERTEX
  5
20B
  8
LAYER_1
 10
2.482752321972413
 20
1.726758090891514
 30
0.0
  0
VERTEX
  5
20C
  8
LAYER_1
 10
2.478406876934905
 20
1.726758090891514
 30
0.0
  0
VERTEX
  5
20D
  8
LAYER_1
 10
2.470248909357005
 20
1.726635326898438
 30
0.0
  0
VERTEX
  5
20E
  8
LAYER_1
 10
2.466819690697168
 20
1.726267034919212
 30
0.0
  0
VERTEX
  5
20F
  8
LAYER_1
 10
2.465935823306804
 20
1.725066082813037
 30
0.0
  0
VERTEX
  5
210
  8
LAYER_1
 10
2.465413909537329
 20
1.722445338439119
 30
0.0
  0
VERTEX
  5
211
  8
LAYER_1
 10
2.464817436657929
 20
1.716723468848813
 30
0.0
  0
VERTEX
  5
212
  8
LAYER_1
 10
2.462127303940099
 20
1.716723468848813
 30
0.0
  0
VERTEX
  5
213
  8
LAYER_1
 10
2.46221270497876
 20
1.72180483064916
 30
0.0
  0
VERTEX
  5
214
  8
LAYER_1
 10
2.461700298746792
 20
1.730643838150602
 30
0.0
  0
VERTEX
  5
215
  8
LAYER_1
 10
2.488815128521749
 20
1.730344934515288
 30
0.0
  0
VERTEX
  5
216
  8
LAYER_1
 10
2.512428515711593
 20
1.730643838150602
 30
0.0
  0
VERTEX
  5
217
  8
LAYER_1
 10
2.511788007921633
 20
1.723555551941716
 30
0.0
  0
VERTEX
  5
218
  8
LAYER_1
 10
2.511489104286319
 20
1.716723468848813
 30
0.0
  0
VERTEX
  5
219
  8
LAYER_1
 10
2.508798971568489
 20
1.716723468848813
 30
0.0
  0
VERTEX
  5
21A
  8
LAYER_1
 10
2.508371966375182
 20
1.722317236881127
 30
0.0
  0
VERTEX
  5
21B
  8
LAYER_1
 10
2.508062387610035
 20
1.724628402489898
 30
0.0
  0
VERTEX
  5
21C
  8
LAYER_1
 10
2.507646057546562
 20
1.725754628687244
 30
0.0
  0
VERTEX
  5
21D
  8
LAYER_1
 10
2.506888123328443
 20
1.726186971445467
 30
0.0
  0
VERTEX
  5
21E
  8
LAYER_1
 10
2.50555373209936
 20
1.726416486736869
 30
0.0
  0
VERTEX
  5
21F
  8
LAYER_1
 10
2.4948786022667
 20
1.726758090891514
 30
0.0
  0
SEQEND
  5
C07
  8
LAYER_1
  0
POLYLINE
  5
68
  8
LAYER_1
 66
     1
 10
0.0
 20
0.0
 30
0.0
 70
     1
  0
VERTEX
  5
220
  8
LAYER_1
 10
2.558643154344022
 20
1.690377248421808
 30
0.0
  0
VERTEX
  5
221
  8
LAYER_1
 10
2.533940903911247
 20
1.690377248421808
 30
0.0
  0
VERTEX
  5
222
  8
LAYER_1
 10
2.531045942139752
 20
1.683502464809575
 30
0.0
  0
VERTEX
  5
223
  8
LAYER_1
 10
2.528900241043388
 20
1.677994097815922
 30
0.0
  0
VERTEX
  5
224
  8
LAYER_1
 10
2.528185007344599
 20
1.67513316302077
 30
0.0
  0
VERTEX
  5
225
  8
LAYER_1
 10
2.528318446467508
 20
1.674289827763989
 30
0.0
  0
VERTEX
  5
226
  8
LAYER_1
 10
2.528718763836233
 20
1.673724045882858
 30
0.0
  0
VERTEX
  5
227
  8
LAYER_1
 10
2.531430246813728
 20
1.673040837573568
 30
0.0
  0
VERTEX
  5
228
  8
LAYER_1
 10
2.535529496669469
 20
1.672571131860931
 30
0.0
  0
VERTEX
  5
229
  8
LAYER_1
 10
2.535529496669469
 20
1.669880999143101
 30
0.0
  0
VERTEX
  5
22A
  8
LAYER_1
 10
2.526306184494051
 20
1.670179902778415
 30
0.0
  0
VERTEX
  5
22B
  8
LAYER_1
 10
2.515502953103399
 20
1.669880999143101
 30
0.0
  0
VERTEX
  5
22C
  8
LAYER_1
 10
2.515502953103399
 20
1.672571131860931
 30
0.0
  0
VERTEX
  5
22D
  8
LAYER_1
 10
2.516783968683318
 20
1.672613832380262
 30
0.0
  0
VERTEX
  5
22E
  8
LAYER_1
 10
2.519244586109747
 20
1.672811322282166
 30
0.0
  0
VERTEX
  5
22F
  8
LAYER_1
 10
2.520648365682741
 20
1.673232989910556
 30
0.0
  0
VERTEX
  5
230
  8
LAYER_1
 10
2.521550414153601
 20
1.674156388641081
 30
0.0
  0
VERTEX
  5
231
  8
LAYER_1
 10
2.522505838273624
 20
1.67585907184939
 30
0.0
  0
VERTEX
  5
232
  8
LAYER_1
 10
2.528697413576567
 20
1.68913893336122
 30
0.0
  0
VERTEX
  5
233
  8
LAYER_1
 10
2.540440056392493
 20
1.715741356904209
 30
0.0
  0
VERTEX
  5
234
  8
LAYER_1
 10
2.546845134292089
 20
1.731113543863239
 30
0.0
  0
VERTEX
  5
235
  8
LAYER_1
 10
2.549748769606573
 20
1.731113543863239
 30
0.0
  0
VERTEX
  5
236
  8
LAYER_1
 10
2.571355232387877
 20
1.680855032611075
 30
0.0
  0
VERTEX
  5
237
  8
LAYER_1
 10
2.574258867702361
 20
1.674684807567798
 30
0.0
  0
VERTEX
  5
238
  8
LAYER_1
 10
2.575924187956256
 20
1.673190289391225
 30
0.0
  0
VERTEX
  5
239
  8
LAYER_1
 10
2.577450731522326
 20
1.672811322282166
 30
0.0
  0
VERTEX
  5
23A
  8
LAYER_1
 10
2.580151539369989
 20
1.672571131860931
 30
0.0
  0
VERTEX
  5
23B
  8
LAYER_1
 10
2.580151539369989
 20
1.669880999143101
 30
0.0
  0
VERTEX
  5
23C
  8
LAYER_1
 10
2.56956181057599
 20
1.670179902778415
 30
0.0
  0
VERTEX
  5
23D
  8
LAYER_1
 10
2.557050558412112
 20
1.669880999143101
 30
0.0
  0
VERTEX
  5
23E
  8
LAYER_1
 10
2.557050558412112
 20
1.672571131860931
 30
0.0
  0
VERTEX
  5
23F
  8
LAYER_1
 10
2.561277909825846
 20
1.672827334976915
 30
0.0
  0
VERTEX
  5
240
  8
LAYER_1
 10
2.563968042543676
 20
1.673297040689552
 30
0.0
  0
VERTEX
  5
241
  8
LAYER_1
 10
2.564448423386146
 20
1.673830797181185
 30
0.0
  0
VERTEX
  5
242
  8
LAYER_1
 10
2.564608550333636
 20
1.67449265523081
 30
0.0
  0
VERTEX
  5
243
  8
LAYER_1
 10
2.563327534753717
 20
1.67850650404789
 30
0.0
  0
SEQEND
  5
C08
  8
LAYER_1
  0
POLYLINE
  5
69
  8
LAYER_1
 66
     1
 10
0.0
 20
0.0
 30
0.0
 70
     1
  0
VERTEX
  5
244
  8
LAYER_1
 10
2.535532165451928
 20
1.693878691006921
 30
0.0
  0
VERTEX
  5
245
  8
LAYER_1
 10
2.557043886455967
 20
1.693878691006921
 30
0.0
  0
VERTEX
  5
246
  8
LAYER_1
 10
2.546295365105707
 20
1.719531027994803
 30
0.0
  0
SEQEND
  5
C09
  8
LAYER_1
  0
POLYLINE
  5
6A
  8
LAYER_1
 66
     1
 10
0.0
 20
0.0
 30
0.0
 70
     1
  0
VERTEX
  5
247
  8
LAYER_1
 10
2.613159040812574
 20
1.726758090891514
 30
0.0
  0
VERTEX
  5
248
  8
LAYER_1
 10
2.612689335099937
 20
1.713264726783031
 30
0.0
  0
VERTEX
  5
249
  8
LAYER_1
 10
2.612689335099937
 20
1.688925430764566
 30
0.0
  0
VERTEX
  5
24A
  8
LAYER_1
 10
2.61286013717726
 20
1.678394415184647
 30
0.0
  0
VERTEX
  5
24B
  8
LAYER_1
 10
2.613372543409227
 20
1.673958898739177
 30
0.0
  0
VERTEX
  5
24C
  8
LAYER_1
 10
2.613932987725442
 20
1.673351750729944
 30
0.0
  0
VERTEX
  5
24D
  8
LAYER_1
 10
2.614931112364796
 20
1.672918073580492
 30
0.0
  0
VERTEX
  5
24E
  8
LAYER_1
 10
2.61824040261292
 20
1.672571131860931
 30
0.0
  0
VERTEX
  5
24F
  8
LAYER_1
 10
2.621442941562719
 20
1.672571131860931
 30
0.0
  0
VERTEX
  5
250
  8
LAYER_1
 10
2.621442941562719
 20
1.669880999143101
 30
0.0
  0
VERTEX
  5
251
  8
LAYER_1
 10
2.608632785763526
 20
1.670179902778415
 30
0.0
  0
VERTEX
  5
252
  8
LAYER_1
 10
2.595908031002995
 20
1.669880999143101
 30
0.0
  0
VERTEX
  5
253
  8
LAYER_1
 10
2.595908031002995
 20
1.672571131860931
 30
0.0
  0
VERTEX
  5
254
  8
LAYER_1
 10
2.599494874626769
 20
1.672571131860931
 30
0.0
  0
VERTEX
  5
255
  8
LAYER_1
 10
2.601822052930289
 20
1.672757946633003
 30
0.0
  0
VERTEX
  5
256
  8
LAYER_1
 10
2.603167119289204
 20
1.673318390949217
 30
0.0
  0
VERTEX
  5
257
  8
LAYER_1
 10
2.603861002728327
 20
1.674423266886898
 30
0.0
  0
VERTEX
  5
258
  8
LAYER_1
 10
2.60423463227247
 20
1.676243376523366
 30
0.0
  0
VERTEX
  5
259
  8
LAYER_1
 10
2.604661637465777
 20
1.68913893336122
 30
0.0
  0
VERTEX
  5
25A
  8
LAYER_1
 10
2.604661637465777
 20
1.713520929899015
 30
0.0
  0
VERTEX
  5
25B
  8
LAYER_1
 10
2.604363401026077
 20
1.726758090891514
 30
0.0
  0
VERTEX
  5
25C
  8
LAYER_1
 10
2.600017955988569
 20
1.726758090891514
 30
0.0
  0
VERTEX
  5
25D
  8
LAYER_1
 10
2.59185998841067
 20
1.726635326898438
 30
0.0
  0
VERTEX
  5
25E
  8
LAYER_1
 10
2.588430769750832
 20
1.726267034919212
 30
0.0
  0
VERTEX
  5
25F
  8
LAYER_1
 10
2.587546902360468
 20
1.725066082813037
 30
0.0
  0
VERTEX
  5
260
  8
LAYER_1
 10
2.587024988590993
 20
1.722445338439119
 30
0.0
  0
VERTEX
  5
261
  8
LAYER_1
 10
2.586428515711593
 20
1.716723468848813
 30
0.0
  0
VERTEX
  5
262
  8
LAYER_1
 10
2.583738382993763
 20
1.716723468848813
 30
0.0
  0
VERTEX
  5
263
  8
LAYER_1
 10
2.583823784032424
 20
1.72180483064916
 30
0.0
  0
VERTEX
  5
264
  8
LAYER_1
 10
2.583311377800456
 20
1.730643838150602
 30
0.0
  0
VERTEX
  5
265
  8
LAYER_1
 10
2.610426207575413
 20
1.730344934515288
 30
0.0
  0
VERTEX
  5
266
  8
LAYER_1
 10
2.634039594765258
 20
1.730643838150602
 30
0.0
  0
VERTEX
  5
267
  8
LAYER_1
 10
2.633399086975298
 20
1.723555551941716
 30
0.0
  0
VERTEX
  5
268
  8
LAYER_1
 10
2.633100183339983
 20
1.716723468848813
 30
0.0
  0
VERTEX
  5
269
  8
LAYER_1
 10
2.630410050622153
 20
1.716723468848813
 30
0.0
  0
VERTEX
  5
26A
  8
LAYER_1
 10
2.629983045428847
 20
1.722317236881127
 30
0.0
  0
VERTEX
  5
26B
  8
LAYER_1
 10
2.629673466663699
 20
1.724628402489898
 30
0.0
  0
VERTEX
  5
26C
  8
LAYER_1
 10
2.629257136600226
 20
1.725754628687244
 30
0.0
  0
VERTEX
  5
26D
  8
LAYER_1
 10
2.628499202382107
 20
1.726186971445467
 30
0.0
  0
VERTEX
  5
26E
  8
LAYER_1
 10
2.627164811153024
 20
1.726416486736869
 30
0.0
  0
VERTEX
  5
26F
  8
LAYER_1
 10
2.616489681320364
 20
1.726758090891514
 30
0.0
  0
SEQEND
  5
C0A
  8
LAYER_1
  0
POLYLINE
  5
6B
  8
LAYER_1
 66
     1
 10
0.0
 20
0.0
 30
0.0
 70
     1
  0
VERTEX
  5
270
  8
LAYER_1
 10
2.654834747679279
 20
1.698917352287936
 30
0.0
  0
VERTEX
  5
271
  8
LAYER_1
 10
2.654834747679279
 20
1.688437710770337
 30
0.0
  0
VERTEX
  5
272
  8
LAYER_1
 10
2.65487744819861
 20
1.682406929610498
 30
0.0
  0
VERTEX
  5
273
  8
LAYER_1
 10
2.655005549756602
 20
1.674151718271779
 30
0.0
  0
VERTEX
  5
274
  8
LAYER_1
 10
2.668391495371143
 20
1.673681345363528
 30
0.0
  0
VERTEX
  5
275
  8
LAYER_1
 10
2.676431202526365
 20
1.674108350556834
 30
0.0
  0
VERTEX
  5
276
  8
LAYER_1
 10
2.680878728492897
 20
1.675218564059431
 30
0.0
  0
VERTEX
  5
277
  8
LAYER_1
 10
2.683059790956833
 20
1.684612678312172
 30
0.0
  0
VERTEX
  5
278
  8
LAYER_1
 10
2.685878025232655
 20
1.684612678312172
 30
0.0
  0
VERTEX
  5
279
  8
LAYER_1
 10
2.684725111210728
 20
1.672107430908825
 30
0.0
  0
VERTEX
  5
27A
  8
LAYER_1
 10
2.684810512249389
 20
1.670179902778415
 30
0.0
  0
VERTEX
  5
27B
  8
LAYER_1
 10
2.675160194880664
 20
1.669752897585109
 30
0.0
  0
VERTEX
  5
27C
  8
LAYER_1
 10
2.668456213345753
 20
1.669880999143101
 30
0.0
  0
VERTEX
  5
27D
  8
LAYER_1
 10
2.652144614961449
 20
1.670179902778415
 30
0.0
  0
VERTEX
  5
27E
  8
LAYER_1
 10
2.638864753449619
 20
1.669880999143101
 30
0.0
  0
VERTEX
  5
27F
  8
LAYER_1
 10
2.638864753449619
 20
1.672571131860931
 30
0.0
  0
VERTEX
  5
280
  8
LAYER_1
 10
2.640188469548869
 20
1.672571131860931
 30
0.0
  0
VERTEX
  5
281
  8
LAYER_1
 10
2.643214868856428
 20
1.672752609068086
 30
0.0
  0
VERTEX
  5
282
  8
LAYER_1
 10
2.644864176415575
 20
1.673297040689552
 30
0.0
  0
VERTEX
  5
283
  8
LAYER_1
 10
2.645664811153024
 20
1.674514005490475
 30
0.0
  0
VERTEX
  5
284
  8
LAYER_1
 10
2.646145191995494
 20
1.676713082236003
 30
0.0
  0
VERTEX
  5
285
  8
LAYER_1
 10
2.646465445890474
 20
1.688583826609921
 30
0.0
  0
VERTEX
  5
286
  8
LAYER_1
 10
2.646465445890474
 20
1.712026411722443
 30
0.0
  0
VERTEX
  5
287
  8
LAYER_1
 10
2.646187892514825
 20
1.721463226494514
 30
0.0
  0
VERTEX
  5
288
  8
LAYER_1
 10
2.645590085244196
 20
1.725840029725905
 30
0.0
  0
VERTEX
  5
289
  8
LAYER_1
 10
2.644672024078587
 20
1.726928892968836
 30
0.0
  0
VERTEX
  5
28A
  8
LAYER_1
 10
2.640999779416151
 20
1.727612101278127
 30
0.0
  0
VERTEX
  5
28B
  8
LAYER_1
 10
2.637711839427692
 20
1.727953705432772
 30
0.0
  0
VERTEX
  5
28C
  8
LAYER_1
 10
2.637711839427692
 20
1.730643838150602
 30
0.0
  0
VERTEX
  5
28D
  8
LAYER_1
 10
2.642323495515401
 20
1.730643838150602
 30
0.0
  0
VERTEX
  5
28E
  8
LAYER_1
 10
2.646849750564449
 20
1.730494386332945
 30
0.0
  0
VERTEX
  5
28F
  8
LAYER_1
 10
2.652614320674086
 20
1.730344934515288
 30
0.0
  0
VERTEX
  5
290
  8
LAYER_1
 10
2.669011320097052
 20
1.730593798479511
 30
0.0
  0
VERTEX
  5
291
  8
LAYER_1
 10
2.676782814615228
 20
1.730643838150602
 30
0.0
  0
VERTEX
  5
292
  8
LAYER_1
 10
2.684810512249389
 20
1.730344934515288
 30
0.0
  0
VERTEX
  5
293
  8
LAYER_1
 10
2.683550846929135
 20
1.724510642463932
 30
0.0
  0
VERTEX
  5
294
  8
LAYER_1
 10
2.683017090437502
 20
1.71715047404212
 30
0.0
  0
VERTEX
  5
295
  8
LAYER_1
 10
2.680113455123018
 20
1.71715047404212
 30
0.0
  0
VERTEX
  5
296
  8
LAYER_1
 10
2.679643749410381
 20
1.724964669079627
 30
0.0
  0
VERTEX
  5
297
  8
LAYER_1
 10
2.674028631118402
 20
1.726373786217538
 30
0.0
  0
VERTEX
  5
298
  8
LAYER_1
 10
2.667260598804496
 20
1.726843491930175
 30
0.0
  0
VERTEX
  5
299
  8
LAYER_1
 10
2.655005549756602
 20
1.726331752893822
 30
0.0
  0
VERTEX
  5
29A
  8
LAYER_1
 10
2.65492014871794
 20
1.718318733563182
 30
0.0
  0
VERTEX
  5
29B
  8
LAYER_1
 10
2.654834747679279
 20
1.711754863107324
 30
0.0
  0
VERTEX
  5
29C
  8
LAYER_1
 10
2.654834747679279
 20
1.703102003182339
 30
0.0
  0
VERTEX
  5
29D
  8
LAYER_1
 10
2.662307338562141
 20
1.702803099547024
 30
0.0
  0
VERTEX
  5
29E
  8
LAYER_1
 10
2.670265647852389
 20
1.702979239189263
 30
0.0
  0
VERTEX
  5
29F
  8
LAYER_1
 10
2.673815128521749
 20
1.70350765811598
 30
0.0
  0
VERTEX
  5
2A0
  8
LAYER_1
 10
2.674403595053774
 20
1.7040454177813
 30
0.0
  0
VERTEX
  5
2A1
  8
LAYER_1
 10
2.674823928290935
 20
1.704954138208306
 30
0.0
  0
VERTEX
  5
2A2
  8
LAYER_1
 10
2.675160194880664
 20
1.707884461347371
 30
0.0
  0
VERTEX
  5
2A3
  8
LAYER_1
 10
2.675160194880664
 20
1.710659995103862
 30
0.0
  0
VERTEX
  5
2A4
  8
LAYER_1
 10
2.678063830195148
 20
1.710659995103862
 30
0.0
  0
VERTEX
  5
2A5
  8
LAYER_1
 10
2.677764926559833
 20
1.700369169945178
 30
0.0
  0
VERTEX
  5
2A6
  8
LAYER_1
 10
2.678063830195148
 20
1.690804253615115
 30
0.0
  0
VERTEX
  5
2A7
  8
LAYER_1
 10
2.675160194880664
 20
1.690804253615115
 30
0.0
  0
VERTEX
  5
2A8
  8
LAYER_1
 10
2.675160194880664
 20
1.693280883736292
 30
0.0
  0
VERTEX
  5
2A9
  8
LAYER_1
 10
2.674759877511939
 20
1.6965848364195
 30
0.0
  0
VERTEX
  5
2AA
  8
LAYER_1
 10
2.674259480801033
 20
1.697640339881704
 30
0.0
  0
VERTEX
  5
2AB
  8
LAYER_1
 10
2.673558925405765
 20
1.698298194757642
 30
0.0
  0
VERTEX
  5
2AC
  8
LAYER_1
 10
2.672252556392493
 20
1.698699846517596
 30
0.0
  0
VERTEX
  5
2AD
  8
LAYER_1
 10
2.669934718827577
 20
1.698986740631848
 30
0.0
  0
VERTEX
  5
2AE
  8
LAYER_1
 10
2.662264638042811
 20
1.699216255923251
 30
0.0
  0
SEQEND
  5
C0B
  8
LAYER_1
  0
POLYLINE
  5
6C
  8
LAYER_1
 66
     1
 10
0.0
 20
0.0
 30
0.0
 70
     1
  0
VERTEX
  5
2AF
  8
LAYER_1
 10
2.755535248977606
 20
1.690377248421808
 30
0.0
  0
VERTEX
  5
2B0
  8
LAYER_1
 10
2.73083299854483
 20
1.690377248421808
 30
0.0
  0
VERTEX
  5
2B1
  8
LAYER_1
 10
2.727938036773336
 20
1.683502464809575
 30
0.0
  0
VERTEX
  5
2B2
  8
LAYER_1
 10
2.725792335676971
 20
1.677994097815922
 30
0.0
  0
VERTEX
  5
2B3
  8
LAYER_1
 10
2.725077101978183
 20
1.67513316302077
 30
0.0
  0
VERTEX
  5
2B4
  8
LAYER_1
 10
2.725210541101092
 20
1.674289827763989
 30
0.0
  0
VERTEX
  5
2B5
  8
LAYER_1
 10
2.725610858469816
 20
1.673724045882858
 30
0.0
  0
VERTEX
  5
2B6
  8
LAYER_1
 10
2.728322341447312
 20
1.673040837573568
 30
0.0
  0
VERTEX
  5
2B7
  8
LAYER_1
 10
2.732421591303053
 20
1.672571131860931
 30
0.0
  0
VERTEX
  5
2B8
  8
LAYER_1
 10
2.732421591303053
 20
1.669880999143101
 30
0.0
  0
VERTEX
  5
2B9
  8
LAYER_1
 10
2.723198279127635
 20
1.670179902778415
 30
0.0
  0
VERTEX
  5
2BA
  8
LAYER_1
 10
2.712395047736983
 20
1.669880999143101
 30
0.0
  0
VERTEX
  5
2BB
  8
LAYER_1
 10
2.712395047736983
 20
1.672571131860931
 30
0.0
  0
VERTEX
  5
2BC
  8
LAYER_1
 10
2.713676063316902
 20
1.672613832380262
 30
0.0
  0
VERTEX
  5
2BD
  8
LAYER_1
 10
2.71613668074333
 20
1.672811322282166
 30
0.0
  0
VERTEX
  5
2BE
  8
LAYER_1
 10
2.717540460316325
 20
1.673232989910556
 30
0.0
  0
VERTEX
  5
2BF
  8
LAYER_1
 10
2.718442508787185
 20
1.674156388641081
 30
0.0
  0
VERTEX
  5
2C0
  8
LAYER_1
 10
2.719397932907208
 20
1.67585907184939
 30
0.0
  0
VERTEX
  5
2C1
  8
LAYER_1
 10
2.725589508210151
 20
1.68913893336122
 30
0.0
  0
VERTEX
  5
2C2
  8
LAYER_1
 10
2.737332151026077
 20
1.715741356904209
 30
0.0
  0
VERTEX
  5
2C3
  8
LAYER_1
 10
2.743737228925673
 20
1.731113543863239
 30
0.0
  0
VERTEX
  5
2C4
  8
LAYER_1
 10
2.746640864240157
 20
1.731113543863239
 30
0.0
  0
VERTEX
  5
2C5
  8
LAYER_1
 10
2.768247327021461
 20
1.680855032611075
 30
0.0
  0
VERTEX
  5
2C6
  8
LAYER_1
 10
2.771150962335944
 20
1.674684807567798
 30
0.0
  0
VERTEX
  5
2C7
  8
LAYER_1
 10
2.772816282589839
 20
1.673190289391225
 30
0.0
  0
VERTEX
  5
2C8
  8
LAYER_1
 10
2.77434282615591
 20
1.672811322282166
 30
0.0
  0
VERTEX
  5
2C9
  8
LAYER_1
 10
2.777043634003573
 20
1.672571131860931
 30
0.0
  0
VERTEX
  5
2CA
  8
LAYER_1
 10
2.777043634003573
 20
1.669880999143101
 30
0.0
  0
VERTEX
  5
2CB
  8
LAYER_1
 10
2.766453905209574
 20
1.670179902778415
 30
0.0
  0
VERTEX
  5
2CC
  8
LAYER_1
 10
2.753942653045696
 20
1.669880999143101
 30
0.0
  0
VERTEX
  5
2CD
  8
LAYER_1
 10
2.753942653045696
 20
1.672571131860931
 30
0.0
  0
VERTEX
  5
2CE
  8
LAYER_1
 10
2.75817000445943
 20
1.672827334976915
 30
0.0
  0
VERTEX
  5
2CF
  8
LAYER_1
 10
2.76086013717726
 20
1.673297040689552
 30
0.0
  0
VERTEX
  5
2D0
  8
LAYER_1
 10
2.761340518019729
 20
1.673830797181185
 30
0.0
  0
VERTEX
  5
2D1
  8
LAYER_1
 10
2.761500644967219
 20
1.67449265523081
 30
0.0
  0
VERTEX
  5
2D2
  8
LAYER_1
 10
2.7602196293873
 20
1.67850650404789
 30
0.0
  0
SEQEND
  5
C0C
  8
LAYER_1
  0
POLYLINE
  5
6D
  8
LAYER_1
 66
     1
 10
0.0
 20
0.0
 30
0.0
 70
     1
  0
VERTEX
  5
2D3
  8
LAYER_1
 10
2.732424260085511
 20
1.693878691006921
 30
0.0
  0
VERTEX
  5
2D4
  8
LAYER_1
 10
2.753935981089551
 20
1.693878691006921
 30
0.0
  0
VERTEX
  5
2D5
  8
LAYER_1
 10
2.743187459739291
 20
1.719531027994803
 30
0.0
  0
SEQEND
  5
C0D
  8
LAYER_1
  0
POLYLINE
  5
6E
  8
LAYER_1
 66
     1
 10
0.0
 20
0.0
 30
0.0
 70
     1
  0
VERTEX
  5
2D6
  8
LAYER_1
 10
2.792842826155909
 20
1.721009533476626
 30
0.0
  0
VERTEX
  5
2D7
  8
LAYER_1
 10
2.792842826155909
 20
1.691493466684936
 30
0.0
  0
VERTEX
  5
2D8
  8
LAYER_1
 10
2.793229132416729
 20
1.677440325455853
 30
0.0
  0
VERTEX
  5
2D9
  8
LAYER_1
 10
2.793631367972845
 20
1.675000474492927
 30
0.0
  0
VERTEX
  5
2DA
  8
LAYER_1
 10
2.794237598588108
 20
1.673745729740331
 30
0.0
  0
VERTEX
  5
2DB
  8
LAYER_1
 10
2.795616608523913
 20
1.673174360095928
 30
0.0
  0
VERTEX
  5
2DC
  8
LAYER_1
 10
2.798337182041656
 20
1.672784634457584
 30
0.0
  0
VERTEX
  5
2DD
  8
LAYER_1
 10
2.801084026386723
 20
1.672571131860931
 30
0.0
  0
VERTEX
  5
2DE
  8
LAYER_1
 10
2.801084026386723
 20
1.669880999143101
 30
0.0
  0
VERTEX
  5
2DF
  8
LAYER_1
 10
2.792654676992609
 20
1.670179902778415
 30
0.0
  0
VERTEX
  5
2E0
  8
LAYER_1
 10
2.780673178146677
 20
1.669880999143101
 30
0.0
  0
VERTEX
  5
2E1
  8
LAYER_1
 10
2.780673178146677
 20
1.672571131860931
 30
0.0
  0
VERTEX
  5
2E2
  8
LAYER_1
 10
2.783747615538483
 20
1.672571131860931
 30
0.0
  0
VERTEX
  5
2E3
  8
LAYER_1
 10
2.786042768452505
 20
1.672763284197919
 30
0.0
  0
VERTEX
  5
2E4
  8
LAYER_1
 10
2.787377159681587
 20
1.673339741208883
 30
0.0
  0
VERTEX
  5
2E5
  8
LAYER_1
 10
2.788071043120711
 20
1.674481980100977
 30
0.0
  0
VERTEX
  5
2E6
  8
LAYER_1
 10
2.788444672664853
 20
1.676371478081358
 30
0.0
  0
VERTEX
  5
2E7
  8
LAYER_1
 10
2.78891437837749
 20
1.68913893336122
 30
0.0
  0
VERTEX
  5
2E8
  8
LAYER_1
 10
2.78891437837749
 20
1.710361091468548
 30
0.0
  0
VERTEX
  5
2E9
  8
LAYER_1
 10
2.788786276819498
 20
1.722189135323135
 30
0.0
  0
VERTEX
  5
2EA
  8
LAYER_1
 10
2.788578111787761
 20
1.72427612320542
 30
0.0
  0
VERTEX
  5
2EB
  8
LAYER_1
 10
2.788124418769874
 20
1.725583826609921
 30
0.0
  0
VERTEX
  5
2EC
  8
LAYER_1
 10
2.786437748256313
 20
1.727227796604151
 30
0.0
  0
VERTEX
  5
2ED
  8
LAYER_1
 10
2.785103357027231
 20
1.727772228225616
 30
0.0
  0
VERTEX
  5
2EE
  8
LAYER_1
 10
2.783320610345176
 20
1.727953705432772
 30
0.0
  0
VERTEX
  5
2EF
  8
LAYER_1
 10
2.780673178146677
 20
1.727953705432772
 30
0.0
  0
VERTEX
  5
2F0
  8
LAYER_1
 10
2.780673178146677
 20
1.730643838150602
 30
0.0
  0
VERTEX
  5
2F1
  8
LAYER_1
 10
2.788957078896821
 20
1.730344934515288
 30
0.0
  0
VERTEX
  5
2F2
  8
LAYER_1
 10
2.795703760951062
 20
1.730643838150602
 30
0.0
  0
VERTEX
  5
2F3
  8
LAYER_1
 10
2.803667407806227
 20
1.720587865848236
 30
0.0
  0
VERTEX
  5
2F4
  8
LAYER_1
 10
2.811417552064738
 20
1.710745396142524
 30
0.0
  0
VERTEX
  5
2F5
  8
LAYER_1
 10
2.826021129675817
 20
1.692811178023655
 30
0.0
  0
VERTEX
  5
2F6
  8
LAYER_1
 10
2.837422168337098
 20
1.679403214953834
 30
0.0
  0
VERTEX
  5
2F7
  8
LAYER_1
 10
2.837422168337098
 20
1.706816948364105
 30
0.0
  0
VERTEX
  5
2F8
  8
LAYER_1
 10
2.837267378954525
 20
1.720123497700516
 30
0.0
  0
VERTEX
  5
2F9
  8
LAYER_1
 10
2.836803010806804
 20
1.725626527129252
 30
0.0
  0
VERTEX
  5
2FA
  8
LAYER_1
 10
2.836262582359026
 20
1.726353770349102
 30
0.0
  0
VERTEX
  5
2FB
  8
LAYER_1
 10
2.835260454545984
 20
1.726934230533753
 30
0.0
  0
VERTEX
  5
2FC
  8
LAYER_1
 10
2.831871100824115
 20
1.727654801797457
 30
0.0
  0
VERTEX
  5
2FD
  8
LAYER_1
 10
2.828668561874317
 20
1.727953705432772
 30
0.0
  0
VERTEX
  5
2FE
  8
LAYER_1
 10
2.828668561874317
 20
1.730643838150602
 30
0.0
  0
VERTEX
  5
2FF
  8
LAYER_1
 10
2.839343691706977
 20
1.730344934515288
 30
0.0
  0
VERTEX
  5
300
  8
LAYER_1
 10
2.849591816346331
 20
1.730643838150602
 30
0.0
  0
VERTEX
  5
301
  8
LAYER_1
 10
2.849591816346331
 20
1.727953705432772
 30
0.0
  0
VERTEX
  5
302
  8
LAYER_1
 10
2.846303876357871
 20
1.727953705432772
 30
0.0
  0
VERTEX
  5
303
  8
LAYER_1
 10
2.844529136023191
 20
1.727788240920366
 30
0.0
  0
VERTEX
  5
304
  8
LAYER_1
 10
2.843176063316902
 20
1.727291847383147
 30
0.0
  0
VERTEX
  5
305
  8
LAYER_1
 10
2.842244658239002
 20
1.726464524821116
 30
0.0
  0
VERTEX
  5
306
  8
LAYER_1
 10
2.841734920789493
 20
1.725306273234272
 30
0.0
  0
VERTEX
  5
307
  8
LAYER_1
 10
2.841446692284011
 20
1.719755205721289
 30
0.0
  0
VERTEX
  5
308
  8
LAYER_1
 10
2.841350616115517
 20
1.706603445767451
 30
0.0
  0
VERTEX
  5
309
  8
LAYER_1
 10
2.841350616115517
 20
1.687345511549333
 30
0.0
  0
VERTEX
  5
30A
  8
LAYER_1
 10
2.842033824424807
 20
1.668770785640504
 30
0.0
  0
VERTEX
  5
30B
  8
LAYER_1
 10
2.835287142370566
 20
1.670073151480089
 30
0.0
  0
VERTEX
  5
30C
  8
LAYER_1
 10
2.833493720558679
 20
1.671418217839004
 30
0.0
  0
VERTEX
  5
30D
  8
LAYER_1
 10
2.82354449955464
 20
1.683079462789956
 30
0.0
  0
SEQEND
  5
C0E
  8
LAYER_1
  0
POLYLINE
  5
6F
  8
LAYER_1
 66
     1
 10
0.0
 20
0.0
 30
0.0
 70
     1
  0
VERTEX
  5
30E
  8
LAYER_1
 10
2.86090745396895
 20
1.674151051076165
 30
0.0
  0
VERTEX
  5
30F
  8
LAYER_1
 10
2.861419860200918
 20
1.683246261693591
 30
0.0
  0
VERTEX
  5
310
  8
LAYER_1
 10
2.86159066227824
 20
1.697294732553372
 30
0.0
  0
VERTEX
  5
311
  8
LAYER_1
 10
2.86159066227824
 20
1.709677883159258
 30
0.0
  0
VERTEX
  5
312
  8
LAYER_1
 10
2.861078256046273
 20
1.722786942593764
 30
0.0
  0
VERTEX
  5
313
  8
LAYER_1
 10
2.860731314326712
 20
1.725316948364105
 30
0.0
  0
VERTEX
  5
314
  8
LAYER_1
 10
2.860288296438656
 20
1.72650188777553
 30
0.0
  0
VERTEX
  5
315
  8
LAYER_1
 10
2.85916207024131
 20
1.726992943747832
 30
0.0
  0
VERTEX
  5
316
  8
LAYER_1
 10
2.856765503593878
 20
1.727441299200804
 30
0.0
  0
VERTEX
  5
317
  8
LAYER_1
 10
2.853349462047427
 20
1.727953705432772
 30
0.0
  0
VERTEX
  5
318
  8
LAYER_1
 10
2.853349462047427
 20
1.730643838150602
 30
0.0
  0
VERTEX
  5
319
  8
LAYER_1
 10
2.862828977338829
 20
1.730430335553949
 30
0.0
  0
VERTEX
  5
31A
  8
LAYER_1
 10
2.874315417038771
 20
1.73051573659261
 30
0.0
  0
VERTEX
  5
31B
  8
LAYER_1
 10
2.883666830772182
 20
1.730686538669933
 30
0.0
  0
VERTEX
  5
31C
  8
LAYER_1
 10
2.889378025232655
 20
1.730451685813614
 30
0.0
  0
VERTEX
  5
31D
  8
LAYER_1
 10
2.895238671510785
 20
1.729576325167336
 30
0.0
  0
VERTEX
  5
31E
  8
LAYER_1
 10
2.898136969260352
 20
1.728827731687821
 30
0.0
  0
VERTEX
  5
31F
  8
LAYER_1
 10
2.900896490322095
 20
1.727777565790533
 30
0.0
  0
VERTEX
  5
320
  8
LAYER_1
 10
2.903517234696013
 20
1.726425827475472
 30
0.0
  0
VERTEX
  5
321
  8
LAYER_1
 10
2.905999202382107
 20
1.724772516742639
 30
0.0
  0
VERTEX
  5
322
  8
LAYER_1
 10
2.908267667471547
 20
1.722853662155218
 30
0.0
  0
VERTEX
  5
323
  8
LAYER_1
 10
2.910247904055505
 20
1.720705292276395
 30
0.0
  0
VERTEX
  5
324
  8
LAYER_1
 10
2.911939912133982
 20
1.71832740710617
 30
0.0
  0
VERTEX
  5
325
  8
LAYER_1
 10
2.913343691706977
 20
1.715720006644543
 30
0.0
  0
VERTEX
  5
326
  8
LAYER_1
 10
2.914445898862199
 20
1.712892431630118
 30
0.0
  0
VERTEX
  5
327
  8
LAYER_1
 10
2.915233189687358
 20
1.709854022801496
 30
0.0
  0
VERTEX
  5
328
  8
LAYER_1
 10
2.915705564182453
 20
1.706604780158681
 30
0.0
  0
VERTEX
  5
329
  8
LAYER_1
 10
2.915863022347485
 20
1.70314470370167
 30
0.0
  0
VERTEX
  5
32A
  8
LAYER_1
 10
2.915711235345176
 20
1.699614571705132
 30
0.0
  0
VERTEX
  5
32B
  8
LAYER_1
 10
2.915255874338252
 20
1.696240563482397
 30
0.0
  0
VERTEX
  5
32C
  8
LAYER_1
 10
2.914496939326711
 20
1.693022679033464
 30
0.0
  0
VERTEX
  5
32D
  8
LAYER_1
 10
2.913434430310555
 20
1.689960918358334
 30
0.0
  0
VERTEX
  5
32E
  8
LAYER_1
 10
2.912068347289781
 20
1.687055281457007
 30
0.0
  0
VERTEX
  5
32F
  8
LAYER_1
 10
2.910398690264392
 20
1.684305768329483
 30
0.0
  0
VERTEX
  5
330
  8
LAYER_1
 10
2.908425459234386
 20
1.681712378975761
 30
0.0
  0
VERTEX
  5
331
  8
LAYER_1
 10
2.906148654199764
 20
1.679275113395842
 30
0.0
  0
VERTEX
  5
332
  8
LAYER_1
 10
2.903626988374605
 20
1.677063359933637
 30
0.0
  0
VERTEX
  5
333
  8
LAYER_1
 10
2.900919174972989
 20
1.67514650693306
 30
0.0
  0
VERTEX
  5
334
  8
LAYER_1
 10
2.898025213994917
 20
1.67352455439411
 30
0.0
  0
VERTEX
  5
335
  8
LAYER_1
 10
2.894945105440387
 20
1.672197502316788
 30
0.0
  0
VERTEX
  5
336
  8
LAYER_1
 10
2.8916788493094
 20
1.671165350701092
 30
0.0
  0
VERTEX
  5
337
  8
LAYER_1
 10
2.888226445601957
 20
1.670428099547024
 30
0.0
  0
VERTEX
  5
338
  8
LAYER_1
 10
2.884587894318056
 20
1.669985748854584
 30
0.0
  0
VERTEX
  5
339
  8
LAYER_1
 10
2.880763195457698
 20
1.66983829862377
 30
0.0
  0
VERTEX
  5
33A
  8
LAYER_1
 10
2.875511031580029
 20
1.669966400181762
 30
0.0
  0
VERTEX
  5
33B
  8
LAYER_1
 10
2.865732612653312
 20
1.670265303817076
 30
0.0
  0
VERTEX
  5
33C
  8
LAYER_1
 10
2.8569363056712
 20
1.669752897585109
 30
0.0
  0
VERTEX
  5
33D
  8
LAYER_1
 10
2.8569363056712
 20
1.67180252251298
 30
0.0
  0
SEQEND
  5
C0F
  8
LAYER_1
  0
POLYLINE
  5
70
  8
LAYER_1
 66
     1
 10
0.0
 20
0.0
 30
0.0
 70
     1
  0
VERTEX
  5
33E
  8
LAYER_1
 10
2.870130766144368
 20
1.674364553672818
 30
0.0
  0
VERTEX
  5
33F
  8
LAYER_1
 10
2.87555373209936
 20
1.673724045882858
 30
0.0
  0
VERTEX
  5
340
  8
LAYER_1
 10
2.880293489745061
 20
1.673510543286205
 30
0.0
  0
VERTEX
  5
341
  8
LAYER_1
 10
2.88593796464408
 20
1.673894847960181
 30
0.0
  0
VERTEX
  5
342
  8
LAYER_1
 10
2.890915243928558
 20
1.675047761982108
 30
0.0
  0
VERTEX
  5
343
  8
LAYER_1
 10
2.895225327598494
 20
1.676969285351987
 30
0.0
  0
VERTEX
  5
344
  8
LAYER_1
 10
2.89886821565389
 20
1.679659418069817
 30
0.0
  0
VERTEX
  5
345
  8
LAYER_1
 10
2.900739699352678
 20
1.681634317088859
 30
0.0
  0
VERTEX
  5
346
  8
LAYER_1
 10
2.902361651891628
 20
1.683822718704555
 30
0.0
  0
VERTEX
  5
347
  8
LAYER_1
 10
2.903734073270739
 20
1.686224622916904
 30
0.0
  0
VERTEX
  5
348
  8
LAYER_1
 10
2.904856963490012
 20
1.688840029725905
 30
0.0
  0
VERTEX
  5
349
  8
LAYER_1
 10
2.906354150449042
 20
1.694711351133868
 30
0.0
  0
VERTEX
  5
34A
  8
LAYER_1
 10
2.906853212768719
 20
1.701436682928444
 30
0.0
  0
VERTEX
  5
34B
  8
LAYER_1
 10
2.906438217096475
 20
1.707299997989033
 30
0.0
  0
VERTEX
  5
34C
  8
LAYER_1
 10
2.905193230079741
 20
1.712421391526251
 30
0.0
  0
VERTEX
  5
34D
  8
LAYER_1
 10
2.903118251718517
 20
1.7168008635401
 30
0.0
  0
VERTEX
  5
34E
  8
LAYER_1
 10
2.900213282012805
 20
1.720438414030579
 30
0.0
  0
VERTEX
  5
34F
  8
LAYER_1
 10
2.896507677569643
 20
1.723296680043274
 30
0.0
  0
VERTEX
  5
350
  8
LAYER_1
 10
2.892030794996071
 20
1.72533829862377
 30
0.0
  0
VERTEX
  5
351
  8
LAYER_1
 10
2.886782634292089
 20
1.726563269772068
 30
0.0
  0
VERTEX
  5
352
  8
LAYER_1
 10
2.880763195457698
 20
1.726971593488167
 30
0.0
  0
VERTEX
  5
353
  8
LAYER_1
 10
2.875863310864507
 20
1.726747415761681
 30
0.0
  0
VERTEX
  5
354
  8
LAYER_1
 10
2.870130766144368
 20
1.726074882582224
 30
0.0
  0
VERTEX
  5
355
  8
LAYER_1
 10
2.869618359912401
 20
1.716766169368144
 30
0.0
  0
VERTEX
  5
356
  8
LAYER_1
 10
2.869618359912401
 20
1.688840029725905
 30
0.0
  0
SEQEND
  5
C10
  8
LAYER_1
  0
POLYLINE
  5
71
  8
LAYER_1
 66
     1
 10
0.0
 20
0.0
 30
0.0
 70
     1
  0
VERTEX
  5
357
  8
LAYER_1
 10
2.94357565939307
 20
1.672571131860931
 30
0.0
  0
VERTEX
  5
358
  8
LAYER_1
 10
2.9462657921109
 20
1.672571131860931
 30
0.0
  0
VERTEX
  5
359
  8
LAYER_1
 10
2.949441643236117
 20
1.673051512703401
 30
0.0
  0
VERTEX
  5
35A
  8
LAYER_1
 10
2.950433095919325
 20
1.673651988756488
 30
0.0
  0
VERTEX
  5
35B
  8
LAYER_1
 10
2.951026900016267
 20
1.67449265523081
 30
0.0
  0
VERTEX
  5
35C
  8
LAYER_1
 10
2.951619369721979
 20
1.680054397873626
 30
0.0
  0
VERTEX
  5
35D
  8
LAYER_1
 10
2.951816859623884
 20
1.692896579062316
 30
0.0
  0
VERTEX
  5
35E
  8
LAYER_1
 10
2.951816859623884
 20
1.707372055115403
 30
0.0
  0
VERTEX
  5
35F
  8
LAYER_1
 10
2.951646057546561
 20
1.720619891237734
 30
0.0
  0
VERTEX
  5
360
  8
LAYER_1
 10
2.951133651314593
 20
1.726202984140216
 30
0.0
  0
VERTEX
  5
361
  8
LAYER_1
 10
2.950621245082626
 20
1.726968924705709
 30
0.0
  0
VERTEX
  5
362
  8
LAYER_1
 10
2.949767234696013
 20
1.727516025109633
 30
0.0
  0
VERTEX
  5
363
  8
LAYER_1
 10
2.947034401458852
 20
1.727953705432772
 30
0.0
  0
VERTEX
  5
364
  8
LAYER_1
 10
2.94357565939307
 20
1.727953705432772
 30
0.0
  0
VERTEX
  5
365
  8
LAYER_1
 10
2.94357565939307
 20
1.730643838150602
 30
0.0
  0
VERTEX
  5
366
  8
LAYER_1
 10
2.957606115971258
 20
1.730344934515288
 30
0.0
  0
VERTEX
  5
367
  8
LAYER_1
 10
2.968085757488858
 20
1.730643838150602
 30
0.0
  0
VERTEX
  5
368
  8
LAYER_1
 10
2.968085757488858
 20
1.727953705432772
 30
0.0
  0
VERTEX
  5
369
  8
LAYER_1
 10
2.96478047041442
 20
1.727953705432772
 30
0.0
  0
VERTEX
  5
36A
  8
LAYER_1
 10
2.962302005505303
 20
1.727772228225616
 30
0.0
  0
VERTEX
  5
36B
  8
LAYER_1
 10
2.960960775521172
 20
1.727227796604151
 30
0.0
  0
VERTEX
  5
36C
  8
LAYER_1
 10
2.960349123941541
 20
1.725946781024232
 30
0.0
  0
VERTEX
  5
36D
  8
LAYER_1
 10
2.960059394245926
 20
1.723555551941716
 30
0.0
  0
VERTEX
  5
36E
  8
LAYER_1
 10
2.959844557258044
 20
1.707286654076742
 30
0.0
  0
VERTEX
  5
36F
  8
LAYER_1
 10
2.959844557258044
 20
1.692554974907671
 30
0.0
  0
VERTEX
  5
370
  8
LAYER_1
 10
2.960026951859169
 20
1.679675430764566
 30
0.0
  0
VERTEX
  5
371
  8
LAYER_1
 10
2.960574135662545
 20
1.674257802374491
 30
0.0
  0
VERTEX
  5
372
  8
LAYER_1
 10
2.961140146892169
 20
1.673519884024809
 30
0.0
  0
VERTEX
  5
373
  8
LAYER_1
 10
2.962108602176538
 20
1.672992799489321
 30
0.0
  0
VERTEX
  5
374
  8
LAYER_1
 10
2.965252844909516
 20
1.672571131860931
 30
0.0
  0
VERTEX
  5
375
  8
LAYER_1
 10
2.968085757488858
 20
1.672571131860931
 30
0.0
  0
VERTEX
  5
376
  8
LAYER_1
 10
2.968085757488858
 20
1.669880999143101
 30
0.0
  0
VERTEX
  5
377
  8
LAYER_1
 10
2.95662200243981
 20
1.670179902778415
 30
0.0
  0
VERTEX
  5
378
  8
LAYER_1
 10
2.94357565939307
 20
1.669880999143101
 30
0.0
  0
SEQEND
  5
C11
  8
LAYER_1
  0
POLYLINE
  5
72
  8
LAYER_1
 66
     1
 10
0.0
 20
0.0
 30
0.0
 70
     1
  0
VERTEX
  5
379
  8
LAYER_1
 10
2.984525457431154
 20
1.721009533476626
 30
0.0
  0
VERTEX
  5
37A
  8
LAYER_1
 10
2.984525457431154
 20
1.691493466684936
 30
0.0
  0
VERTEX
  5
37B
  8
LAYER_1
 10
2.984911763691974
 20
1.677440325455853
 30
0.0
  0
VERTEX
  5
37C
  8
LAYER_1
 10
2.98531399924809
 20
1.675000474492927
 30
0.0
  0
VERTEX
  5
37D
  8
LAYER_1
 10
2.985920229863352
 20
1.673745729740331
 30
0.0
  0
VERTEX
  5
37E
  8
LAYER_1
 10
2.987299239799158
 20
1.673174360095928
 30
0.0
  0
VERTEX
  5
37F
  8
LAYER_1
 10
2.990019813316901
 20
1.672784634457584
 30
0.0
  0
VERTEX
  5
380
  8
LAYER_1
 10
2.992766657661968
 20
1.672571131860931
 30
0.0
  0
VERTEX
  5
381
  8
LAYER_1
 10
2.992766657661968
 20
1.669880999143101
 30
0.0
  0
VERTEX
  5
382
  8
LAYER_1
 10
2.984337308267853
 20
1.670179902778415
 30
0.0
  0
VERTEX
  5
383
  8
LAYER_1
 10
2.972355809421921
 20
1.669880999143101
 30
0.0
  0
VERTEX
  5
384
  8
LAYER_1
 10
2.972355809421921
 20
1.672571131860931
 30
0.0
  0
VERTEX
  5
385
  8
LAYER_1
 10
2.975430246813727
 20
1.672571131860931
 30
0.0
  0
VERTEX
  5
386
  8
LAYER_1
 10
2.97772539972775
 20
1.672763284197919
 30
0.0
  0
VERTEX
  5
387
  8
LAYER_1
 10
2.979059790956832
 20
1.673339741208883
 30
0.0
  0
VERTEX
  5
388
  8
LAYER_1
 10
2.979753674395955
 20
1.674481980100977
 30
0.0
  0
VERTEX
  5
389
  8
LAYER_1
 10
2.980127303940098
 20
1.676371478081358
 30
0.0
  0
VERTEX
  5
38A
  8
LAYER_1
 10
2.980597009652735
 20
1.68913893336122
 30
0.0
  0
VERTEX
  5
38B
  8
LAYER_1
 10
2.980597009652735
 20
1.710361091468548
 30
0.0
  0
VERTEX
  5
38C
  8
LAYER_1
 10
2.980468908094743
 20
1.722189135323135
 30
0.0
  0
VERTEX
  5
38D
  8
LAYER_1
 10
2.980260743063006
 20
1.72427612320542
 30
0.0
  0
VERTEX
  5
38E
  8
LAYER_1
 10
2.979807050045118
 20
1.725583826609921
 30
0.0
  0
VERTEX
  5
38F
  8
LAYER_1
 10
2.978120379531558
 20
1.727227796604151
 30
0.0
  0
VERTEX
  5
390
  8
LAYER_1
 10
2.976785988302475
 20
1.727772228225616
 30
0.0
  0
VERTEX
  5
391
  8
LAYER_1
 10
2.975003241620421
 20
1.727953705432772
 30
0.0
  0
VERTEX
  5
392
  8
LAYER_1
 10
2.972355809421921
 20
1.727953705432772
 30
0.0
  0
VERTEX
  5
393
  8
LAYER_1
 10
2.972355809421921
 20
1.730643838150602
 30
0.0
  0
VERTEX
  5
394
  8
LAYER_1
 10
2.980639710172066
 20
1.730344934515288
 30
0.0
  0
VERTEX
  5
395
  8
LAYER_1
 10
2.987386392226307
 20
1.730643838150602
 30
0.0
  0
VERTEX
  5
396
  8
LAYER_1
 10
2.995350039081472
 20
1.720587865848236
 30
0.0
  0
VERTEX
  5
397
  8
LAYER_1
 10
3.003100183339983
 20
1.710745396142524
 30
0.0
  0
VERTEX
  5
398
  8
LAYER_1
 10
3.017703760951062
 20
1.692811178023655
 30
0.0
  0
VERTEX
  5
399
  8
LAYER_1
 10
3.029104799612343
 20
1.679403214953834
 30
0.0
  0
VERTEX
  5
39A
  8
LAYER_1
 10
3.029104799612343
 20
1.706816948364105
 30
0.0
  0
VERTEX
  5
39B
  8
LAYER_1
 10
3.02895001022977
 20
1.720123497700516
 30
0.0
  0
VERTEX
  5
39C
  8
LAYER_1
 10
3.028485642082048
 20
1.725626527129252
 30
0.0
  0
VERTEX
  5
39D
  8
LAYER_1
 10
3.02794521363427
 20
1.726353770349102
 30
0.0
  0
VERTEX
  5
39E
  8
LAYER_1
 10
3.026943085821229
 20
1.726934230533753
 30
0.0
  0
VERTEX
  5
39F
  8
LAYER_1
 10
3.02355373209936
 20
1.727654801797457
 30
0.0
  0
VERTEX
  5
3A0
  8
LAYER_1
 10
3.020351193149561
 20
1.727953705432772
 30
0.0
  0
VERTEX
  5
3A1
  8
LAYER_1
 10
3.020351193149561
 20
1.730643838150602
 30
0.0
  0
VERTEX
  5
3A2
  8
LAYER_1
 10
3.031026322982222
 20
1.730344934515288
 30
0.0
  0
VERTEX
  5
3A3
  8
LAYER_1
 10
3.041274447621575
 20
1.730643838150602
 30
0.0
  0
VERTEX
  5
3A4
  8
LAYER_1
 10
3.041274447621575
 20
1.727953705432772
 30
0.0
  0
VERTEX
  5
3A5
  8
LAYER_1
 10
3.037986507633116
 20
1.727953705432772
 30
0.0
  0
VERTEX
  5
3A6
  8
LAYER_1
 10
3.036211767298436
 20
1.727788240920366
 30
0.0
  0
VERTEX
  5
3A7
  8
LAYER_1
 10
3.034858694592146
 20
1.727291847383147
 30
0.0
  0
VERTEX
  5
3A8
  8
LAYER_1
 10
3.033927289514247
 20
1.726464524821116
 30
0.0
  0
VERTEX
  5
3A9
  8
LAYER_1
 10
3.033417552064738
 20
1.725306273234272
 30
0.0
  0
VERTEX
  5
3AA
  8
LAYER_1
 10
3.033129323559256
 20
1.719755205721289
 30
0.0
  0
VERTEX
  5
3AB
  8
LAYER_1
 10
3.033033247390762
 20
1.706603445767451
 30
0.0
  0
VERTEX
  5
3AC
  8
LAYER_1
 10
3.033033247390762
 20
1.687345511549333
 30
0.0
  0
VERTEX
  5
3AD
  8
LAYER_1
 10
3.033716455700052
 20
1.668770785640504
 30
0.0
  0
VERTEX
  5
3AE
  8
LAYER_1
 10
3.026969773645811
 20
1.670073151480089
 30
0.0
  0
VERTEX
  5
3AF
  8
LAYER_1
 10
3.025176351833924
 20
1.671418217839004
 30
0.0
  0
VERTEX
  5
3B0
  8
LAYER_1
 10
3.015227130829885
 20
1.683079462789956
 30
0.0
  0
SEQEND
  5
C12
  8
LAYER_1
  0
POLYLINE
  5
73
  8
LAYER_1
 66
     1
 10
0.0
 20
0.0
 30
0.0
 70
     1
  0
VERTEX
  5
3B1
  8
LAYER_1
 10
3.072659329329597
 20
1.66919779083381
 30
0.0
  0
VERTEX
  5
3B2
  8
LAYER_1
 10
3.068730881551178
 20
1.679915621185801
 30
0.0
  0
VERTEX
  5
3B3
  8
LAYER_1
 10
3.053444095630808
 20
1.718132585986724
 30
0.0
  0
VERTEX
  5
3B4
  8
LAYER_1
 10
3.049601048891051
 20
1.72718509608482
 30
0.0
  0
VERTEX
  5
3B5
  8
LAYER_1
 10
3.048405434349792
 20
1.727761553095784
 30
0.0
  0
VERTEX
  5
3B6
  8
LAYER_1
 10
3.045928804228616
 20
1.727953705432772
 30
0.0
  0
VERTEX
  5
3B7
  8
LAYER_1
 10
3.044178082936059
 20
1.727953705432772
 30
0.0
  0
VERTEX
  5
3B8
  8
LAYER_1
 10
3.044178082936059
 20
1.730643838150602
 30
0.0
  0
VERTEX
  5
3B9
  8
LAYER_1
 10
3.055527747535021
 20
1.730344934515288
 30
0.0
  0
VERTEX
  5
3BA
  8
LAYER_1
 10
3.067353789802764
 20
1.730643838150602
 30
0.0
  0
VERTEX
  5
3BB
  8
LAYER_1
 10
3.067353789802764
 20
1.727953705432772
 30
0.0
  0
VERTEX
  5
3BC
  8
LAYER_1
 10
3.063137113518864
 20
1.727953705432772
 30
0.0
  0
VERTEX
  5
3BD
  8
LAYER_1
 10
3.061351447855996
 20
1.727851457704843
 30
0.0
  0
VERTEX
  5
3BE
  8
LAYER_1
 10
3.06033122236191
 20
1.727544714521058
 30
0.0
  0
VERTEX
  5
3BF
  8
LAYER_1
 10
3.05985309330464
 20
1.727022800751583
 30
0.0
  0
VERTEX
  5
3C0
  8
LAYER_1
 10
3.059693716952216
 20
1.726275041266586
 30
0.0
  0
VERTEX
  5
3C1
  8
LAYER_1
 10
3.05990588515764
 20
1.725026051076165
 30
0.0
  0
VERTEX
  5
3C2
  8
LAYER_1
 10
3.065432266432885
 20
1.710260344930752
 30
0.0
  0
VERTEX
  5
3C3
  8
LAYER_1
 10
3.077052812451351
 20
1.680636192449506
 30
0.0
  0
VERTEX
  5
3C4
  8
LAYER_1
 10
3.088343096640618
 20
1.708882585986724
 30
0.0
  0
VERTEX
  5
3C5
  8
LAYER_1
 10
3.092588462335944
 20
1.720084800354872
 30
0.0
  0
VERTEX
  5
3C6
  8
LAYER_1
 10
3.093649803759775
 20
1.723486663994514
 30
0.0
  0
VERTEX
  5
3C7
  8
LAYER_1
 10
3.094003584234386
 20
1.725422365271202
 30
0.0
  0
VERTEX
  5
3C8
  8
LAYER_1
 10
3.093857301595898
 20
1.726276750955348
 30
0.0
  0
VERTEX
  5
3C9
  8
LAYER_1
 10
3.093418453680433
 20
1.726899035965086
 30
0.0
  0
VERTEX
  5
3CA
  8
LAYER_1
 10
3.092687040487992
 20
1.727289220300415
 30
0.0
  0
VERTEX
  5
3CB
  8
LAYER_1
 10
3.091663062018575
 20
1.727447303961335
 30
0.0
  0
VERTEX
  5
3CC
  8
LAYER_1
 10
3.089917678290935
 20
1.727574071128098
 30
0.0
  0
VERTEX
  5
3CD
  8
LAYER_1
 10
3.086250771193416
 20
1.727953705432772
 30
0.0
  0
VERTEX
  5
3CE
  8
LAYER_1
 10
3.086250771193416
 20
1.730643838150602
 30
0.0
  0
VERTEX
  5
3CF
  8
LAYER_1
 10
3.095578165884703
 20
1.730344934515288
 30
0.0
  0
VERTEX
  5
3D0
  8
LAYER_1
 10
3.105197125059544
 20
1.730643838150602
 30
0.0
  0
VERTEX
  5
3D1
  8
LAYER_1
 10
3.105197125059544
 20
1.727953705432772
 30
0.0
  0
VERTEX
  5
3D2
  8
LAYER_1
 10
3.103489104286319
 20
1.727953705432772
 30
0.0
  0
VERTEX
  5
3D3
  8
LAYER_1
 10
3.101722370299014
 20
1.727713515011537
 30
0.0
  0
VERTEX
  5
3D4
  8
LAYER_1
 10
3.10052141819284
 20
1.726992943747832
 30
0.0
  0
VERTEX
  5
3D5
  8
LAYER_1
 10
3.099235065048004
 20
1.724809879697053
 30
0.0
  0
VERTEX
  5
3D6
  8
LAYER_1
 10
3.097212127944715
 20
1.720182210914595
 30
0.0
  0
VERTEX
  5
3D7
  8
LAYER_1
 10
3.082822052930289
 20
1.685039683505478
 30
0.0
  0
VERTEX
  5
3D8
  8
LAYER_1
 10
3.079352635734675
 20
1.676125950095207
 30
0.0
  0
VERTEX
  5
3D9
  8
LAYER_1
 10
3.077057482820652
 20
1.66919779083381
 30
0.0
  0
SEQEND
  5
C13
  8
LAYER_1
  0
POLYLINE
  5
74
  8
LAYER_1
 66
     1
 10
0.0
 20
0.0
 30
0.0
 70
     1
  0
VERTEX
  5
3DA
  8
LAYER_1
 10
3.125650673818921
 20
1.698917352287936
 30
0.0
  0
VERTEX
  5
3DB
  8
LAYER_1
 10
3.125650673818921
 20
1.688437710770337
 30
0.0
  0
VERTEX
  5
3DC
  8
LAYER_1
 10
3.125693374338252
 20
1.682406929610498
 30
0.0
  0
VERTEX
  5
3DD
  8
LAYER_1
 10
3.125821475896243
 20
1.674151718271779
 30
0.0
  0
VERTEX
  5
3DE
  8
LAYER_1
 10
3.139207421510785
 20
1.673681345363528
 30
0.0
  0
VERTEX
  5
3DF
  8
LAYER_1
 10
3.147247128666007
 20
1.674108350556834
 30
0.0
  0
VERTEX
  5
3E0
  8
LAYER_1
 10
3.151694654632539
 20
1.675218564059431
 30
0.0
  0
VERTEX
  5
3E1
  8
LAYER_1
 10
3.153875717096474
 20
1.684612678312172
 30
0.0
  0
VERTEX
  5
3E2
  8
LAYER_1
 10
3.156693951372297
 20
1.684612678312172
 30
0.0
  0
VERTEX
  5
3E3
  8
LAYER_1
 10
3.155541037350369
 20
1.672107430908825
 30
0.0
  0
VERTEX
  5
3E4
  8
LAYER_1
 10
3.155626438389031
 20
1.670179902778415
 30
0.0
  0
VERTEX
  5
3E5
  8
LAYER_1
 10
3.145976121020306
 20
1.669752897585109
 30
0.0
  0
VERTEX
  5
3E6
  8
LAYER_1
 10
3.139272139485395
 20
1.669880999143101
 30
0.0
  0
VERTEX
  5
3E7
  8
LAYER_1
 10
3.122960541101091
 20
1.670179902778415
 30
0.0
  0
VERTEX
  5
3E8
  8
LAYER_1
 10
3.109680679589261
 20
1.669880999143101
 30
0.0
  0
VERTEX
  5
3E9
  8
LAYER_1
 10
3.109680679589261
 20
1.672571131860931
 30
0.0
  0
VERTEX
  5
3EA
  8
LAYER_1
 10
3.111004395688511
 20
1.672571131860931
 30
0.0
  0
VERTEX
  5
3EB
  8
LAYER_1
 10
3.11403079499607
 20
1.672752609068086
 30
0.0
  0
VERTEX
  5
3EC
  8
LAYER_1
 10
3.115680102555217
 20
1.673297040689552
 30
0.0
  0
VERTEX
  5
3ED
  8
LAYER_1
 10
3.116480737292666
 20
1.674514005490475
 30
0.0
  0
VERTEX
  5
3EE
  8
LAYER_1
 10
3.116961118135136
 20
1.676713082236003
 30
0.0
  0
VERTEX
  5
3EF
  8
LAYER_1
 10
3.117281372030115
 20
1.688583826609921
 30
0.0
  0
VERTEX
  5
3F0
  8
LAYER_1
 10
3.117281372030115
 20
1.712026411722443
 30
0.0
  0
VERTEX
  5
3F1
  8
LAYER_1
 10
3.117003818654466
 20
1.721463226494514
 30
0.0
  0
VERTEX
  5
3F2
  8
LAYER_1
 10
3.116406011383837
 20
1.725840029725905
 30
0.0
  0
VERTEX
  5
3F3
  8
LAYER_1
 10
3.115487950218228
 20
1.726928892968836
 30
0.0
  0
VERTEX
  5
3F4
  8
LAYER_1
 10
3.111815705555793
 20
1.727612101278127
 30
0.0
  0
VERTEX
  5
3F5
  8
LAYER_1
 10
3.108527765567334
 20
1.727953705432772
 30
0.0
  0
VERTEX
  5
3F6
  8
LAYER_1
 10
3.108527765567334
 20
1.730643838150602
 30
0.0
  0
VERTEX
  5
3F7
  8
LAYER_1
 10
3.113139421655043
 20
1.730643838150602
 30
0.0
  0
VERTEX
  5
3F8
  8
LAYER_1
 10
3.117665676704091
 20
1.730494386332945
 30
0.0
  0
VERTEX
  5
3F9
  8
LAYER_1
 10
3.123430246813728
 20
1.730344934515288
 30
0.0
  0
VERTEX
  5
3FA
  8
LAYER_1
 10
3.139827246236694
 20
1.730593798479511
 30
0.0
  0
VERTEX
  5
3FB
  8
LAYER_1
 10
3.14759874075487
 20
1.730643838150602
 30
0.0
  0
VERTEX
  5
3FC
  8
LAYER_1
 10
3.155626438389031
 20
1.730344934515288
 30
0.0
  0
VERTEX
  5
3FD
  8
LAYER_1
 10
3.154366773068777
 20
1.724510642463932
 30
0.0
  0
VERTEX
  5
3FE
  8
LAYER_1
 10
3.153833016577144
 20
1.71715047404212
 30
0.0
  0
VERTEX
  5
3FF
  8
LAYER_1
 10
3.15092938126266
 20
1.71715047404212
 30
0.0
  0
VERTEX
  5
400
  8
LAYER_1
 10
3.150459675550023
 20
1.724964669079627
 30
0.0
  0
VERTEX
  5
401
  8
LAYER_1
 10
3.144844557258044
 20
1.726373786217538
 30
0.0
  0
VERTEX
  5
402
  8
LAYER_1
 10
3.138076524944137
 20
1.726843491930175
 30
0.0
  0
VERTEX
  5
403
  8
LAYER_1
 10
3.125821475896243
 20
1.726331752893822
 30
0.0
  0
VERTEX
  5
404
  8
LAYER_1
 10
3.125736074857582
 20
1.718318733563182
 30
0.0
  0
VERTEX
  5
405
  8
LAYER_1
 10
3.125650673818921
 20
1.711754863107324
 30
0.0
  0
VERTEX
  5
406
  8
LAYER_1
 10
3.125650673818921
 20
1.703102003182339
 30
0.0
  0
VERTEX
  5
407
  8
LAYER_1
 10
3.133123264701783
 20
1.702803099547024
 30
0.0
  0
VERTEX
  5
408
  8
LAYER_1
 10
3.141081573992031
 20
1.702979239189263
 30
0.0
  0
VERTEX
  5
409
  8
LAYER_1
 10
3.14463105466139
 20
1.70350765811598
 30
0.0
  0
VERTEX
  5
40A
  8
LAYER_1
 10
3.145219521193416
 20
1.7040454177813
 30
0.0
  0
VERTEX
  5
40B
  8
LAYER_1
 10
3.145639854430577
 20
1.704954138208306
 30
0.0
  0
VERTEX
  5
40C
  8
LAYER_1
 10
3.145976121020306
 20
1.707884461347371
 30
0.0
  0
VERTEX
  5
40D
  8
LAYER_1
 10
3.145976121020306
 20
1.710659995103862
 30
0.0
  0
VERTEX
  5
40E
  8
LAYER_1
 10
3.148879756334789
 20
1.710659995103862
 30
0.0
  0
VERTEX
  5
40F
  8
LAYER_1
 10
3.148580852699475
 20
1.700369169945178
 30
0.0
  0
VERTEX
  5
410
  8
LAYER_1
 10
3.148879756334789
 20
1.690804253615115
 30
0.0
  0
VERTEX
  5
411
  8
LAYER_1
 10
3.145976121020306
 20
1.690804253615115
 30
0.0
  0
VERTEX
  5
412
  8
LAYER_1
 10
3.145976121020306
 20
1.693280883736292
 30
0.0
  0
VERTEX
  5
413
  8
LAYER_1
 10
3.145575803651581
 20
1.6965848364195
 30
0.0
  0
VERTEX
  5
414
  8
LAYER_1
 10
3.145075406940675
 20
1.697640339881704
 30
0.0
  0
VERTEX
  5
415
  8
LAYER_1
 10
3.144374851545407
 20
1.698298194757642
 30
0.0
  0
VERTEX
  5
416
  8
LAYER_1
 10
3.143068482532135
 20
1.698699846517596
 30
0.0
  0
VERTEX
  5
417
  8
LAYER_1
 10
3.140750644967219
 20
1.698986740631848
 30
0.0
  0
VERTEX
  5
418
  8
LAYER_1
 10
3.133080564182452
 20
1.699216255923251
 30
0.0
  0
SEQEND
  5
C14
  8
LAYER_1
  0
POLYLINE
  5
75
  8
LAYER_1
 66
     1
 10
0.0
 20
0.0
 30
0.0
 70
     1
  0
VERTEX
  5
419
  8
LAYER_1
 10
3.200675486282857
 20
1.727782903355449
 30
0.0
  0
VERTEX
  5
41A
  8
LAYER_1
 10
3.199757425117248
 20
1.722616140516442
 30
0.0
  0
VERTEX
  5
41B
  8
LAYER_1
 10
3.199394470702937
 20
1.715997560020192
 30
0.0
  0
VERTEX
  5
41C
  8
LAYER_1
 10
3.196448134869123
 20
1.715997560020192
 30
0.0
  0
VERTEX
  5
41D
  8
LAYER_1
 10
3.196448134869123
 20
1.719413601566644
 30
0.0
  0
VERTEX
  5
41E
  8
LAYER_1
 10
3.196223957142637
 20
1.722210485582801
 30
0.0
  0
VERTEX
  5
41F
  8
LAYER_1
 10
3.19555142396318
 20
1.723939856615692
 30
0.0
  0
VERTEX
  5
420
  8
LAYER_1
 10
3.193934141793531
 20
1.725172834111364
 30
0.0
  0
VERTEX
  5
421
  8
LAYER_1
 10
3.190875717096474
 20
1.726480537515865
 30
0.0
  0
VERTEX
  5
422
  8
LAYER_1
 10
3.186995307402302
 20
1.727489337285051
 30
0.0
  0
VERTEX
  5
423
  8
LAYER_1
 10
3.18291207024131
 20
1.72782560387478
 30
0.0
  0
VERTEX
  5
424
  8
LAYER_1
 10
3.179678840293243
 20
1.727609766093476
 30
0.0
  0
VERTEX
  5
425
  8
LAYER_1
 10
3.176811233541945
 20
1.726962252749563
 30
0.0
  0
VERTEX
  5
426
  8
LAYER_1
 10
3.174309249987415
 20
1.725883063843043
 30
0.0
  0
VERTEX
  5
427
  8
LAYER_1
 10
3.172172889629654
 20
1.724372199373914
 30
0.0
  0
VERTEX
  5
428
  8
LAYER_1
 10
3.170463534465199
 20
1.722522941629035
 30
0.0
  0
VERTEX
  5
429
  8
LAYER_1
 10
3.169242566490589
 20
1.720428572895264
 30
0.0
  0
VERTEX
  5
42A
  8
LAYER_1
 10
3.168509985705823
 20
1.718089093172601
 30
0.0
  0
VERTEX
  5
42B
  8
LAYER_1
 10
3.1682657921109
 20
1.715504502461046
 30
0.0
  0
VERTEX
  5
42C
  8
LAYER_1
 10
3.168666109479625
 20
1.712333655302939
 30
0.0
  0
VERTEX
  5
42D
  8
LAYER_1
 10
3.1698670615858
 20
1.709642521791687
 30
0.0
  0
VERTEX
  5
42E
  8
LAYER_1
 10
3.171745884436348
 20
1.707532265462345
 30
0.0
  0
VERTEX
  5
42F
  8
LAYER_1
 10
3.174179814038194
 20
1.706104049849967
 30
0.0
  0
VERTEX
  5
430
  8
LAYER_1
 10
3.178412503016844
 20
1.705081322372327
 30
0.0
  0
VERTEX
  5
431
  8
LAYER_1
 10
3.185687603997802
 20
1.704187530447198
 30
0.0
  0
VERTEX
  5
432
  8
LAYER_1
 10
3.193058781147254
 20
1.703194076177146
 30
0.0
  0
VERTEX
  5
433
  8
LAYER_1
 10
3.197579698631385
 20
1.701923068531445
 30
0.0
  0
VERTEX
  5
434
  8
LAYER_1
 10
3.200365907517709
 20
1.700086028806257
 30
0.0
  0
VERTEX
  5
435
  8
LAYER_1
 10
3.202532958873739
 20
1.697394478297746
 30
0.0
  0
VERTEX
  5
436
  8
LAYER_1
 10
3.203926063316901
 20
1.693987360492639
 30
0.0
  0
VERTEX
  5
437
  8
LAYER_1
 10
3.204390431464622
 20
1.690003618877665
 30
0.0
  0
VERTEX
  5
438
  8
LAYER_1
 10
3.20394207601165
 20
1.685859708615475
 30
0.0
  0
VERTEX
  5
439
  8
LAYER_1
 10
3.202597009652735
 20
1.682014785388052
 30
0.0
  0
VERTEX
  5
43A
  8
LAYER_1
 10
3.200355232387877
 20
1.678468849195394
 30
0.0
  0
VERTEX
  5
43B
  8
LAYER_1
 10
3.197216744217075
 20
1.675221900037503
 30
0.0
  0
VERTEX
  5
43C
  8
LAYER_1
 10
3.193330996957986
 20
1.672511626352059
 30
0.0
  0
VERTEX
  5
43D
  8
LAYER_1
 10
3.188847442428269
 20
1.670575716576742
 30
0.0
  0
VERTEX
  5
43E
  8
LAYER_1
 10
3.183766080627922
 20
1.669414170711552
 30
0.0
  0
VERTEX
  5
43F
  8
LAYER_1
 10
3.178086911556948
 20
1.669026988756488
 30
0.0
  0
VERTEX
  5
440
  8
LAYER_1
 10
3.173971649006457
 20
1.669235153788225
 30
0.0
  0
VERTEX
  5
441
  8
LAYER_1
 10
3.169824361066469
 20
1.669859648883435
 30
0.0
  0
VERTEX
  5
442
  8
LAYER_1
 10
3.165645047736982
 20
1.670889798912287
 30
0.0
  0
VERTEX
  5
443
  8
LAYER_1
 10
3.161433709017998
 20
1.672314928744947
 30
0.0
  0
VERTEX
  5
444
  8
LAYER_1
 10
3.161999490899129
 20
1.678164899893245
 30
0.0
  0
VERTEX
  5
445
  8
LAYER_1
 10
3.162159617846619
 20
1.685466688698785
 30
0.0
  0
VERTEX
  5
446
  8
LAYER_1
 10
3.165063253161102
 20
1.685466688698785
 30
0.0
  0
VERTEX
  5
447
  8
LAYER_1
 10
3.165063253161102
 20
1.683331662732253
 30
0.0
  0
VERTEX
  5
448
  8
LAYER_1
 10
3.165170004459429
 20
1.679979671964797
 30
0.0
  0
VERTEX
  5
449
  8
LAYER_1
 10
3.165490258354409
 20
1.678207600412576
 30
0.0
  0
VERTEX
  5
44A
  8
LAYER_1
 10
3.166205492053197
 20
1.677193463078473
 30
0.0
  0
VERTEX
  5
44B
  8
LAYER_1
 10
3.167497182762949
 20
1.676115274965374
 30
0.0
  0
VERTEX
  5
44C
  8
LAYER_1
 10
3.17006988905262
 20
1.674647444613383
 30
0.0
  0
VERTEX
  5
44D
  8
LAYER_1
 10
3.173090950795263
 20
1.673574594065201
 30
0.0
  0
VERTEX
  5
44E
  8
LAYER_1
 10
3.176464291822383
 20
1.672918073580492
 30
0.0
  0
VERTEX
  5
44F
  8
LAYER_1
 10
3.180093835965488
 20
1.672699233418923
 30
0.0
  0
VERTEX
  5
450
  8
LAYER_1
 10
3.183899519750831
 20
1.6729367550577
 30
0.0
  0
VERTEX
  5
451
  8
LAYER_1
 10
3.18724617295337
 20
1.67364931997403
 30
0.0
  0
VERTEX
  5
452
  8
LAYER_1
 10
3.190133795573105
 20
1.674836928167913
 30
0.0
  0
VERTEX
  5
453
  8
LAYER_1
 10
3.192562387610035
 20
1.67649957963935
 30
0.0
  0
VERTEX
  5
454
  8
LAYER_1
 10
3.194486579762371
 20
1.678527854307555
 30
0.0
  0
VERTEX
  5
455
  8
LAYER_1
 10
3.195861002728327
 20
1.680812332091745
 30
0.0
  0
VERTEX
  5
456
  8
LAYER_1
 10
3.1966856565079
 20
1.683353012991918
 30
0.0
  0
VERTEX
  5
457
  8
LAYER_1
 10
3.196960541101091
 20
1.686149897008075
 30
0.0
  0
VERTEX
  5
458
  8
LAYER_1
 10
3.196586911556948
 20
1.689304397873626
 30
0.0
  0
VERTEX
  5
459
  8
LAYER_1
 10
3.195466022924518
 20
1.691935817377376
 30
0.0
  0
VERTEX
  5
45A
  8
LAYER_1
 10
3.193672601112631
 20
1.694001454999996
 30
0.0
  0
VERTEX
  5
45B
  8
LAYER_1
 10
3.191281372030116
 20
1.695458610222154
 30
0.0
  0
VERTEX
  5
45C
  8
LAYER_1
 10
3.187449000420191
 20
1.696472747556257
 30
0.0
  0
VERTEX
  5
45D
  8
LAYER_1
 10
3.181332151026076
 20
1.697209331514711
 30
0.0
  0
VERTEX
  5
45E
  8
LAYER_1
 10
3.173229727483087
 20
1.69817009319965
 30
0.0
  0
VERTEX
  5
45F
  8
LAYER_1
 10
3.16822309159157
 20
1.699515159558565
 30
0.0
  0
VERTEX
  5
460
  8
LAYER_1
 10
3.165137979069931
 20
1.701495396142524
 30
0.0
  0
VERTEX
  5
461
  8
LAYER_1
 10
3.162800125636578
 20
1.704361668502593
 30
0.0
  0
VERTEX
  5
462
  8
LAYER_1
 10
3.161940777685049
 20
1.706116392968836
 30
0.0
  0
VERTEX
  5
463
  8
LAYER_1
 10
3.161326957719671
 20
1.708071276119442
 30
0.0
  0
VERTEX
  5
464
  8
LAYER_1
 10
3.160835901747369
 20
1.712581518473741
 30
0.0
  0
VERTEX
  5
465
  8
LAYER_1
 10
3.16121220007397
 20
1.716555335553949
 30
0.0
  0
VERTEX
  5
466
  8
LAYER_1
 10
3.162341095053774
 20
1.720150185525097
 30
0.0
  0
VERTEX
  5
467
  8
LAYER_1
 10
3.164222586686781
 20
1.723366068387186
 30
0.0
  0
VERTEX
  5
468
  8
LAYER_1
 10
3.166856674972989
 20
1.726202984140216
 30
0.0
  0
VERTEX
  5
469
  8
LAYER_1
 10
3.170155290091281
 20
1.728519487313903
 30
0.0
  0
VERTEX
  5
46A
  8
LAYER_1
 10
3.174030362220537
 20
1.730174132437965
 30
0.0
  0
VERTEX
  5
46B
  8
LAYER_1
 10
3.178481891360756
 20
1.731166919512403
 30
0.0
  0
VERTEX
  5
46C
  8
LAYER_1
 10
3.183509877511939
 20
1.731497848537215
 30
0.0
  0
VERTEX
  5
46D
  8
LAYER_1
 10
3.187785267009919
 20
1.731268333245813
 30
0.0
  0
VERTEX
  5
46E
  8
LAYER_1
 10
3.192071331637732
 20
1.730579787371606
 30
0.0
  0
VERTEX
  5
46F
  8
LAYER_1
 10
3.196368071395378
 20
1.729421535784762
 30
0.0
  0
SEQEND
  5
C15
  8
LAYER_1
  0
POLYLINE
  5
76
  8
LAYER_1
 66
     1
 10
0.0
 20
0.0
 30
0.0
 70
     1
  0
VERTEX
  5
470
  8
LAYER_1
 10
3.23688552667524
 20
1.726758090891514
 30
0.0
  0
VERTEX
  5
471
  8
LAYER_1
 10
3.236415820962603
 20
1.713264726783031
 30
0.0
  0
VERTEX
  5
472
  8
LAYER_1
 10
3.236415820962603
 20
1.688925430764566
 30
0.0
  0
VERTEX
  5
473
  8
LAYER_1
 10
3.236586623039925
 20
1.678394415184647
 30
0.0
  0
VERTEX
  5
474
  8
LAYER_1
 10
3.237099029271893
 20
1.673958898739177
 30
0.0
  0
VERTEX
  5
475
  8
LAYER_1
 10
3.237659473588108
 20
1.673351750729944
 30
0.0
  0
VERTEX
  5
476
  8
LAYER_1
 10
3.238657598227461
 20
1.672918073580492
 30
0.0
  0
VERTEX
  5
477
  8
LAYER_1
 10
3.241966888475586
 20
1.672571131860931
 30
0.0
  0
VERTEX
  5
478
  8
LAYER_1
 10
3.245169427425384
 20
1.672571131860931
 30
0.0
  0
VERTEX
  5
479
  8
LAYER_1
 10
3.245169427425384
 20
1.669880999143101
 30
0.0
  0
VERTEX
  5
47A
  8
LAYER_1
 10
3.232359271626192
 20
1.670179902778415
 30
0.0
  0
VERTEX
  5
47B
  8
LAYER_1
 10
3.219634516865661
 20
1.669880999143101
 30
0.0
  0
VERTEX
  5
47C
  8
LAYER_1
 10
3.219634516865661
 20
1.672571131860931
 30
0.0
  0
VERTEX
  5
47D
  8
LAYER_1
 10
3.223221360489435
 20
1.672571131860931
 30
0.0
  0
VERTEX
  5
47E
  8
LAYER_1
 10
3.225548538792955
 20
1.672757946633003
 30
0.0
  0
VERTEX
  5
47F
  8
LAYER_1
 10
3.22689360515187
 20
1.673318390949217
 30
0.0
  0
VERTEX
  5
480
  8
LAYER_1
 10
3.227587488590993
 20
1.674423266886898
 30
0.0
  0
VERTEX
  5
481
  8
LAYER_1
 10
3.227961118135136
 20
1.676243376523366
 30
0.0
  0
VERTEX
  5
482
  8
LAYER_1
 10
3.228388123328442
 20
1.68913893336122
 30
0.0
  0
VERTEX
  5
483
  8
LAYER_1
 10
3.228388123328442
 20
1.713520929899015
 30
0.0
  0
VERTEX
  5
484
  8
LAYER_1
 10
3.228089886888743
 20
1.726758090891514
 30
0.0
  0
VERTEX
  5
485
  8
LAYER_1
 10
3.223744441851235
 20
1.726758090891514
 30
0.0
  0
VERTEX
  5
486
  8
LAYER_1
 10
3.215586474273335
 20
1.726635326898438
 30
0.0
  0
VERTEX
  5
487
  8
LAYER_1
 10
3.212157255613497
 20
1.726267034919212
 30
0.0
  0
VERTEX
  5
488
  8
LAYER_1
 10
3.211273388223134
 20
1.725066082813037
 30
0.0
  0
VERTEX
  5
489
  8
LAYER_1
 10
3.210751474453659
 20
1.722445338439119
 30
0.0
  0
VERTEX
  5
48A
  8
LAYER_1
 10
3.210155001574259
 20
1.716723468848813
 30
0.0
  0
VERTEX
  5
48B
  8
LAYER_1
 10
3.207464868856428
 20
1.716723468848813
 30
0.0
  0
VERTEX
  5
48C
  8
LAYER_1
 10
3.20755026989509
 20
1.72180483064916
 30
0.0
  0
VERTEX
  5
48D
  8
LAYER_1
 10
3.207037863663122
 20
1.730643838150602
 30
0.0
  0
VERTEX
  5
48E
  8
LAYER_1
 10
3.234152693438079
 20
1.730344934515288
 30
0.0
  0
VERTEX
  5
48F
  8
LAYER_1
 10
3.257766080627923
 20
1.730643838150602
 30
0.0
  0
VERTEX
  5
490
  8
LAYER_1
 10
3.257125572837963
 20
1.723555551941716
 30
0.0
  0
VERTEX
  5
491
  8
LAYER_1
 10
3.256826669202649
 20
1.716723468848813
 30
0.0
  0
VERTEX
  5
492
  8
LAYER_1
 10
3.254136536484819
 20
1.716723468848813
 30
0.0
  0
VERTEX
  5
493
  8
LAYER_1
 10
3.253709531291512
 20
1.722317236881127
 30
0.0
  0
VERTEX
  5
494
  8
LAYER_1
 10
3.253399952526365
 20
1.724628402489898
 30
0.0
  0
VERTEX
  5
495
  8
LAYER_1
 10
3.252983622462891
 20
1.725754628687244
 30
0.0
  0
VERTEX
  5
496
  8
LAYER_1
 10
3.252225688244772
 20
1.726186971445467
 30
0.0
  0
VERTEX
  5
497
  8
LAYER_1
 10
3.25089129701569
 20
1.726416486736869
 30
0.0
  0
VERTEX
  5
498
  8
LAYER_1
 10
3.24021616718303
 20
1.726758090891514
 30
0.0
  0
SEQEND
  5
C16
  8
LAYER_1
  0
POLYLINE
  5
77
  8
LAYER_1
 66
     1
 10
0.0
 20
0.0
 30
0.0
 70
     1
  0
VERTEX
  5
499
  8
LAYER_1
 10
3.323823784032424
 20
1.721421860366413
 30
0.0
  0
VERTEX
  5
49A
  8
LAYER_1
 10
3.311130387465776
 20
1.695010921964797
 30
0.0
  0
VERTEX
  5
49B
  8
LAYER_1
 10
3.304634404163699
 20
1.68107870994085
 30
0.0
  0
VERTEX
  5
49C
  8
LAYER_1
 10
3.299420437234963
 20
1.669026988756488
 30
0.0
  0
VERTEX
  5
49D
  8
LAYER_1
 10
3.297712416461737
 20
1.669026988756488
 30
0.0
  0
VERTEX
  5
49E
  8
LAYER_1
 10
3.288651900016267
 20
1.688561141959027
 30
0.0
  0
VERTEX
  5
49F
  8
LAYER_1
 10
3.273351770183607
 20
1.720234919368144
 30
0.0
  0
VERTEX
  5
4A0
  8
LAYER_1
 10
3.273351770183607
 20
1.687220745969414
 30
0.0
  0
VERTEX
  5
4A1
  8
LAYER_1
 10
3.273582453067335
 20
1.678182163579771
 30
0.0
  0
VERTEX
  5
4A2
  8
LAYER_1
 10
3.273870806671994
 20
1.675532792344017
 30
0.0
  0
VERTEX
  5
4A3
  8
LAYER_1
 10
3.274274501718517
 20
1.674130034414307
 30
0.0
  0
VERTEX
  5
4A4
  8
LAYER_1
 10
3.274978684989939
 20
1.673448014547205
 30
0.0
  0
VERTEX
  5
4A5
  8
LAYER_1
 10
3.276168503269297
 20
1.672960857499275
 30
0.0
  0
VERTEX
  5
4A6
  8
LAYER_1
 10
3.280005044851812
 20
1.672571131860931
 30
0.0
  0
VERTEX
  5
4A7
  8
LAYER_1
 10
3.28159297041442
 20
1.672571131860931
 30
0.0
  0
VERTEX
  5
4A8
  8
LAYER_1
 10
3.28159297041442
 20
1.669880999143101
 30
0.0
  0
VERTEX
  5
4A9
  8
LAYER_1
 10
3.271922637177259
 20
1.670179902778415
 30
0.0
  0
VERTEX
  5
4AA
  8
LAYER_1
 10
3.261182122174374
 20
1.669880999143101
 30
0.0
  0
VERTEX
  5
4AB
  8
LAYER_1
 10
3.261182122174374
 20
1.672571131860931
 30
0.0
  0
VERTEX
  5
4AC
  8
LAYER_1
 10
3.263957655930866
 20
1.672571131860931
 30
0.0
  0
VERTEX
  5
4AD
  8
LAYER_1
 10
3.266306184494051
 20
1.672773959327752
 30
0.0
  0
VERTEX
  5
4AE
  8
LAYER_1
 10
3.267715301631962
 20
1.673382441728213
 30
0.0
  0
VERTEX
  5
4AF
  8
LAYER_1
 10
3.268473235850081
 20
1.674524680620308
 30
0.0
  0
VERTEX
  5
4B0
  8
LAYER_1
 10
3.268868215653889
 20
1.676328777562027
 30
0.0
  0
VERTEX
  5
4B1
  8
LAYER_1
 10
3.269423322405188
 20
1.689224334399881
 30
0.0
  0
VERTEX
  5
4B2
  8
LAYER_1
 10
3.269423322405188
 20
1.713392828341023
 30
0.0
  0
VERTEX
  5
4B3
  8
LAYER_1
 10
3.269039017731212
 20
1.724964669079627
 30
0.0
  0
VERTEX
  5
4B4
  8
LAYER_1
 10
3.268638700362487
 20
1.726245684659546
 30
0.0
  0
VERTEX
  5
4B5
  8
LAYER_1
 10
3.267779352410958
 20
1.72718509608482
 30
0.0
  0
VERTEX
  5
4B6
  8
LAYER_1
 10
3.266151395111478
 20
1.727761553095784
 30
0.0
  0
VERTEX
  5
4B7
  8
LAYER_1
 10
3.263445249698898
 20
1.727953705432772
 30
0.0
  0
VERTEX
  5
4B8
  8
LAYER_1
 10
3.261182122174374
 20
1.727953705432772
 30
0.0
  0
VERTEX
  5
4B9
  8
LAYER_1
 10
3.261182122174374
 20
1.730643838150602
 30
0.0
  0
VERTEX
  5
4BA
  8
LAYER_1
 10
3.270535537494628
 20
1.730344934515288
 30
0.0
  0
VERTEX
  5
4BB
  8
LAYER_1
 10
3.277454356017421
 20
1.730643838150602
 30
0.0
  0
VERTEX
  5
4BC
  8
LAYER_1
 10
3.289380477627346
 20
1.705307751884012
 30
0.0
  0
VERTEX
  5
4BD
  8
LAYER_1
 10
3.300622056536751
 20
1.682193427013845
 30
0.0
  0
VERTEX
  5
4BE
  8
LAYER_1
 10
3.311004954690242
 20
1.703599063915172
 30
0.0
  0
VERTEX
  5
4BF
  8
LAYER_1
 10
3.323482179877779
 20
1.730643838150602
 30
0.0
  0
VERTEX
  5
4C0
  8
LAYER_1
 10
3.330997471279971
 20
1.730344934515288
 30
0.0
  0
VERTEX
  5
4C1
  8
LAYER_1
 10
3.340092681897398
 20
1.730643838150602
 30
0.0
  0
VERTEX
  5
4C2
  8
LAYER_1
 10
3.340092681897398
 20
1.727953705432772
 30
0.0
  0
VERTEX
  5
4C3
  8
LAYER_1
 10
3.337302469837386
 20
1.727953705432772
 30
0.0
  0
VERTEX
  5
4C4
  8
LAYER_1
 10
3.334260474832337
 20
1.727628113972876
 30
0.0
  0
VERTEX
  5
4C5
  8
LAYER_1
 10
3.333290726856464
 20
1.727221124648006
 30
0.0
  0
VERTEX
  5
4C6
  8
LAYER_1
 10
3.332688478565026
 20
1.726651339593187
 30
0.0
  0
VERTEX
  5
4C7
  8
LAYER_1
 10
3.332060730891195
 20
1.723656965675126
 30
0.0
  0
VERTEX
  5
4C8
  8
LAYER_1
 10
3.331851481666584
 20
1.717278575600112
 30
0.0
  0
VERTEX
  5
4C9
  8
LAYER_1
 10
3.331851481666584
 20
1.686064495969414
 30
0.0
  0
VERTEX
  5
4CA
  8
LAYER_1
 10
3.332071489420479
 20
1.677865996257931
 30
0.0
  0
VERTEX
  5
4CB
  8
LAYER_1
 10
3.332346499112848
 20
1.675432066656084
 30
0.0
  0
VERTEX
  5
4CC
  8
LAYER_1
 10
3.332731512682164
 20
1.674108350556834
 30
0.0
  0
VERTEX
  5
4CD
  8
LAYER_1
 10
3.333368684494051
 20
1.673435817377377
 30
0.0
  0
VERTEX
  5
4CE
  8
LAYER_1
 10
3.334400168914132
 20
1.672955436534907
 30
0.0
  0
VERTEX
  5
4CF
  8
LAYER_1
 10
3.337646075578875
 20
1.672571131860931
 30
0.0
  0
VERTEX
  5
4D0
  8
LAYER_1
 10
3.340092681897398
 20
1.672571131860931
 30
0.0
  0
VERTEX
  5
4D1
  8
LAYER_1
 10
3.340092681897398
 20
1.669880999143101
 30
0.0
  0
VERTEX
  5
4D2
  8
LAYER_1
 10
3.328734343755448
 20
1.670179902778415
 30
0.0
  0
VERTEX
  5
4D3
  8
LAYER_1
 10
3.31622309159157
 20
1.669880999143101
 30
0.0
  0
VERTEX
  5
4D4
  8
LAYER_1
 10
3.31622309159157
 20
1.672571131860931
 30
0.0
  0
VERTEX
  5
4D5
  8
LAYER_1
 10
3.319041325867392
 20
1.672571131860931
 30
0.0
  0
VERTEX
  5
4D6
  8
LAYER_1
 10
3.321747471279972
 20
1.672939423840158
 30
0.0
  0
VERTEX
  5
4D7
  8
LAYER_1
 10
3.322600147275355
 20
1.673399788814192
 30
0.0
  0
VERTEX
  5
4D8
  8
LAYER_1
 10
3.323119225463468
 20
1.674044299777838
 30
0.0
  0
VERTEX
  5
4D9
  8
LAYER_1
 10
3.323647644390185
 20
1.677946226530579
 30
0.0
  0
VERTEX
  5
4DA
  8
LAYER_1
 10
3.323823784032424
 20
1.686705670954988
 30
0.0
  0
SEQEND
  5
C17
  8
LAYER_1
  0
POLYLINE
  5
78
  8
LAYER_1
 66
     1
 10
0.0
 20
0.0
 30
0.0
 70
     1
  0
VERTEX
  5
4DB
  8
LAYER_1
 10
3.361272139485395
 20
1.698917352287936
 30
0.0
  0
VERTEX
  5
4DC
  8
LAYER_1
 10
3.361272139485395
 20
1.688437710770337
 30
0.0
  0
VERTEX
  5
4DD
  8
LAYER_1
 10
3.361314840004725
 20
1.682406929610498
 30
0.0
  0
VERTEX
  5
4DE
  8
LAYER_1
 10
3.361442941562717
 20
1.674151718271779
 30
0.0
  0
VERTEX
  5
4DF
  8
LAYER_1
 10
3.374828887177259
 20
1.673681345363528
 30
0.0
  0
VERTEX
  5
4E0
  8
LAYER_1
 10
3.382868594332481
 20
1.674108350556834
 30
0.0
  0
VERTEX
  5
4E1
  8
LAYER_1
 10
3.387316120299013
 20
1.675218564059431
 30
0.0
  0
VERTEX
  5
4E2
  8
LAYER_1
 10
3.389497182762948
 20
1.684612678312172
 30
0.0
  0
VERTEX
  5
4E3
  8
LAYER_1
 10
3.392315417038771
 20
1.684612678312172
 30
0.0
  0
VERTEX
  5
4E4
  8
LAYER_1
 10
3.391162503016843
 20
1.672107430908825
 30
0.0
  0
VERTEX
  5
4E5
  8
LAYER_1
 10
3.391247904055505
 20
1.670179902778415
 30
0.0
  0
VERTEX
  5
4E6
  8
LAYER_1
 10
3.38159758668678
 20
1.669752897585109
 30
0.0
  0
VERTEX
  5
4E7
  8
LAYER_1
 10
3.374893605151869
 20
1.669880999143101
 30
0.0
  0
VERTEX
  5
4E8
  8
LAYER_1
 10
3.358582006767564
 20
1.670179902778415
 30
0.0
  0
VERTEX
  5
4E9
  8
LAYER_1
 10
3.345302145255735
 20
1.669880999143101
 30
0.0
  0
VERTEX
  5
4EA
  8
LAYER_1
 10
3.345302145255735
 20
1.672571131860931
 30
0.0
  0
VERTEX
  5
4EB
  8
LAYER_1
 10
3.346625861354985
 20
1.672571131860931
 30
0.0
  0
VERTEX
  5
4EC
  8
LAYER_1
 10
3.349652260662544
 20
1.672752609068086
 30
0.0
  0
VERTEX
  5
4ED
  8
LAYER_1
 10
3.35130156822169
 20
1.673297040689552
 30
0.0
  0
VERTEX
  5
4EE
  8
LAYER_1
 10
3.35210220295914
 20
1.674514005490475
 30
0.0
  0
VERTEX
  5
4EF
  8
LAYER_1
 10
3.35258258380161
 20
1.676713082236003
 30
0.0
  0
VERTEX
  5
4F0
  8
LAYER_1
 10
3.352902837696589
 20
1.688583826609921
 30
0.0
  0
VERTEX
  5
4F1
  8
LAYER_1
 10
3.352902837696589
 20
1.712026411722443
 30
0.0
  0
VERTEX
  5
4F2
  8
LAYER_1
 10
3.35262528432094
 20
1.721463226494514
 30
0.0
  0
VERTEX
  5
4F3
  8
LAYER_1
 10
3.352027477050311
 20
1.725840029725905
 30
0.0
  0
VERTEX
  5
4F4
  8
LAYER_1
 10
3.351109415884702
 20
1.726928892968836
 30
0.0
  0
VERTEX
  5
4F5
  8
LAYER_1
 10
3.347437171222267
 20
1.727612101278127
 30
0.0
  0
VERTEX
  5
4F6
  8
LAYER_1
 10
3.344149231233808
 20
1.727953705432772
 30
0.0
  0
VERTEX
  5
4F7
  8
LAYER_1
 10
3.344149231233808
 20
1.730643838150602
 30
0.0
  0
VERTEX
  5
4F8
  8
LAYER_1
 10
3.348760887321517
 20
1.730643838150602
 30
0.0
  0
VERTEX
  5
4F9
  8
LAYER_1
 10
3.353287142370565
 20
1.730494386332945
 30
0.0
  0
VERTEX
  5
4FA
  8
LAYER_1
 10
3.359051712480202
 20
1.730344934515288
 30
0.0
  0
VERTEX
  5
4FB
  8
LAYER_1
 10
3.375448711903168
 20
1.730593798479511
 30
0.0
  0
VERTEX
  5
4FC
  8
LAYER_1
 10
3.383220206421344
 20
1.730643838150602
 30
0.0
  0
VERTEX
  5
4FD
  8
LAYER_1
 10
3.391247904055505
 20
1.730344934515288
 30
0.0
  0
VERTEX
  5
4FE
  8
LAYER_1
 10
3.38998823873525
 20
1.724510642463932
 30
0.0
  0
VERTEX
  5
4FF
  8
LAYER_1
 10
3.389454482243618
 20
1.71715047404212
 30
0.0
  0
VERTEX
  5
500
  8
LAYER_1
 10
3.386550846929134
 20
1.71715047404212
 30
0.0
  0
VERTEX
  5
501
  8
LAYER_1
 10
3.386081141216497
 20
1.724964669079627
 30
0.0
  0
VERTEX
  5
502
  8
LAYER_1
 10
3.380466022924518
 20
1.726373786217538
 30
0.0
  0
VERTEX
  5
503
  8
LAYER_1
 10
3.373697990610611
 20
1.726843491930175
 30
0.0
  0
VERTEX
  5
504
  8
LAYER_1
 10
3.361442941562717
 20
1.726331752893822
 30
0.0
  0
VERTEX
  5
505
  8
LAYER_1
 10
3.361357540524056
 20
1.718318733563182
 30
0.0
  0
VERTEX
  5
506
  8
LAYER_1
 10
3.361272139485395
 20
1.711754863107324
 30
0.0
  0
VERTEX
  5
507
  8
LAYER_1
 10
3.361272139485395
 20
1.703102003182339
 30
0.0
  0
VERTEX
  5
508
  8
LAYER_1
 10
3.368744730368257
 20
1.702803099547024
 30
0.0
  0
VERTEX
  5
509
  8
LAYER_1
 10
3.376703039658505
 20
1.702979239189263
 30
0.0
  0
VERTEX
  5
50A
  8
LAYER_1
 10
3.380252520327864
 20
1.70350765811598
 30
0.0
  0
VERTEX
  5
50B
  8
LAYER_1
 10
3.38084098685989
 20
1.7040454177813
 30
0.0
  0
VERTEX
  5
50C
  8
LAYER_1
 10
3.381261320097051
 20
1.704954138208306
 30
0.0
  0
VERTEX
  5
50D
  8
LAYER_1
 10
3.38159758668678
 20
1.707884461347371
 30
0.0
  0
VERTEX
  5
50E
  8
LAYER_1
 10
3.38159758668678
 20
1.710659995103862
 30
0.0
  0
VERTEX
  5
50F
  8
LAYER_1
 10
3.384501222001263
 20
1.710659995103862
 30
0.0
  0
VERTEX
  5
510
  8
LAYER_1
 10
3.384202318365949
 20
1.700369169945178
 30
0.0
  0
VERTEX
  5
511
  8
LAYER_1
 10
3.384501222001263
 20
1.690804253615115
 30
0.0
  0
VERTEX
  5
512
  8
LAYER_1
 10
3.38159758668678
 20
1.690804253615115
 30
0.0
  0
VERTEX
  5
513
  8
LAYER_1
 10
3.38159758668678
 20
1.693280883736292
 30
0.0
  0
VERTEX
  5
514
  8
LAYER_1
 10
3.381197269318055
 20
1.6965848364195
 30
0.0
  0
VERTEX
  5
515
  8
LAYER_1
 10
3.380696872607149
 20
1.697640339881704
 30
0.0
  0
VERTEX
  5
516
  8
LAYER_1
 10
3.379996317211881
 20
1.698298194757642
 30
0.0
  0
VERTEX
  5
517
  8
LAYER_1
 10
3.378689948198609
 20
1.698699846517596
 30
0.0
  0
VERTEX
  5
518
  8
LAYER_1
 10
3.376372110633693
 20
1.698986740631848
 30
0.0
  0
VERTEX
  5
519
  8
LAYER_1
 10
3.368702029848926
 20
1.699216255923251
 30
0.0
  0
SEQEND
  5
C18
  8
LAYER_1
  0
POLYLINE
  5
79
  8
LAYER_1
 66
     1
 10
0.0
 20
0.0
 30
0.0
 70
     1
  0
VERTEX
  5
51A
  8
LAYER_1
 10
3.409395624771027
 20
1.721009533476626
 30
0.0
  0
VERTEX
  5
51B
  8
LAYER_1
 10
3.409395624771027
 20
1.691493466684936
 30
0.0
  0
VERTEX
  5
51C
  8
LAYER_1
 10
3.409781931031846
 20
1.677440325455853
 30
0.0
  0
VERTEX
  5
51D
  8
LAYER_1
 10
3.410184166587963
 20
1.675000474492927
 30
0.0
  0
VERTEX
  5
51E
  8
LAYER_1
 10
3.410790397203225
 20
1.673745729740331
 30
0.0
  0
VERTEX
  5
51F
  8
LAYER_1
 10
3.41216940713903
 20
1.673174360095928
 30
0.0
  0
VERTEX
  5
520
  8
LAYER_1
 10
3.414889980656774
 20
1.672784634457584
 30
0.0
  0
VERTEX
  5
521
  8
LAYER_1
 10
3.417636825001841
 20
1.672571131860931
 30
0.0
  0
VERTEX
  5
522
  8
LAYER_1
 10
3.417636825001841
 20
1.669880999143101
 30
0.0
  0
VERTEX
  5
523
  8
LAYER_1
 10
3.409207475607726
 20
1.670179902778415
 30
0.0
  0
VERTEX
  5
524
  8
LAYER_1
 10
3.397225976761794
 20
1.669880999143101
 30
0.0
  0
VERTEX
  5
525
  8
LAYER_1
 10
3.397225976761794
 20
1.672571131860931
 30
0.0
  0
VERTEX
  5
526
  8
LAYER_1
 10
3.4003004141536
 20
1.672571131860931
 30
0.0
  0
VERTEX
  5
527
  8
LAYER_1
 10
3.402595567067622
 20
1.672763284197919
 30
0.0
  0
VERTEX
  5
528
  8
LAYER_1
 10
3.403929958296705
 20
1.673339741208883
 30
0.0
  0
VERTEX
  5
529
  8
LAYER_1
 10
3.404623841735828
 20
1.674481980100977
 30
0.0
  0
VERTEX
  5
52A
  8
LAYER_1
 10
3.404997471279971
 20
1.676371478081358
 30
0.0
  0
VERTEX
  5
52B
  8
LAYER_1
 10
3.405467176992608
 20
1.68913893336122
 30
0.0
  0
VERTEX
  5
52C
  8
LAYER_1
 10
3.405467176992608
 20
1.710361091468548
 30
0.0
  0
VERTEX
  5
52D
  8
LAYER_1
 10
3.405339075434616
 20
1.722189135323135
 30
0.0
  0
VERTEX
  5
52E
  8
LAYER_1
 10
3.405130910402879
 20
1.72427612320542
 30
0.0
  0
VERTEX
  5
52F
  8
LAYER_1
 10
3.404677217384991
 20
1.725583826609921
 30
0.0
  0
VERTEX
  5
530
  8
LAYER_1
 10
3.402990546871431
 20
1.727227796604151
 30
0.0
  0
VERTEX
  5
531
  8
LAYER_1
 10
3.401656155642348
 20
1.727772228225616
 30
0.0
  0
VERTEX
  5
532
  8
LAYER_1
 10
3.399873408960294
 20
1.727953705432772
 30
0.0
  0
VERTEX
  5
533
  8
LAYER_1
 10
3.397225976761794
 20
1.727953705432772
 30
0.0
  0
VERTEX
  5
534
  8
LAYER_1
 10
3.397225976761794
 20
1.730643838150602
 30
0.0
  0
VERTEX
  5
535
  8
LAYER_1
 10
3.405509877511939
 20
1.730344934515288
 30
0.0
  0
VERTEX
  5
536
  8
LAYER_1
 10
3.41225655956618
 20
1.730643838150602
 30
0.0
  0
VERTEX
  5
537
  8
LAYER_1
 10
3.420220206421344
 20
1.720587865848236
 30
0.0
  0
VERTEX
  5
538
  8
LAYER_1
 10
3.427970350679856
 20
1.710745396142524
 30
0.0
  0
VERTEX
  5
539
  8
LAYER_1
 10
3.442573928290935
 20
1.692811178023655
 30
0.0
  0
VERTEX
  5
53A
  8
LAYER_1
 10
3.453974966952216
 20
1.679403214953834
 30
0.0
  0
VERTEX
  5
53B
  8
LAYER_1
 10
3.453974966952216
 20
1.706816948364105
 30
0.0
  0
VERTEX
  5
53C
  8
LAYER_1
 10
3.453820177569642
 20
1.720123497700516
 30
0.0
  0
VERTEX
  5
53D
  8
LAYER_1
 10
3.453355809421921
 20
1.725626527129252
 30
0.0
  0
VERTEX
  5
53E
  8
LAYER_1
 10
3.452815380974143
 20
1.726353770349102
 30
0.0
  0
VERTEX
  5
53F
  8
LAYER_1
 10
3.451813253161102
 20
1.726934230533753
 30
0.0
  0
VERTEX
  5
540
  8
LAYER_1
 10
3.448423899439232
 20
1.727654801797457
 30
0.0
  0
VERTEX
  5
541
  8
LAYER_1
 10
3.445221360489434
 20
1.727953705432772
 30
0.0
  0
VERTEX
  5
542
  8
LAYER_1
 10
3.445221360489434
 20
1.730643838150602
 30
0.0
  0
VERTEX
  5
543
  8
LAYER_1
 10
3.455896490322095
 20
1.730344934515288
 30
0.0
  0
VERTEX
  5
544
  8
LAYER_1
 10
3.466144614961448
 20
1.730643838150602
 30
0.0
  0
VERTEX
  5
545
  8
LAYER_1
 10
3.466144614961448
 20
1.727953705432772
 30
0.0
  0
VERTEX
  5
546
  8
LAYER_1
 10
3.462856674972989
 20
1.727953705432772
 30
0.0
  0
VERTEX
  5
547
  8
LAYER_1
 10
3.461081934638309
 20
1.727788240920366
 30
0.0
  0
VERTEX
  5
548
  8
LAYER_1
 10
3.459728861932019
 20
1.727291847383147
 30
0.0
  0
VERTEX
  5
549
  8
LAYER_1
 10
3.45879745685412
 20
1.726464524821116
 30
0.0
  0
VERTEX
  5
54A
  8
LAYER_1
 10
3.45828771940461
 20
1.725306273234272
 30
0.0
  0
VERTEX
  5
54B
  8
LAYER_1
 10
3.457999490899129
 20
1.719755205721289
 30
0.0
  0
VERTEX
  5
54C
  8
LAYER_1
 10
3.457903414730635
 20
1.706603445767451
 30
0.0
  0
VERTEX
  5
54D
  8
LAYER_1
 10
3.457903414730635
 20
1.687345511549333
 30
0.0
  0
VERTEX
  5
54E
  8
LAYER_1
 10
3.458586623039925
 20
1.668770785640504
 30
0.0
  0
VERTEX
  5
54F
  8
LAYER_1
 10
3.451839940985684
 20
1.670073151480089
 30
0.0
  0
VERTEX
  5
550
  8
LAYER_1
 10
3.450046519173797
 20
1.671418217839004
 30
0.0
  0
VERTEX
  5
551
  8
LAYER_1
 10
3.440097298169758
 20
1.683079462789956
 30
0.0
  0
SEQEND
  5
C19
  8
LAYER_1
  0
POLYLINE
  5
7A
  8
LAYER_1
 66
     1
 10
0.0
 20
0.0
 30
0.0
 70
     1
  0
VERTEX
  5
552
  8
LAYER_1
 10
3.499280217962025
 20
1.726758090891514
 30
0.0
  0
VERTEX
  5
553
  8
LAYER_1
 10
3.498810512249388
 20
1.713264726783031
 30
0.0
  0
VERTEX
  5
554
  8
LAYER_1
 10
3.498810512249388
 20
1.688925430764566
 30
0.0
  0
VERTEX
  5
555
  8
LAYER_1
 10
3.498981314326711
 20
1.678394415184647
 30
0.0
  0
VERTEX
  5
556
  8
LAYER_1
 10
3.499493720558679
 20
1.673958898739177
 30
0.0
  0
VERTEX
  5
557
  8
LAYER_1
 10
3.500054164874893
 20
1.673351750729944
 30
0.0
  0
VERTEX
  5
558
  8
LAYER_1
 10
3.501052289514247
 20
1.672918073580492
 30
0.0
  0
VERTEX
  5
559
  8
LAYER_1
 10
3.504361579762372
 20
1.672571131860931
 30
0.0
  0
VERTEX
  5
55A
  8
LAYER_1
 10
3.50756411871217
 20
1.672571131860931
 30
0.0
  0
VERTEX
  5
55B
  8
LAYER_1
 10
3.50756411871217
 20
1.669880999143101
 30
0.0
  0
VERTEX
  5
55C
  8
LAYER_1
 10
3.494753962912978
 20
1.670179902778415
 30
0.0
  0
VERTEX
  5
55D
  8
LAYER_1
 10
3.482029208152447
 20
1.669880999143101
 30
0.0
  0
VERTEX
  5
55E
  8
LAYER_1
 10
3.482029208152447
 20
1.672571131860931
 30
0.0
  0
VERTEX
  5
55F
  8
LAYER_1
 10
3.48561605177622
 20
1.672571131860931
 30
0.0
  0
VERTEX
  5
560
  8
LAYER_1
 10
3.487943230079741
 20
1.672757946633003
 30
0.0
  0
VERTEX
  5
561
  8
LAYER_1
 10
3.489288296438656
 20
1.673318390949217
 30
0.0
  0
VERTEX
  5
562
  8
LAYER_1
 10
3.489982179877778
 20
1.674423266886898
 30
0.0
  0
VERTEX
  5
563
  8
LAYER_1
 10
3.490355809421922
 20
1.676243376523366
 30
0.0
  0
VERTEX
  5
564
  8
LAYER_1
 10
3.490782814615228
 20
1.68913893336122
 30
0.0
  0
VERTEX
  5
565
  8
LAYER_1
 10
3.490782814615228
 20
1.713520929899015
 30
0.0
  0
VERTEX
  5
566
  8
LAYER_1
 10
3.490484578175528
 20
1.726758090891514
 30
0.0
  0
VERTEX
  5
567
  8
LAYER_1
 10
3.486139133138021
 20
1.726758090891514
 30
0.0
  0
VERTEX
  5
568
  8
LAYER_1
 10
3.477981165560121
 20
1.726635326898438
 30
0.0
  0
VERTEX
  5
569
  8
LAYER_1
 10
3.474551946900283
 20
1.726267034919212
 30
0.0
  0
VERTEX
  5
56A
  8
LAYER_1
 10
3.47366807950992
 20
1.725066082813037
 30
0.0
  0
VERTEX
  5
56B
  8
LAYER_1
 10
3.473146165740444
 20
1.722445338439119
 30
0.0
  0
VERTEX
  5
56C
  8
LAYER_1
 10
3.472549692861044
 20
1.716723468848813
 30
0.0
  0
VERTEX
  5
56D
  8
LAYER_1
 10
3.469859560143214
 20
1.716723468848813
 30
0.0
  0
VERTEX
  5
56E
  8
LAYER_1
 10
3.469944961181875
 20
1.72180483064916
 30
0.0
  0
VERTEX
  5
56F
  8
LAYER_1
 10
3.469432554949908
 20
1.730643838150602
 30
0.0
  0
VERTEX
  5
570
  8
LAYER_1
 10
3.496547384724864
 20
1.730344934515288
 30
0.0
  0
VERTEX
  5
571
  8
LAYER_1
 10
3.520160771914709
 20
1.730643838150602
 30
0.0
  0
VERTEX
  5
572
  8
LAYER_1
 10
3.519520264124749
 20
1.723555551941716
 30
0.0
  0
VERTEX
  5
573
  8
LAYER_1
 10
3.519221360489435
 20
1.716723468848813
 30
0.0
  0
VERTEX
  5
574
  8
LAYER_1
 10
3.516531227771604
 20
1.716723468848813
 30
0.0
  0
VERTEX
  5
575
  8
LAYER_1
 10
3.516104222578298
 20
1.722317236881127
 30
0.0
  0
VERTEX
  5
576
  8
LAYER_1
 10
3.515794643813151
 20
1.724628402489898
 30
0.0
  0
VERTEX
  5
577
  8
LAYER_1
 10
3.515378313749677
 20
1.725754628687244
 30
0.0
  0
VERTEX
  5
578
  8
LAYER_1
 10
3.514620379531558
 20
1.726186971445467
 30
0.0
  0
VERTEX
  5
579
  8
LAYER_1
 10
3.513285988302476
 20
1.726416486736869
 30
0.0
  0
VERTEX
  5
57A
  8
LAYER_1
 10
3.502610858469815
 20
1.726758090891514
 30
0.0
  0
SEQEND
  5
C1A
  8
LAYER_1
  0
POLYLINE
  5
7B
  8
LAYER_1
 66
     1
 10
0.0
 20
0.0
 30
0.0
 70
     1
  0
VERTEX
  5
57B
  8
LAYER_1
 10
3.562562387610034
 20
1.727782903355449
 30
0.0
  0
VERTEX
  5
57C
  8
LAYER_1
 10
3.561644326444425
 20
1.722616140516442
 30
0.0
  0
VERTEX
  5
57D
  8
LAYER_1
 10
3.561281372030115
 20
1.715997560020192
 30
0.0
  0
VERTEX
  5
57E
  8
LAYER_1
 10
3.558335036196301
 20
1.715997560020192
 30
0.0
  0
VERTEX
  5
57F
  8
LAYER_1
 10
3.558335036196301
 20
1.719413601566644
 30
0.0
  0
VERTEX
  5
580
  8
LAYER_1
 10
3.558110858469814
 20
1.722210485582801
 30
0.0
  0
VERTEX
  5
581
  8
LAYER_1
 10
3.557438325290357
 20
1.723939856615692
 30
0.0
  0
VERTEX
  5
582
  8
LAYER_1
 10
3.555821043120709
 20
1.725172834111364
 30
0.0
  0
VERTEX
  5
583
  8
LAYER_1
 10
3.552762618423652
 20
1.726480537515865
 30
0.0
  0
VERTEX
  5
584
  8
LAYER_1
 10
3.54888220872948
 20
1.727489337285051
 30
0.0
  0
VERTEX
  5
585
  8
LAYER_1
 10
3.544798971568488
 20
1.72782560387478
 30
0.0
  0
VERTEX
  5
586
  8
LAYER_1
 10
3.54156574162042
 20
1.727609766093476
 30
0.0
  0
VERTEX
  5
587
  8
LAYER_1
 10
3.538698134869122
 20
1.726962252749563
 30
0.0
  0
VERTEX
  5
588
  8
LAYER_1
 10
3.536196151314593
 20
1.725883063843043
 30
0.0
  0
VERTEX
  5
589
  8
LAYER_1
 10
3.534059790956832
 20
1.724372199373914
 30
0.0
  0
VERTEX
  5
58A
  8
LAYER_1
 10
3.532350435792377
 20
1.722522941629035
 30
0.0
  0
VERTEX
  5
58B
  8
LAYER_1
 10
3.531129467817767
 20
1.720428572895264
 30
0.0
  0
VERTEX
  5
58C
  8
LAYER_1
 10
3.530396887033
 20
1.718089093172601
 30
0.0
  0
VERTEX
  5
58D
  8
LAYER_1
 10
3.530152693438078
 20
1.715504502461046
 30
0.0
  0
VERTEX
  5
58E
  8
LAYER_1
 10
3.530553010806803
 20
1.712333655302939
 30
0.0
  0
VERTEX
  5
58F
  8
LAYER_1
 10
3.531753962912977
 20
1.709642521791687
 30
0.0
  0
VERTEX
  5
590
  8
LAYER_1
 10
3.533632785763525
 20
1.707532265462345
 30
0.0
  0
VERTEX
  5
591
  8
LAYER_1
 10
3.536066715365372
 20
1.706104049849967
 30
0.0
  0
VERTEX
  5
592
  8
LAYER_1
 10
3.540299404344021
 20
1.705081322372327
 30
0.0
  0
VERTEX
  5
593
  8
LAYER_1
 10
3.547574505324979
 20
1.704187530447198
 30
0.0
  0
VERTEX
  5
594
  8
LAYER_1
 10
3.554945682474431
 20
1.703194076177146
 30
0.0
  0
VERTEX
  5
595
  8
LAYER_1
 10
3.559466599958562
 20
1.701923068531445
 30
0.0
  0
VERTEX
  5
596
  8
LAYER_1
 10
3.562252808844887
 20
1.700086028806257
 30
0.0
  0
VERTEX
  5
597
  8
LAYER_1
 10
3.564419860200917
 20
1.697394478297746
 30
0.0
  0
VERTEX
  5
598
  8
LAYER_1
 10
3.565812964644079
 20
1.693987360492639
 30
0.0
  0
VERTEX
  5
599
  8
LAYER_1
 10
3.5662773327918
 20
1.690003618877665
 30
0.0
  0
VERTEX
  5
59A
  8
LAYER_1
 10
3.565828977338828
 20
1.685859708615475
 30
0.0
  0
VERTEX
  5
59B
  8
LAYER_1
 10
3.564483910979913
 20
1.682014785388052
 30
0.0
  0
VERTEX
  5
59C
  8
LAYER_1
 10
3.562242133715054
 20
1.678468849195394
 30
0.0
  0
VERTEX
  5
59D
  8
LAYER_1
 10
3.559103645544252
 20
1.675221900037503
 30
0.0
  0
VERTEX
  5
59E
  8
LAYER_1
 10
3.555217898285163
 20
1.672511626352059
 30
0.0
  0
VERTEX
  5
59F
  8
LAYER_1
 10
3.550734343755447
 20
1.670575716576742
 30
0.0
  0
VERTEX
  5
5A0
  8
LAYER_1
 10
3.5456529819551
 20
1.669414170711552
 30
0.0
  0
VERTEX
  5
5A1
  8
LAYER_1
 10
3.539973812884125
 20
1.669026988756488
 30
0.0
  0
VERTEX
  5
5A2
  8
LAYER_1
 10
3.535858550333635
 20
1.669235153788225
 30
0.0
  0
VERTEX
  5
5A3
  8
LAYER_1
 10
3.531711262393646
 20
1.669859648883435
 30
0.0
  0
VERTEX
  5
5A4
  8
LAYER_1
 10
3.52753194906416
 20
1.670889798912287
 30
0.0
  0
VERTEX
  5
5A5
  8
LAYER_1
 10
3.523320610345175
 20
1.672314928744947
 30
0.0
  0
VERTEX
  5
5A6
  8
LAYER_1
 10
3.523886392226307
 20
1.678164899893245
 30
0.0
  0
VERTEX
  5
5A7
  8
LAYER_1
 10
3.524046519173796
 20
1.685466688698785
 30
0.0
  0
VERTEX
  5
5A8
  8
LAYER_1
 10
3.52695015448828
 20
1.685466688698785
 30
0.0
  0
VERTEX
  5
5A9
  8
LAYER_1
 10
3.52695015448828
 20
1.683331662732253
 30
0.0
  0
VERTEX
  5
5AA
  8
LAYER_1
 10
3.527056905786607
 20
1.679979671964797
 30
0.0
  0
VERTEX
  5
5AB
  8
LAYER_1
 10
3.527377159681586
 20
1.678207600412576
 30
0.0
  0
VERTEX
  5
5AC
  8
LAYER_1
 10
3.528092393380375
 20
1.677193463078473
 30
0.0
  0
VERTEX
  5
5AD
  8
LAYER_1
 10
3.529384084090126
 20
1.676115274965374
 30
0.0
  0
VERTEX
  5
5AE
  8
LAYER_1
 10
3.531956790379797
 20
1.674647444613383
 30
0.0
  0
VERTEX
  5
5AF
  8
LAYER_1
 10
3.53497785212244
 20
1.673574594065201
 30
0.0
  0
VERTEX
  5
5B0
  8
LAYER_1
 10
3.538351193149561
 20
1.672918073580492
 30
0.0
  0
VERTEX
  5
5B1
  8
LAYER_1
 10
3.541980737292665
 20
1.672699233418923
 30
0.0
  0
VERTEX
  5
5B2
  8
LAYER_1
 10
3.545786421078009
 20
1.6729367550577
 30
0.0
  0
VERTEX
  5
5B3
  8
LAYER_1
 10
3.549133074280547
 20
1.67364931997403
 30
0.0
  0
VERTEX
  5
5B4
  8
LAYER_1
 10
3.552020696900283
 20
1.674836928167913
 30
0.0
  0
VERTEX
  5
5B5
  8
LAYER_1
 10
3.554449288937212
 20
1.67649957963935
 30
0.0
  0
VERTEX
  5
5B6
  8
LAYER_1
 10
3.556373481089549
 20
1.678527854307555
 30
0.0
  0
VERTEX
  5
5B7
  8
LAYER_1
 10
3.557747904055504
 20
1.680812332091745
 30
0.0
  0
VERTEX
  5
5B8
  8
LAYER_1
 10
3.558572557835077
 20
1.683353012991918
 30
0.0
  0
VERTEX
  5
5B9
  8
LAYER_1
 10
3.558847442428268
 20
1.686149897008075
 30
0.0
  0
VERTEX
  5
5BA
  8
LAYER_1
 10
3.558473812884125
 20
1.689304397873626
 30
0.0
  0
VERTEX
  5
5BB
  8
LAYER_1
 10
3.557352924251696
 20
1.691935817377376
 30
0.0
  0
VERTEX
  5
5BC
  8
LAYER_1
 10
3.555559502439809
 20
1.694001454999996
 30
0.0
  0
VERTEX
  5
5BD
  8
LAYER_1
 10
3.553168273357293
 20
1.695458610222154
 30
0.0
  0
VERTEX
  5
5BE
  8
LAYER_1
 10
3.549335901747368
 20
1.696472747556257
 30
0.0
  0
VERTEX
  5
5BF
  8
LAYER_1
 10
3.543219052353254
 20
1.697209331514711
 30
0.0
  0
VERTEX
  5
5C0
  8
LAYER_1
 10
3.535116628810265
 20
1.69817009319965
 30
0.0
  0
VERTEX
  5
5C1
  8
LAYER_1
 10
3.530109992918747
 20
1.699515159558565
 30
0.0
  0
VERTEX
  5
5C2
  8
LAYER_1
 10
3.527024880397109
 20
1.701495396142524
 30
0.0
  0
VERTEX
  5
5C3
  8
LAYER_1
 10
3.524687026963756
 20
1.704361668502593
 30
0.0
  0
VERTEX
  5
5C4
  8
LAYER_1
 10
3.523827679012227
 20
1.706116392968836
 30
0.0
  0
VERTEX
  5
5C5
  8
LAYER_1
 10
3.523213859046849
 20
1.708071276119442
 30
0.0
  0
VERTEX
  5
5C6
  8
LAYER_1
 10
3.522722803074546
 20
1.712581518473741
 30
0.0
  0
VERTEX
  5
5C7
  8
LAYER_1
 10
3.523099101401148
 20
1.716555335553949
 30
0.0
  0
VERTEX
  5
5C8
  8
LAYER_1
 10
3.524227996380952
 20
1.720150185525097
 30
0.0
  0
VERTEX
  5
5C9
  8
LAYER_1
 10
3.526109488013958
 20
1.723366068387186
 30
0.0
  0
VERTEX
  5
5CA
  8
LAYER_1
 10
3.528743576300167
 20
1.726202984140216
 30
0.0
  0
VERTEX
  5
5CB
  8
LAYER_1
 10
3.532042191418459
 20
1.728519487313903
 30
0.0
  0
VERTEX
  5
5CC
  8
LAYER_1
 10
3.535917263547714
 20
1.730174132437965
 30
0.0
  0
VERTEX
  5
5CD
  8
LAYER_1
 10
3.540368792687933
 20
1.731166919512403
 30
0.0
  0
VERTEX
  5
5CE
  8
LAYER_1
 10
3.545396778839117
 20
1.731497848537215
 30
0.0
  0
VERTEX
  5
5CF
  8
LAYER_1
 10
3.549672168337097
 20
1.731268333245813
 30
0.0
  0
VERTEX
  5
5D0
  8
LAYER_1
 10
3.55395823296491
 20
1.730579787371606
 30
0.0
  0
VERTEX
  5
5D1
  8
LAYER_1
 10
3.558254972722555
 20
1.729421535784762
 30
0.0
  0
SEQEND
  5
C1B
  8
LAYER_1
  0
POLYLINE
  5
7C
  8
LAYER_1
 66
     1
 10
0.0
 20
0.0
 30
0.0
 70
     1
  0
VERTEX
  5
5D2
  8
LAYER_1
 10
3.584553155065314
 20
1.681965246113672
 30
0.0
  0
VERTEX
  5
5D3
  8
LAYER_1
 10
3.585748769606572
 20
1.680684230533753
 30
0.0
  0
VERTEX
  5
5D4
  8
LAYER_1
 10
3.583213426271316
 20
1.675042424417192
 30
0.0
  0
VERTEX
  5
5D5
  8
LAYER_1
 10
3.580475255469238
 20
1.669987750441427
 30
0.0
  0
VERTEX
  5
5D6
  8
LAYER_1
 10
3.57717130278603
 20
1.664943751595495
 30
0.0
  0
VERTEX
  5
5D7
  8
LAYER_1
 10
3.57293861380738
 20
1.659333970868432
 30
0.0
  0
VERTEX
  5
5D8
  8
LAYER_1
 10
3.569351770183606
 20
1.657497848537215
 30
0.0
  0
VERTEX
  5
5D9
  8
LAYER_1
 10
3.568070754603687
 20
1.658821564636465
 30
0.0
  0
VERTEX
  5
5DA
  8
LAYER_1
 10
3.571289306248234
 20
1.664276555980954
 30
0.0
  0
VERTEX
  5
5DB
  8
LAYER_1
 10
3.573515070818344
 20
1.66919779083381
 30
0.0
  0
VERTEX
  5
5DC
  8
LAYER_1
 10
3.574961550910669
 20
1.674044299777838
 30
0.0
  0
VERTEX
  5
5DD
  8
LAYER_1
 10
3.575842249121864
 20
1.679275113395842
 30
0.0
  0
VERTEX
  5
5DE
  8
LAYER_1
 10
3.580496605728904
 20
1.680545453845928
 30
0.0
  0
SEQEND
  5
C1C
  8
LAYER_1
  0
POLYLINE
  5
7D
  8
LAYER_1
 66
     1
 10
0.0
 20
0.0
 30
0.0
 70
     1
  0
VERTEX
  5
5DF
  8
LAYER_1
 10
3.630157309710438
 20
1.674065650037504
 30
0.0
  0
VERTEX
  5
5E0
  8
LAYER_1
 10
3.63831310890259
 20
1.67385214744085
 30
0.0
  0
VERTEX
  5
5E1
  8
LAYER_1
 10
3.650867061585799
 20
1.674279152634157
 30
0.0
  0
VERTEX
  5
5E2
  8
LAYER_1
 10
3.657400241043387
 20
1.675517467694745
 30
0.0
  0
VERTEX
  5
5E3
  8
LAYER_1
 10
3.659962272203225
 20
1.685552089737446
 30
0.0
  0
VERTEX
  5
5E4
  8
LAYER_1
 10
3.662737805959717
 20
1.685552089737446
 30
0.0
  0
VERTEX
  5
5E5
  8
LAYER_1
 10
3.661072485705822
 20
1.67047880641373
 30
0.0
  0
VERTEX
  5
5E6
  8
LAYER_1
 10
3.656524880397109
 20
1.66999842557126
 30
0.0
  0
VERTEX
  5
5E7
  8
LAYER_1
 10
3.650568157950484
 20
1.66983829862377
 30
0.0
  0
VERTEX
  5
5E8
  8
LAYER_1
 10
3.630242710749099
 20
1.670179902778415
 30
0.0
  0
VERTEX
  5
5E9
  8
LAYER_1
 10
3.617475255469238
 20
1.669710197065778
 30
0.0
  0
VERTEX
  5
5EA
  8
LAYER_1
 10
3.617475255469238
 20
1.671973324590302
 30
0.0
  0
VERTEX
  5
5EB
  8
LAYER_1
 10
3.62019207601165
 20
1.673521218416038
 30
0.0
  0
VERTEX
  5
5EC
  8
LAYER_1
 10
3.621510454545983
 20
1.6751758635401
 30
0.0
  0
VERTEX
  5
5ED
  8
LAYER_1
 10
3.621974822693704
 20
1.679413890083666
 30
0.0
  0
VERTEX
  5
5EE
  8
LAYER_1
 10
3.622129612076277
 20
1.688711928167913
 30
0.0
  0
VERTEX
  5
5EF
  8
LAYER_1
 10
3.622129612076277
 20
1.712197213799765
 30
0.0
  0
VERTEX
  5
5F0
  8
LAYER_1
 10
3.621974822693704
 20
1.722173122628386
 30
0.0
  0
VERTEX
  5
5F1
  8
LAYER_1
 10
3.621510454545983
 20
1.726480537515865
 30
0.0
  0
VERTEX
  5
5F2
  8
LAYER_1
 10
3.621060764701782
 20
1.727125048479512
 30
0.0
  0
VERTEX
  5
5F3
  8
LAYER_1
 10
3.620330852699474
 20
1.727585413453545
 30
0.0
  0
VERTEX
  5
5F4
  8
LAYER_1
 10
3.618030362220536
 20
1.727953705432772
 30
0.0
  0
VERTEX
  5
5F5
  8
LAYER_1
 10
3.613376005613496
 20
1.727953705432772
 30
0.0
  0
VERTEX
  5
5F6
  8
LAYER_1
 10
3.613376005613496
 20
1.730643838150602
 30
0.0
  0
VERTEX
  5
5F7
  8
LAYER_1
 10
3.626869369721978
 20
1.730344934515288
 30
0.0
  0
VERTEX
  5
5F8
  8
LAYER_1
 10
3.638910916173219
 20
1.730643838150602
 30
0.0
  0
VERTEX
  5
5F9
  8
LAYER_1
 10
3.638910916173219
 20
1.727953705432772
 30
0.0
  0
VERTEX
  5
5FA
  8
LAYER_1
 10
3.63361605177622
 20
1.727953705432772
 30
0.0
  0
VERTEX
  5
5FB
  8
LAYER_1
 10
3.63176925431517
 20
1.727628113972876
 30
0.0
  0
VERTEX
  5
5FC
  8
LAYER_1
 10
3.630755116981067
 20
1.726651339593187
 30
0.0
  0
VERTEX
  5
5FD
  8
LAYER_1
 10
3.630306761528095
 20
1.723294011260815
 30
0.0
  0
VERTEX
  5
5FE
  8
LAYER_1
 10
3.630157309710438
 20
1.71582675794287
 30
0.0
  0
VERTEX
  5
5FF
  8
LAYER_1
 10
3.630157309710438
 20
1.688626527129252
 30
0.0
  0
VERTEX
  5
600
  8
LAYER_1
 10
3.63028541126843
 20
1.676584980678011
 30
0.0
  0
SEQEND
  5
C1D
  8
LAYER_1
  0
POLYLINE
  5
7E
  8
LAYER_1
 66
     1
 10
0.0
 20
0.0
 30
0.0
 70
     1
  0
VERTEX
  5
601
  8
LAYER_1
 10
3.683575659393069
 20
1.674065650037504
 30
0.0
  0
VERTEX
  5
602
  8
LAYER_1
 10
3.691731458585221
 20
1.67385214744085
 30
0.0
  0
VERTEX
  5
603
  8
LAYER_1
 10
3.70428541126843
 20
1.674279152634157
 30
0.0
  0
VERTEX
  5
604
  8
LAYER_1
 10
3.710818590726018
 20
1.675517467694745
 30
0.0
  0
VERTEX
  5
605
  8
LAYER_1
 10
3.713380621885856
 20
1.685552089737446
 30
0.0
  0
VERTEX
  5
606
  8
LAYER_1
 10
3.716156155642348
 20
1.685552089737446
 30
0.0
  0
VERTEX
  5
607
  8
LAYER_1
 10
3.714490835388453
 20
1.67047880641373
 30
0.0
  0
VERTEX
  5
608
  8
LAYER_1
 10
3.70994323007974
 20
1.66999842557126
 30
0.0
  0
VERTEX
  5
609
  8
LAYER_1
 10
3.703986507633115
 20
1.66983829862377
 30
0.0
  0
VERTEX
  5
60A
  8
LAYER_1
 10
3.68366106043173
 20
1.670179902778415
 30
0.0
  0
VERTEX
  5
60B
  8
LAYER_1
 10
3.670893605151869
 20
1.669710197065778
 30
0.0
  0
VERTEX
  5
60C
  8
LAYER_1
 10
3.670893605151869
 20
1.671973324590302
 30
0.0
  0
VERTEX
  5
60D
  8
LAYER_1
 10
3.673610425694281
 20
1.673521218416038
 30
0.0
  0
VERTEX
  5
60E
  8
LAYER_1
 10
3.674928804228614
 20
1.6751758635401
 30
0.0
  0
VERTEX
  5
60F
  8
LAYER_1
 10
3.675393172376335
 20
1.679413890083666
 30
0.0
  0
VERTEX
  5
610
  8
LAYER_1
 10
3.675547961758908
 20
1.688711928167913
 30
0.0
  0
VERTEX
  5
611
  8
LAYER_1
 10
3.675547961758908
 20
1.712197213799765
 30
0.0
  0
VERTEX
  5
612
  8
LAYER_1
 10
3.675393172376335
 20
1.722173122628386
 30
0.0
  0
VERTEX
  5
613
  8
LAYER_1
 10
3.674928804228614
 20
1.726480537515865
 30
0.0
  0
VERTEX
  5
614
  8
LAYER_1
 10
3.674479114384413
 20
1.727125048479512
 30
0.0
  0
VERTEX
  5
615
  8
LAYER_1
 10
3.673749202382105
 20
1.727585413453545
 30
0.0
  0
VERTEX
  5
616
  8
LAYER_1
 10
3.671448711903167
 20
1.727953705432772
 30
0.0
  0
VERTEX
  5
617
  8
LAYER_1
 10
3.666794355296127
 20
1.727953705432772
 30
0.0
  0
VERTEX
  5
618
  8
LAYER_1
 10
3.666794355296127
 20
1.730643838150602
 30
0.0
  0
VERTEX
  5
619
  8
LAYER_1
 10
3.68028771940461
 20
1.730344934515288
 30
0.0
  0
VERTEX
  5
61A
  8
LAYER_1
 10
3.69232926585585
 20
1.730643838150602
 30
0.0
  0
VERTEX
  5
61B
  8
LAYER_1
 10
3.69232926585585
 20
1.727953705432772
 30
0.0
  0
VERTEX
  5
61C
  8
LAYER_1
 10
3.687034401458851
 20
1.727953705432772
 30
0.0
  0
VERTEX
  5
61D
  8
LAYER_1
 10
3.685187603997801
 20
1.727628113972876
 30
0.0
  0
VERTEX
  5
61E
  8
LAYER_1
 10
3.684173466663698
 20
1.726651339593187
 30
0.0
  0
VERTEX
  5
61F
  8
LAYER_1
 10
3.683725111210726
 20
1.723294011260815
 30
0.0
  0
VERTEX
  5
620
  8
LAYER_1
 10
3.683575659393069
 20
1.71582675794287
 30
0.0
  0
VERTEX
  5
621
  8
LAYER_1
 10
3.683575659393069
 20
1.688626527129252
 30
0.0
  0
VERTEX
  5
622
  8
LAYER_1
 10
3.683703760951061
 20
1.676584980678011
 30
0.0
  0
SEQEND
  5
C1E
  8
LAYER_1
  0
POLYLINE
  5
7F
  8
LAYER_1
 66
     1
 10
0.0
 20
0.0
 30
0.0
 70
     1
  0
VERTEX
  5
623
  8
LAYER_1
 10
3.7729478463521
 20
1.715228950672241
 30
0.0
  0
VERTEX
  5
624
  8
LAYER_1
 10
3.772606242197455
 20
1.722829643113095
 30
0.0
  0
VERTEX
  5
625
  8
LAYER_1
 10
3.76871515737345
 20
1.725028719858623
 30
0.0
  0
VERTEX
  5
626
  8
LAYER_1
 10
3.76464259534229
 20
1.726587288814191
 30
0.0
  0
VERTEX
  5
627
  8
LAYER_1
 10
3.760388556103975
 20
1.727516025109633
 30
0.0
  0
VERTEX
  5
628
  8
LAYER_1
 10
3.755953039658505
 20
1.72782560387478
 30
0.0
  0
VERTEX
  5
629
  8
LAYER_1
 10
3.750475363663121
 20
1.727387923551641
 30
0.0
  0
VERTEX
  5
62A
  8
LAYER_1
 10
3.745571475896242
 20
1.726074882582224
 30
0.0
  0
VERTEX
  5
62B
  8
LAYER_1
 10
3.74124137635787
 20
1.723886480966528
 30
0.0
  0
VERTEX
  5
62C
  8
LAYER_1
 10
3.737485065048003
 20
1.720822718704555
 30
0.0
  0
VERTEX
  5
62D
  8
LAYER_1
 10
3.73444932500184
 20
1.717025041266586
 30
0.0
  0
VERTEX
  5
62E
  8
LAYER_1
 10
3.732280939254581
 20
1.712634894122905
 30
0.0
  0
VERTEX
  5
62F
  8
LAYER_1
 10
3.730979907806225
 20
1.707652277273511
 30
0.0
  0
VERTEX
  5
630
  8
LAYER_1
 10
3.730546230656774
 20
1.702077190718404
 30
0.0
  0
VERTEX
  5
631
  8
LAYER_1
 10
3.730766405209572
 20
1.69806867946624
 30
0.0
  0
VERTEX
  5
632
  8
LAYER_1
 10
3.731426928867968
 20
1.694284345940562
 30
0.0
  0
VERTEX
  5
633
  8
LAYER_1
 10
3.732527801631961
 20
1.69072419014137
 30
0.0
  0
VERTEX
  5
634
  8
LAYER_1
 10
3.734069023501552
 20
1.687388212068663
 30
0.0
  0
VERTEX
  5
635
  8
LAYER_1
 10
3.736015900304783
 20
1.684332456154064
 30
0.0
  0
VERTEX
  5
636
  8
LAYER_1
 10
3.738333737869699
 20
1.681612966829194
 30
0.0
  0
VERTEX
  5
637
  8
LAYER_1
 10
3.741022536196301
 20
1.679229744094052
 30
0.0
  0
VERTEX
  5
638
  8
LAYER_1
 10
3.744082295284587
 20
1.67718278794864
 30
0.0
  0
VERTEX
  5
639
  8
LAYER_1
 10
3.747372904055504
 20
1.67553881795441
 30
0.0
  0
VERTEX
  5
63A
  8
LAYER_1
 10
3.750754251429999
 20
1.674364553672818
 30
0.0
  0
VERTEX
  5
63B
  8
LAYER_1
 10
3.754226337408072
 20
1.673659995103862
 30
0.0
  0
VERTEX
  5
63C
  8
LAYER_1
 10
3.757789161989722
 20
1.673425142247544
 30
0.0
  0
VERTEX
  5
63D
  8
LAYER_1
 10
3.76347900619053
 20
1.673756071272356
 30
0.0
  0
VERTEX
  5
63E
  8
LAYER_1
 10
3.769104799612342
 20
1.674748858346794
 30
0.0
  0
VERTEX
  5
63F
  8
LAYER_1
 10
3.773300125636577
 20
1.676264726783031
 30
0.0
  0
VERTEX
  5
640
  8
LAYER_1
 10
3.777516801920478
 20
1.678848108202535
 30
0.0
  0
VERTEX
  5
641
  8
LAYER_1
 10
3.778413512826422
 20
1.677994097815922
 30
0.0
  0
VERTEX
  5
642
  8
LAYER_1
 10
3.776748192572527
 20
1.674022949518173
 30
0.0
  0
VERTEX
  5
643
  8
LAYER_1
 10
3.771736219116093
 20
1.671850560597226
 30
0.0
  0
VERTEX
  5
644
  8
LAYER_1
 10
3.766692220270161
 20
1.670286654076742
 30
0.0
  0
VERTEX
  5
645
  8
LAYER_1
 10
3.761616196034731
 20
1.669341905086551
 30
0.0
  0
VERTEX
  5
646
  8
LAYER_1
 10
3.756508146409803
 20
1.669026988756488
 30
0.0
  0
VERTEX
  5
647
  8
LAYER_1
 10
3.751414775088396
 20
1.669280523090014
 30
0.0
  0
VERTEX
  5
648
  8
LAYER_1
 10
3.746638988879509
 20
1.670041126090591
 30
0.0
  0
VERTEX
  5
649
  8
LAYER_1
 10
3.742180787783145
 20
1.671308797758219
 30
0.0
  0
VERTEX
  5
64A
  8
LAYER_1
 10
3.738040171799301
 20
1.673083538092899
 30
0.0
  0
VERTEX
  5
64B
  8
LAYER_1
 10
3.73428919805435
 20
1.675305299489321
 30
0.0
  0
VERTEX
  5
64C
  8
LAYER_1
 10
3.730999923674662
 20
1.677914034342177
 30
0.0
  0
VERTEX
  5
64D
  8
LAYER_1
 10
3.728172348660236
 20
1.680909742651468
 30
0.0
  0
VERTEX
  5
64E
  8
LAYER_1
 10
3.725806473011072
 20
1.684292424417192
 30
0.0
  0
VERTEX
  5
64F
  8
LAYER_1
 10
3.723938325290358
 20
1.687984684948063
 30
0.0
  0
VERTEX
  5
650
  8
LAYER_1
 10
3.722603934061275
 20
1.691909129552795
 30
0.0
  0
VERTEX
  5
651
  8
LAYER_1
 10
3.721803299323825
 20
1.696065758231387
 30
0.0
  0
VERTEX
  5
652
  8
LAYER_1
 10
3.721536421078008
 20
1.700454570983839
 30
0.0
  0
VERTEX
  5
653
  8
LAYER_1
 10
3.721805968106283
 20
1.704840714953834
 30
0.0
  0
VERTEX
  5
654
  8
LAYER_1
 10
3.722614609191107
 20
1.708989337285051
 30
0.0
  0
VERTEX
  5
655
  8
LAYER_1
 10
3.723962344332481
 20
1.712900437977492
 30
0.0
  0
VERTEX
  5
656
  8
LAYER_1
 10
3.725849173530403
 20
1.716574017031156
 30
0.0
  0
VERTEX
  5
657
  8
LAYER_1
 10
3.728228393091857
 20
1.71992867658107
 30
0.0
  0
VERTEX
  5
658
  8
LAYER_1
 10
3.731053299323825
 20
1.722883018762258
 30
0.0
  0
VERTEX
  5
659
  8
LAYER_1
 10
3.734323892226306
 20
1.725437043574722
 30
0.0
  0
VERTEX
  5
65A
  8
LAYER_1
 10
3.738040171799301
 20
1.727590751018461
 30
0.0
  0
VERTEX
  5
65B
  8
LAYER_1
 10
3.742204806825268
 20
1.729300106182916
 30
0.0
  0
VERTEX
  5
65C
  8
LAYER_1
 10
3.746820466086664
 20
1.730521074157527
 30
0.0
  0
VERTEX
  5
65D
  8
LAYER_1
 10
3.75188714958349
 20
1.731253654942293
 30
0.0
  0
VERTEX
  5
65E
  8
LAYER_1
 10
3.757404857315747
 20
1.731497848537215
 30
0.0
  0
VERTEX
  5
65F
  8
LAYER_1
 10
3.763938036773335
 20
1.731006792564913
 30
0.0
  0
VERTEX
  5
660
  8
LAYER_1
 10
3.771496028694858
 20
1.729533624648006
 30
0.0
  0
VERTEX
  5
661
  8
LAYER_1
 10
3.778029208152446
 20
1.728124507510094
 30
0.0
  0
VERTEX
  5
662
  8
LAYER_1
 10
3.777169860200917
 20
1.725605176869587
 30
0.0
  0
VERTEX
  5
663
  8
LAYER_1
 10
3.776513339716209
 20
1.722616140516442
 30
0.0
  0
VERTEX
  5
664
  8
LAYER_1
 10
3.775808781147253
 20
1.715228950672241
 30
0.0
  0
SEQEND
  5
C1F
  8
LAYER_1
  0
POLYLINE
  5
80
  8
LAYER_1
 66
     1
 10
0.0
 20
0.0
 30
0.0
 70
     1
  0
VERTEX
  5
665
  8
LAYER_1
 10
3.149259775385079
 20
1.867985839074803
 30
0.0
  0
VERTEX
  5
666
  8
LAYER_1
 10
3.147220169757698
 20
1.868804510774232
 30
0.0
  0
VERTEX
  5
667
  8
LAYER_1
 10
3.145723448782017
 20
1.870374882318431
 30
0.0
  0
VERTEX
  5
668
  8
LAYER_1
 10
3.144747325572951
 20
1.872636729976644
 30
0.0
  0
VERTEX
  5
669
  8
LAYER_1
 10
3.144269513245419
 20
1.875529830018117
 30
0.0
  0
VERTEX
  5
66A
  8
LAYER_1
 10
3.144267724914338
 20
1.878993958712094
 30
0.0
  0
VERTEX
  5
66B
  8
LAYER_1
 10
3.144719673694624
 20
1.88296889232782
 30
0.0
  0
VERTEX
  5
66C
  8
LAYER_1
 10
3.145603072701195
 20
1.88739440713454
 30
0.0
  0
VERTEX
  5
66D
  8
LAYER_1
 10
3.146895635048969
 20
1.892210279401499
 30
0.0
  0
VERTEX
  5
66E
  8
LAYER_1
 10
3.150619102227791
 20
1.902772201393112
 30
0.0
  0
VERTEX
  5
66F
  8
LAYER_1
 10
3.15571178015043
 20
1.914172868456619
 30
0.0
  0
VERTEX
  5
670
  8
LAYER_1
 10
3.161995373736222
 20
1.925930490745977
 30
0.0
  0
VERTEX
  5
671
  8
LAYER_1
 10
3.169291587904505
 20
1.937563278415147
 30
0.0
  0
VERTEX
  5
672
  8
LAYER_1
 10
3.177422127574618
 20
1.948589441618086
 30
0.0
  0
VERTEX
  5
673
  8
LAYER_1
 10
3.181744552260153
 20
1.953724479717831
 30
0.0
  0
VERTEX
  5
674
  8
LAYER_1
 10
3.186208697665898
 20
1.958527190508754
 30
0.0
  0
VERTEX
  5
675
  8
LAYER_1
 10
3.190792276906769
 20
1.962937350260098
 30
0.0
  0
VERTEX
  5
676
  8
LAYER_1
 10
3.195473003097683
 20
1.966894735241108
 30
0.0
  0
VERTEX
  5
677
  8
LAYER_1
 10
3.200228589353558
 20
1.970339121721031
 30
0.0
  0
VERTEX
  5
678
  8
LAYER_1
 10
3.205036748789311
 20
1.973210285969109
 30
0.0
  0
VERTEX
  5
679
  8
LAYER_1
 10
3.209875194519859
 20
1.975448004254589
 30
0.0
  0
VERTEX
  5
67A
  8
LAYER_1
 10
3.214721639660119
 20
1.976992052846715
 30
0.0
  0
VERTEX
  5
67B
  8
LAYER_1
 10
3.21955379732501
 20
1.977782208014732
 30
0.0
  0
VERTEX
  5
67C
  8
LAYER_1
 10
3.224349380629446
 20
1.977758246027884
 30
0.0
  0
VERTEX
  5
67D
  8
LAYER_1
 10
3.229086102688347
 20
1.976859943155417
 30
0.0
  0
VERTEX
  5
67E
  8
LAYER_1
 10
3.23374167661663
 20
1.975027075666575
 30
0.0
  0
VERTEX
  5
67F
  8
LAYER_1
 10
3.238293815529211
 20
1.972199419830604
 30
0.0
  0
VERTEX
  5
680
  8
LAYER_1
 10
3.242720232541008
 20
1.968316751916748
 30
0.0
  0
VERTEX
  5
681
  8
LAYER_1
 10
3.245585194324426
 20
1.965241053313298
 30
0.0
  0
VERTEX
  5
682
  8
LAYER_1
 10
3.246592484720768
 20
1.963497412946265
 30
0.0
  0
VERTEX
  5
683
  8
LAYER_1
 10
3.246871986579329
 20
1.961609155900425
 30
0.0
  0
VERTEX
  5
684
  8
LAYER_1
 10
3.159160313233501
 20
1.867985839074803
 30
0.0
  0
VERTEX
  5
685
  8
LAYER_1
 10
3.156792482917226
 20
1.867348906864523
 30
0.0
  0
VERTEX
  5
686
  8
LAYER_1
 10
3.154292043318274
 20
1.867271679952677
 30
0.0
  0
SEQEND
  5
C20
  8
LAYER_1
  0
POLYLINE
  5
81
  8
LAYER_1
 66
     1
 10
0.0
 20
0.0
 30
0.0
 70
     1
  0
VERTEX
  5
687
  8
LAYER_1
 10
3.640241620282368
 20
1.947639277034298
 30
0.0
  0
VERTEX
  5
688
  8
LAYER_1
 10
3.637241762457787
 20
1.947752903150558
 30
0.0
  0
VERTEX
  5
689
  8
LAYER_1
 10
3.636265923776798
 20
1.9481467214248
 30
0.0
  0
VERTEX
  5
68A
  8
LAYER_1
 10
3.635612758449044
 20
1.948742805160625
 30
0.0
  0
VERTEX
  5
68B
  8
LAYER_1
 10
3.635262226373803
 20
1.949524350846164
 30
0.0
  0
VERTEX
  5
68C
  8
LAYER_1
 10
3.635194287450352
 20
1.950474554969549
 30
0.0
  0
VERTEX
  5
68D
  8
LAYER_1
 10
3.635826028655924
 20
1.952813724482377
 30
0.0
  0
VERTEX
  5
68E
  8
LAYER_1
 10
3.637347661259971
 20
1.955625885604158
 30
0.0
  0
VERTEX
  5
68F
  8
LAYER_1
 10
3.639598864456708
 20
1.95877661023994
 30
0.0
  0
VERTEX
  5
690
  8
LAYER_1
 10
3.645648699405101
 20
1.965556037673699
 30
0.0
  0
VERTEX
  5
691
  8
LAYER_1
 10
3.652692967054803
 20
1.97207658202404
 30
0.0
  0
VERTEX
  5
692
  8
LAYER_1
 10
3.659449100959517
 20
1.977262818531349
 30
0.0
  0
VERTEX
  5
693
  8
LAYER_1
 10
3.662318315743035
 20
1.979019501106487
 30
0.0
  0
VERTEX
  5
694
  8
LAYER_1
 10
3.664634534672945
 20
1.980039322436011
 30
0.0
  0
VERTEX
  5
695
  8
LAYER_1
 10
3.666237436943459
 20
1.98018785442497
 30
0.0
  0
VERTEX
  5
696
  8
LAYER_1
 10
3.666721294079633
 20
1.979893378137065
 30
0.0
  0
VERTEX
  5
697
  8
LAYER_1
 10
3.666966701748789
 20
1.979330668978412
 30
0.0
  0
VERTEX
  5
698
  8
LAYER_1
 10
3.667199580491006
 20
1.97674471196596
 30
0.0
  0
VERTEX
  5
699
  8
LAYER_1
 10
3.667047804080022
 20
1.97411340610097
 30
0.0
  0
VERTEX
  5
69A
  8
LAYER_1
 10
3.666539421581984
 20
1.97146376170944
 30
0.0
  0
VERTEX
  5
69B
  8
LAYER_1
 10
3.665702482063039
 20
1.96882278911737
 30
0.0
  0
VERTEX
  5
69C
  8
LAYER_1
 10
3.663155128227014
 20
1.963674900635609
 30
0.0
  0
VERTEX
  5
69D
  8
LAYER_1
 10
3.659630135101121
 20
1.958885823263685
 30
0.0
  0
VERTEX
  5
69E
  8
LAYER_1
 10
3.655351895214536
 20
1.954671639609595
 30
0.0
  0
VERTEX
  5
69F
  8
LAYER_1
 10
3.650544801096433
 20
1.951248432281335
 30
0.0
  0
VERTEX
  5
6A0
  8
LAYER_1
 10
3.645433245275985
 20
1.948832283886904
 30
0.0
  0
VERTEX
  5
6A1
  8
LAYER_1
 10
3.642833416892749
 20
1.948069382604873
 30
0.0
  0
SEQEND
  5
C21
  8
LAYER_1
  0
POLYLINE
  5
82
  8
LAYER_1
 66
     1
 10
0.0
 20
0.0
 30
0.0
 70
     1
  0
VERTEX
  5
6A2
  8
LAYER_1
 10
2.406420038256352
 20
1.985189277253947
 30
0.0
  0
VERTEX
  5
6A3
  8
LAYER_1
 10
2.384241239504367
 20
1.986163095176906
 30
0.0
  0
VERTEX
  5
6A4
  8
LAYER_1
 10
2.362452341245894
 20
1.987890299895802
 30
0.0
  0
VERTEX
  5
6A5
  8
LAYER_1
 10
2.341928409465324
 20
1.990432667149781
 30
0.0
  0
VERTEX
  5
6A6
  8
LAYER_1
 10
2.332414264124376
 20
1.99202884164591
 30
0.0
  0
VERTEX
  5
6A7
  8
LAYER_1
 10
2.32354451014705
 20
1.993851972677992
 30
0.0
  0
VERTEX
  5
6A8
  8
LAYER_1
 10
2.315428530781396
 20
1.995909782213418
 30
0.0
  0
VERTEX
  5
6A9
  8
LAYER_1
 10
2.308175709275464
 20
1.998209992219583
 30
0.0
  0
VERTEX
  5
6AA
  8
LAYER_1
 10
2.301895428877301
 20
2.00076032466388
 30
0.0
  0
VERTEX
  5
6AB
  8
LAYER_1
 10
2.296697072834958
 20
2.003568501513703
 30
0.0
  0
VERTEX
  5
6AC
  8
LAYER_1
 10
2.292690024396482
 20
2.006642244736444
 30
0.0
  0
VERTEX
  5
6AD
  8
LAYER_1
 10
2.291167422793709
 20
2.00828111685247
 30
0.0
  0
VERTEX
  5
6AE
  8
LAYER_1
 10
2.289983666809922
 20
2.009989276299498
 30
0.0
  0
VERTEX
  5
6AF
  8
LAYER_1
 10
2.289152429351127
 20
2.011767688323453
 30
0.0
  0
VERTEX
  5
6B0
  8
LAYER_1
 10
2.288687383323329
 20
2.013617318170259
 30
0.0
  0
VERTEX
  5
6B1
  8
LAYER_1
 10
2.288602201632536
 20
2.015539131085839
 30
0.0
  0
VERTEX
  5
6B2
  8
LAYER_1
 10
2.288910557184751
 20
2.017534092316119
 30
0.0
  0
VERTEX
  5
6B3
  8
LAYER_1
 10
2.377760865018746
 20
2.18349205174078
 30
0.0
  0
VERTEX
  5
6B4
  8
LAYER_1
 10
2.381807903401319
 20
2.185727110260437
 30
0.0
  0
VERTEX
  5
6B5
  8
LAYER_1
 10
2.39079838081451
 20
2.18918629725286
 30
0.0
  0
VERTEX
  5
6B6
  8
LAYER_1
 10
2.397100483906231
 20
2.191110154568875
 30
0.0
  0
VERTEX
  5
6B7
  8
LAYER_1
 10
2.40458213645398
 20
2.1930223027741
 30
0.0
  0
VERTEX
  5
6B8
  8
LAYER_1
 10
2.413224568357213
 20
2.194816828125543
 30
0.0
  0
VERTEX
  5
6B9
  8
LAYER_1
 10
2.423009009515389
 20
2.196387816880208
 30
0.0
  0
VERTEX
  5
6BA
  8
LAYER_1
 10
2.433916689827964
 20
2.197629355295104
 30
0.0
  0
VERTEX
  5
6BB
  8
LAYER_1
 10
2.445928839194398
 20
2.198435529627236
 30
0.0
  0
VERTEX
  5
6BC
  8
LAYER_1
 10
2.459026687514146
 20
2.19870042613361
 30
0.0
  0
VERTEX
  5
6BD
  8
LAYER_1
 10
2.473191464686667
 20
2.198318131071233
 30
0.0
  0
VERTEX
  5
6BE
  8
LAYER_1
 10
2.488404400611418
 20
2.19718273069711
 30
0.0
  0
VERTEX
  5
6BF
  8
LAYER_1
 10
2.504646725187856
 20
2.195188311268249
 30
0.0
  0
VERTEX
  5
6C0
  8
LAYER_1
 10
2.521899668315439
 20
2.192228959041657
 30
0.0
  0
VERTEX
  5
6C1
  8
LAYER_1
 10
2.540144459893625
 20
2.188198760274338
 30
0.0
  0
VERTEX
  5
6C2
  8
LAYER_1
 10
2.549678906491598
 20
2.18533978258104
 30
0.0
  0
VERTEX
  5
6C3
  8
LAYER_1
 10
2.555607926753237
 20
2.183153729685267
 30
0.0
  0
VERTEX
  5
6C4
  8
LAYER_1
 10
2.562073403018441
 20
2.180447851903926
 30
0.0
  0
VERTEX
  5
6C5
  8
LAYER_1
 10
2.568896778808557
 20
2.1772105625974
 30
0.0
  0
VERTEX
  5
6C6
  8
LAYER_1
 10
2.575899497644934
 20
2.173430275126078
 30
0.0
  0
VERTEX
  5
6C7
  8
LAYER_1
 10
2.582903003048919
 20
2.169095402850343
 30
0.0
  0
VERTEX
  5
6C8
  8
LAYER_1
 10
2.589728738541861
 20
2.164194359130581
 30
0.0
  0
VERTEX
  5
6C9
  8
LAYER_1
 10
2.596198147645105
 20
2.158715557327176
 30
0.0
  0
VERTEX
  5
6CA
  8
LAYER_1
 10
2.602132673880001
 20
2.152647410800516
 30
0.0
  0
VERTEX
  5
6CB
  8
LAYER_1
 10
2.607353760767896
 20
2.145978332910986
 30
0.0
  0
VERTEX
  5
6CC
  8
LAYER_1
 10
2.611682851830136
 20
2.13869673701897
 30
0.0
  0
VERTEX
  5
6CD
  8
LAYER_1
 10
2.613457100027058
 20
2.134822623997151
 30
0.0
  0
VERTEX
  5
6CE
  8
LAYER_1
 10
2.614941390588071
 20
2.130791036484854
 30
0.0
  0
VERTEX
  5
6CF
  8
LAYER_1
 10
2.616113403953345
 20
2.126600526152129
 30
0.0
  0
VERTEX
  5
6D0
  8
LAYER_1
 10
2.616950820563048
 20
2.122249644669024
 30
0.0
  0
VERTEX
  5
6D1
  8
LAYER_1
 10
2.617431320857348
 20
2.117736943705586
 30
0.0
  0
VERTEX
  5
6D2
  8
LAYER_1
 10
2.617532585276414
 20
2.113060974931865
 30
0.0
  0
VERTEX
  5
6D3
  8
LAYER_1
 10
2.617232294260415
 20
2.108220290017907
 30
0.0
  0
VERTEX
  5
6D4
  8
LAYER_1
 10
2.616508128249517
 20
2.103213440633762
 30
0.0
  0
VERTEX
  5
6D5
  8
LAYER_1
 10
2.614845354042728
 20
2.09591982402804
 30
0.0
  0
VERTEX
  5
6D6
  8
LAYER_1
 10
2.612618397922693
 20
2.088848096062105
 30
0.0
  0
VERTEX
  5
6D7
  8
LAYER_1
 10
2.609852049186507
 20
2.081999328268751
 30
0.0
  0
VERTEX
  5
6D8
  8
LAYER_1
 10
2.606571097131268
 20
2.075374592180775
 30
0.0
  0
VERTEX
  5
6D9
  8
LAYER_1
 10
2.602800331054069
 20
2.068974959330974
 30
0.0
  0
VERTEX
  5
6DA
  8
LAYER_1
 10
2.598564540252006
 20
2.062801501252143
 30
0.0
  0
VERTEX
  5
6DB
  8
LAYER_1
 10
2.593888514022176
 20
2.05685528947708
 30
0.0
  0
VERTEX
  5
6DC
  8
LAYER_1
 10
2.588797041661673
 20
2.051137395538579
 30
0.0
  0
VERTEX
  5
6DD
  8
LAYER_1
 10
2.583314912467594
 20
2.045648890969439
 30
0.0
  0
VERTEX
  5
6DE
  8
LAYER_1
 10
2.577466915737032
 20
2.040390847302454
 30
0.0
  0
VERTEX
  5
6DF
  8
LAYER_1
 10
2.571277840767085
 20
2.035364336070422
 30
0.0
  0
VERTEX
  5
6E0
  8
LAYER_1
 10
2.564772476854848
 20
2.030570428806137
 30
0.0
  0
VERTEX
  5
6E1
  8
LAYER_1
 10
2.557975613297416
 20
2.026010197042398
 30
0.0
  0
VERTEX
  5
6E2
  8
LAYER_1
 10
2.550912039391886
 20
2.021684712312
 30
0.0
  0
VERTEX
  5
6E3
  8
LAYER_1
 10
2.543606544435352
 20
2.017595046147739
 30
0.0
  0
VERTEX
  5
6E4
  8
LAYER_1
 10
2.53608391772491
 20
2.013742270082413
 30
0.0
  0
VERTEX
  5
6E5
  8
LAYER_1
 10
2.520486426230685
 20
2.006751674379745
 30
0.0
  0
VERTEX
  5
6E6
  8
LAYER_1
 10
2.504317879285975
 20
2.000721497466368
 30
0.0
  0
VERTEX
  5
6E7
  8
LAYER_1
 10
2.487776591267545
 20
1.995660311604652
 30
0.0
  0
VERTEX
  5
6E8
  8
LAYER_1
 10
2.471060876552159
 20
1.991576689056967
 30
0.0
  0
VERTEX
  5
6E9
  8
LAYER_1
 10
2.454369049516583
 20
1.988479202085683
 30
0.0
  0
VERTEX
  5
6EA
  8
LAYER_1
 10
2.437899424537579
 20
1.986376422953172
 30
0.0
  0
VERTEX
  5
6EB
  8
LAYER_1
 10
2.421850315991914
 20
1.985276923921803
 30
0.0
  0
SEQEND
  5
C22
  8
LAYER_1
  0
POLYLINE
  5
83
  8
LAYER_1
 66
     1
 10
0.0
 20
0.0
 30
0.0
 70
     1
  0
VERTEX
  5
6EC
  8
LAYER_1
 10
2.637741901223585
 20
1.830818815962374
 30
0.0
  0
VERTEX
  5
6ED
  8
LAYER_1
 10
2.643252701455751
 20
1.831738458398742
 30
0.0
  0
VERTEX
  5
6EE
  8
LAYER_1
 10
2.648604687717958
 20
1.833147397169818
 30
0.0
  0
VERTEX
  5
6EF
  8
LAYER_1
 10
2.653810598070308
 20
1.835000331846284
 30
0.0
  0
VERTEX
  5
6F0
  8
LAYER_1
 10
2.658883170572902
 20
1.837251961998822
 30
0.0
  0
VERTEX
  5
6F1
  8
LAYER_1
 10
2.663835143285844
 20
1.839856987198115
 30
0.0
  0
VERTEX
  5
6F2
  8
LAYER_1
 10
2.668679254269237
 20
1.842770107014844
 30
0.0
  0
VERTEX
  5
6F3
  8
LAYER_1
 10
2.678094843287784
 20
1.84933942878334
 30
0.0
  0
VERTEX
  5
6F4
  8
LAYER_1
 10
2.696192155214803
 20
1.864181988839583
 30
0.0
  0
VERTEX
  5
6F5
  8
LAYER_1
 10
2.705077687084915
 20
1.871730420258243
 30
0.0
  0
VERTEX
  5
6F6
  8
LAYER_1
 10
2.713990342200526
 20
1.878880414691205
 30
0.0
  0
VERTEX
  5
6F7
  8
LAYER_1
 10
2.726407843534314
 20
1.88930901506778
 30
0.0
  0
VERTEX
  5
6F8
  8
LAYER_1
 10
2.740857127094279
 20
1.90158049453759
 30
0.0
  0
VERTEX
  5
6F9
  8
LAYER_1
 10
2.747164206688632
 20
1.906361938444484
 30
0.0
  0
VERTEX
  5
6FA
  8
LAYER_1
 10
2.749794446848323
 20
1.908056145730534
 30
0.0
  0
VERTEX
  5
6FB
  8
LAYER_1
 10
2.751963855214993
 20
1.90914965153912
 30
0.0
  0
VERTEX
  5
6FC
  8
LAYER_1
 10
2.753588457762622
 20
1.909540187095843
 30
0.0
  0
VERTEX
  5
6FD
  8
LAYER_1
 10
2.754584280465185
 20
1.909125483626306
 30
0.0
  0
VERTEX
  5
6FE
  8
LAYER_1
 10
2.754867349296662
 20
1.907803272356109
 30
0.0
  0
VERTEX
  5
6FF
  8
LAYER_1
 10
2.754353690231028
 20
1.905471284510853
 30
0.0
  0
VERTEX
  5
700
  8
LAYER_1
 10
2.747105117600714
 20
1.882805571284471
 30
0.0
  0
VERTEX
  5
701
  8
LAYER_1
 10
2.743239302093393
 20
1.86936044400394
 30
0.0
  0
VERTEX
  5
702
  8
LAYER_1
 10
2.740067930854831
 20
1.856249553544887
 30
0.0
  0
VERTEX
  5
703
  8
LAYER_1
 10
2.738943161148101
 20
1.850227826170222
 30
0.0
  0
VERTEX
  5
704
  8
LAYER_1
 10
2.738232601682681
 20
1.844779712857094
 30
0.0
  0
VERTEX
  5
705
  8
LAYER_1
 10
2.738016452183277
 20
1.840068565224225
 30
0.0
  0
VERTEX
  5
706
  8
LAYER_1
 10
2.738374912374595
 20
1.836257734890339
 30
0.0
  0
VERTEX
  5
707
  8
LAYER_1
 10
2.739388181981341
 20
1.833510573474156
 30
0.0
  0
VERTEX
  5
708
  8
LAYER_1
 10
2.740165432729472
 20
1.832586915991055
 30
0.0
  0
VERTEX
  5
709
  8
LAYER_1
 10
2.741136460728224
 20
1.831990432594401
 30
0.0
  0
VERTEX
  5
70A
  8
LAYER_1
 10
2.742311290943186
 20
1.831741542236534
 30
0.0
  0
VERTEX
  5
70B
  8
LAYER_1
 10
2.743699948339948
 20
1.831860663869795
 30
0.0
  0
VERTEX
  5
70C
  8
LAYER_1
 10
2.74715884454122
 20
1.833284618919061
 30
0.0
  0
VERTEX
  5
70D
  8
LAYER_1
 10
2.751271178079263
 20
1.836094485755842
 30
0.0
  0
VERTEX
  5
70E
  8
LAYER_1
 10
2.755341050262569
 20
1.839713452682969
 30
0.0
  0
VERTEX
  5
70F
  8
LAYER_1
 10
2.759428943391383
 20
1.844070470938722
 30
0.0
  0
VERTEX
  5
710
  8
LAYER_1
 10
2.763595339765952
 20
1.849094491761377
 30
0.0
  0
VERTEX
  5
711
  8
LAYER_1
 10
2.772405571453337
 20
1.86085934606051
 30
0.0
  0
VERTEX
  5
712
  8
LAYER_1
 10
2.782255603726694
 20
1.874439625486596
 30
0.0
  0
VERTEX
  5
713
  8
LAYER_1
 10
2.793629294987992
 20
1.889266939945864
 30
0.0
  0
VERTEX
  5
714
  8
LAYER_1
 10
2.800038718489734
 20
1.896970613408636
 30
0.0
  0
VERTEX
  5
715
  8
LAYER_1
 10
2.8070105036392
 20
1.90477289934454
 30
0.0
  0
VERTEX
  5
716
  8
LAYER_1
 10
2.814605132736635
 20
1.912602748991852
 30
0.0
  0
VERTEX
  5
717
  8
LAYER_1
 10
2.822883088082287
 20
1.920389113588851
 30
0.0
  0
VERTEX
  5
718
  8
LAYER_1
 10
2.831904851976401
 20
1.928060944373817
 30
0.0
  0
VERTEX
  5
719
  8
LAYER_1
 10
2.841730906719223
 20
1.935547192585026
 30
0.0
  0
VERTEX
  5
71A
  8
LAYER_1
 10
2.844740574043582
 20
1.938117329705503
 30
0.0
  0
VERTEX
  5
71B
  8
LAYER_1
 10
2.847896916299384
 20
1.94088255626361
 30
0.0
  0
VERTEX
  5
71C
  8
LAYER_1
 10
2.84950283188241
 20
1.941980263388104
 30
0.0
  0
VERTEX
  5
71D
  8
LAYER_1
 10
2.851112705825297
 20
1.942697065239599
 30
0.0
  0
VERTEX
  5
71E
  8
LAYER_1
 10
2.852715634670379
 20
1.942889735940628
 30
0.0
  0
VERTEX
  5
71F
  8
LAYER_1
 10
2.854300714959991
 20
1.94241504961372
 30
0.0
  0
VERTEX
  5
720
  8
LAYER_1
 10
2.856479019311416
 20
1.940628004772737
 30
0.0
  0
VERTEX
  5
721
  8
LAYER_1
 10
2.857744076111352
 20
1.938196851986371
 30
0.0
  0
VERTEX
  5
722
  8
LAYER_1
 10
2.858202518142901
 20
1.935155015480563
 30
0.0
  0
VERTEX
  5
723
  8
LAYER_1
 10
2.857960978189165
 20
1.931535919481252
 30
0.0
  0
VERTEX
  5
724
  8
LAYER_1
 10
2.857126089033244
 20
1.927372988214378
 30
0.0
  0
VERTEX
  5
725
  8
LAYER_1
 10
2.855804483458241
 20
1.92269964590588
 30
0.0
  0
VERTEX
  5
726
  8
LAYER_1
 10
2.852127654183396
 20
1.911955425067773
 30
0.0
  0
VERTEX
  5
727
  8
LAYER_1
 10
2.847783552629442
 20
1.899570650774451
 30
0.0
  0
VERTEX
  5
728
  8
LAYER_1
 10
2.843625241061195
 20
1.88581271683343
 30
0.0
  0
VERTEX
  5
729
  8
LAYER_1
 10
2.841882338479466
 20
1.878502375559882
 30
0.0
  0
VERTEX
  5
72A
  8
LAYER_1
 10
2.840505781743468
 20
1.870949017052229
 30
0.0
  0
VERTEX
  5
72B
  8
LAYER_1
 10
2.839602203636304
 20
1.86318606553641
 30
0.0
  0
VERTEX
  5
72C
  8
LAYER_1
 10
2.839278236941075
 20
1.855246945238366
 30
0.0
  0
VERTEX
  5
72D
  8
LAYER_1
 10
2.839165248736178
 20
1.851857862321296
 30
0.0
  0
VERTEX
  5
72E
  8
LAYER_1
 10
2.83918791478437
 20
1.848320451189056
 30
0.0
  0
VERTEX
  5
72F
  8
LAYER_1
 10
2.839890303582284
 20
1.845177063474675
 30
0.0
  0
VERTEX
  5
730
  8
LAYER_1
 10
2.840666415417584
 20
1.843922613284503
 30
0.0
  0
VERTEX
  5
731
  8
LAYER_1
 10
2.84181648362655
 20
1.842970050811181
 30
0.0
  0
VERTEX
  5
732
  8
LAYER_1
 10
2.842816754499794
 20
1.842796745902908
 30
0.0
  0
VERTEX
  5
733
  8
LAYER_1
 10
2.844634947951512
 20
1.842961994517578
 30
0.0
  0
VERTEX
  5
734
  8
LAYER_1
 10
2.850539902429585
 20
1.844459898246518
 30
0.0
  0
VERTEX
  5
735
  8
LAYER_1
 10
2.859160946739208
 20
1.847767253859539
 30
0.0
  0
VERTEX
  5
736
  8
LAYER_1
 10
2.870127680558819
 20
1.853187553218183
 30
0.0
  0
VERTEX
  5
737
  8
LAYER_1
 10
2.876374930934382
 20
1.856784898008844
 30
0.0
  0
VERTEX
  5
738
  8
LAYER_1
 10
2.883069703566856
 20
1.861024288183989
 30
0.0
  0
VERTEX
  5
739
  8
LAYER_1
 10
2.890165698416047
 20
1.865943660226309
 30
0.0
  0
VERTEX
  5
73A
  8
LAYER_1
 10
2.897616615441759
 20
1.871580950618498
 30
0.0
  0
VERTEX
  5
73B
  8
LAYER_1
 10
2.905376154603797
 20
1.877974095843248
 30
0.0
  0
VERTEX
  5
73C
  8
LAYER_1
 10
2.913398015861965
 20
1.885161032383251
 30
0.0
  0
VERTEX
  5
73D
  8
LAYER_1
 10
2.921635899176068
 20
1.8931796967212
 30
0.0
  0
VERTEX
  5
73E
  8
LAYER_1
 10
2.930043504505912
 20
1.902068025339787
 30
0.0
  0
VERTEX
  5
73F
  8
LAYER_1
 10
2.932100827436389
 20
1.90526678634209
 30
0.0
  0
VERTEX
  5
740
  8
LAYER_1
 10
2.935485021209875
 20
1.911674365000175
 30
0.0
  0
VERTEX
  5
741
  8
LAYER_1
 10
2.936634506862162
 20
1.914880343822592
 30
0.0
  0
VERTEX
  5
742
  8
LAYER_1
 10
2.936867484864499
 20
1.917447186505902
 30
0.0
  0
VERTEX
  5
743
  8
LAYER_1
 10
2.936510260021863
 20
1.918340792154448
 30
0.0
  0
VERTEX
  5
744
  8
LAYER_1
 10
2.935767880096653
 20
1.918894446199086
 30
0.0
  0
VERTEX
  5
745
  8
LAYER_1
 10
2.934588335698838
 20
1.919048092783439
 30
0.0
  0
VERTEX
  5
746
  8
LAYER_1
 10
2.932919617438389
 20
1.918741676051128
 30
0.0
  0
VERTEX
  5
747
  8
LAYER_1
 10
2.927659711738674
 20
1.916992951030013
 30
0.0
  0
VERTEX
  5
748
  8
LAYER_1
 10
2.92264043781107
 20
1.914898859319438
 30
0.0
  0
VERTEX
  5
749
  8
LAYER_1
 10
2.913321679121072
 20
1.909977635038796
 30
0.0
  0
VERTEX
  5
74A
  8
LAYER_1
 10
2.904959129066162
 20
1.904584121626987
 30
0.0
  0
VERTEX
  5
74B
  8
LAYER_1
 10
2.897548575344103
 20
1.899324437501791
 30
0.0
  0
VERTEX
  5
74C
  8
LAYER_1
 10
2.891085805652661
 20
1.894804701080993
 30
0.0
  0
VERTEX
  5
74D
  8
LAYER_1
 10
2.885566607689601
 20
1.891631030782373
 30
0.0
  0
VERTEX
  5
74E
  8
LAYER_1
 10
2.883159531761765
 20
1.890738382434437
 30
0.0
  0
VERTEX
  5
74F
  8
LAYER_1
 10
2.880986769152687
 20
1.890409545023715
 30
0.0
  0
VERTEX
  5
750
  8
LAYER_1
 10
2.879047793324587
 20
1.890720283352429
 30
0.0
  0
VERTEX
  5
751
  8
LAYER_1
 10
2.877342077739685
 20
1.891746362222801
 30
0.0
  0
VERTEX
  5
752
  8
LAYER_1
 10
2.875455134313436
 20
1.893836198128658
 30
0.0
  0
VERTEX
  5
753
  8
LAYER_1
 10
2.874207096817551
 20
1.896140586176467
 30
0.0
  0
VERTEX
  5
754
  8
LAYER_1
 10
2.873534371682515
 20
1.898636656105016
 30
0.0
  0
VERTEX
  5
755
  8
LAYER_1
 10
2.873373365338814
 20
1.901301537653097
 30
0.0
  0
VERTEX
  5
756
  8
LAYER_1
 10
2.873660484216933
 20
1.904112360559498
 30
0.0
  0
VERTEX
  5
757
  8
LAYER_1
 10
2.874332134747357
 20
1.907046254563009
 30
0.0
  0
VERTEX
  5
758
  8
LAYER_1
 10
2.87657465648706
 20
1.913191774816522
 30
0.0
  0
VERTEX
  5
759
  8
LAYER_1
 10
2.882875962735468
 20
1.925953376995619
 30
0.0
  0
VERTEX
  5
75A
  8
LAYER_1
 10
2.885917250131936
 20
1.932203534741838
 30
0.0
  0
VERTEX
  5
75B
  8
LAYER_1
 10
2.888207295635087
 20
1.938122647472929
 30
0.0
  0
VERTEX
  5
75C
  8
LAYER_1
 10
2.892446052230737
 20
1.949303936629369
 30
0.0
  0
VERTEX
  5
75D
  8
LAYER_1
 10
2.895862268215438
 20
1.959768087330306
 30
0.0
  0
VERTEX
  5
75E
  8
LAYER_1
 10
2.898743195820946
 20
1.971250529676956
 30
0.0
  0
VERTEX
  5
75F
  8
LAYER_1
 10
2.899654837379052
 20
1.976850786990213
 30
0.0
  0
VERTEX
  5
760
  8
LAYER_1
 10
2.900038949919423
 20
1.982078229342246
 30
0.0
  0
VERTEX
  5
761
  8
LAYER_1
 10
2.899764297801076
 20
1.98672372744217
 30
0.0
  0
VERTEX
  5
762
  8
LAYER_1
 10
2.898699645383034
 20
1.990578151999101
 30
0.0
  0
VERTEX
  5
763
  8
LAYER_1
 10
2.897830057923821
 20
1.992143358795544
 30
0.0
  0
VERTEX
  5
764
  8
LAYER_1
 10
2.896713757024317
 20
1.993432373722156
 30
0.0
  0
VERTEX
  5
765
  8
LAYER_1
 10
2.8953343382294
 20
1.994419055617578
 30
0.0
  0
VERTEX
  5
766
  8
LAYER_1
 10
2.893675397083946
 20
1.99507726332045
 30
0.0
  0
VERTEX
  5
767
  8
LAYER_1
 10
2.891720529132834
 20
1.99538085566941
 30
0.0
  0
VERTEX
  5
768
  8
LAYER_1
 10
2.88945332992094
 20
1.995303691503098
 30
0.0
  0
VERTEX
  5
769
  8
LAYER_1
 10
2.886857394993144
 20
1.994819629660154
 30
0.0
  0
VERTEX
  5
76A
  8
LAYER_1
 10
2.883916319894322
 20
1.993902528979217
 30
0.0
  0
VERTEX
  5
76B
  8
LAYER_1
 10
2.877445312080292
 20
1.991268566328489
 30
0.0
  0
VERTEX
  5
76C
  8
LAYER_1
 10
2.871198894843636
 20
1.988219301514593
 30
0.0
  0
VERTEX
  5
76D
  8
LAYER_1
 10
2.86515753749347
 20
1.984793374491944
 30
0.0
  0
VERTEX
  5
76E
  8
LAYER_1
 10
2.859301709338909
 20
1.981029425214957
 30
0.0
  0
VERTEX
  5
76F
  8
LAYER_1
 10
2.848068517853063
 20
1.972642019715623
 30
0.0
  0
VERTEX
  5
770
  8
LAYER_1
 10
2.83734307485902
 20
1.963366204651911
 30
0.0
  0
VERTEX
  5
771
  8
LAYER_1
 10
2.81679045223803
 20
1.943385824372615
 30
0.0
  0
VERTEX
  5
772
  8
LAYER_1
 10
2.806650781556926
 20
1.933299498427666
 30
0.0
  0
VERTEX
  5
773
  8
LAYER_1
 10
2.796393877259313
 20
1.923561241459605
 30
0.0
  0
VERTEX
  5
774
  8
LAYER_1
 10
2.797400713281954
 20
1.927154640177064
 30
0.0
  0
VERTEX
  5
775
  8
LAYER_1
 10
2.800812657589411
 20
1.937358123537121
 30
0.0
  0
VERTEX
  5
776
  8
LAYER_1
 10
2.805320005582589
 20
1.951575602262683
 30
0.0
  0
VERTEX
  5
777
  8
LAYER_1
 10
2.80961305266239
 20
1.967210987076658
 30
0.0
  0
VERTEX
  5
778
  8
LAYER_1
 10
2.811269930672555
 20
1.974749116367709
 30
0.0
  0
VERTEX
  5
779
  8
LAYER_1
 10
2.812382094229716
 20
1.981668188701954
 30
0.0
  0
VERTEX
  5
77A
  8
LAYER_1
 10
2.812785830258983
 20
1.987643692919756
 30
0.0
  0
VERTEX
  5
77B
  8
LAYER_1
 10
2.812317425685471
 20
1.992351117861478
 30
0.0
  0
VERTEX
  5
77C
  8
LAYER_1
 10
2.81170501033677
 20
1.994127890866423
 30
0.0
  0
VERTEX
  5
77D
  8
LAYER_1
 10
2.810813167434291
 20
1.995465952367484
 30
0.0
  0
VERTEX
  5
77E
  8
LAYER_1
 10
2.809621432843674
 20
1.996324738469707
 30
0.0
  0
VERTEX
  5
77F
  8
LAYER_1
 10
2.808109342430557
 20
1.996663685278137
 30
0.0
  0
VERTEX
  5
780
  8
LAYER_1
 10
2.80625643206058
 20
1.996442228897821
 30
0.0
  0
VERTEX
  5
781
  8
LAYER_1
 10
2.804042237599381
 20
1.995619805433802
 30
0.0
  0
VERTEX
  5
782
  8
LAYER_1
 10
2.8014462949126
 20
1.994155850991127
 30
0.0
  0
VERTEX
  5
783
  8
LAYER_1
 10
2.798448139865876
 20
1.992009801674841
 30
0.0
  0
VERTEX
  5
784
  8
LAYER_1
 10
2.793894220311247
 20
1.987993984055631
 30
0.0
  0
VERTEX
  5
785
  8
LAYER_1
 10
2.789276840231499
 20
1.983099463236437
 30
0.0
  0
VERTEX
  5
786
  8
LAYER_1
 10
2.779571345926185
 20
1.971047687619528
 30
0.0
  0
VERTEX
  5
787
  8
LAYER_1
 10
2.768770951809005
 20
1.956601226066983
 30
0.0
  0
VERTEX
  5
788
  8
LAYER_1
 10
2.756314952739031
 20
1.940506829821669
 30
0.0
  0
VERTEX
  5
789
  8
LAYER_1
 10
2.749290880990207
 20
1.93207501595262
 30
0.0
  0
VERTEX
  5
78A
  8
LAYER_1
 10
2.741642643575336
 20
1.923511250126455
 30
0.0
  0
VERTEX
  5
78B
  8
LAYER_1
 10
2.733300152351803
 20
1.914908876248531
 30
0.0
  0
VERTEX
  5
78C
  8
LAYER_1
 10
2.724193319176991
 20
1.906361238224208
 30
0.0
  0
VERTEX
  5
78D
  8
LAYER_1
 10
2.714252055908285
 20
1.897961679958844
 30
0.0
  0
VERTEX
  5
78E
  8
LAYER_1
 10
2.703406274403069
 20
1.889803545357798
 30
0.0
  0
VERTEX
  5
78F
  8
LAYER_1
 10
2.691585886518727
 20
1.881980178326427
 30
0.0
  0
VERTEX
  5
790
  8
LAYER_1
 10
2.678720804112642
 20
1.874584922770091
 30
0.0
  0
VERTEX
  5
791
  8
LAYER_1
 10
2.673104899277714
 20
1.871867505724322
 30
0.0
  0
VERTEX
  5
792
  8
LAYER_1
 10
2.668341976755861
 20
1.870135232840715
 30
0.0
  0
VERTEX
  5
793
  8
LAYER_1
 10
2.664387948619531
 20
1.869329891495039
 30
0.0
  0
VERTEX
  5
794
  8
LAYER_1
 10
2.661198726941167
 20
1.869393269063063
 30
0.0
  0
VERTEX
  5
795
  8
LAYER_1
 10
2.658730223793217
 20
1.870267152920557
 30
0.0
  0
VERTEX
  5
796
  8
LAYER_1
 10
2.656938351248126
 20
1.87189333044329
 30
0.0
  0
VERTEX
  5
797
  8
LAYER_1
 10
2.655779021378339
 20
1.874213589007031
 30
0.0
  0
VERTEX
  5
798
  8
LAYER_1
 10
2.655208146256304
 20
1.87716971598755
 30
0.0
  0
VERTEX
  5
799
  8
LAYER_1
 10
2.655181637954464
 20
1.880703498760615
 30
0.0
  0
VERTEX
  5
79A
  8
LAYER_1
 10
2.655655408545266
 20
1.884756724701996
 30
0.0
  0
VERTEX
  5
79B
  8
LAYER_1
 10
2.657927434694581
 20
1.894188655592782
 30
0.0
  0
VERTEX
  5
79C
  8
LAYER_1
 10
2.661671521283814
 20
1.904999807666063
 30
0.0
  0
VERTEX
  5
79D
  8
LAYER_1
 10
2.666534964892533
 20
1.916724479927991
 30
0.0
  0
VERTEX
  5
79E
  8
LAYER_1
 10
2.672165062100303
 20
1.928896971384722
 30
0.0
  0
VERTEX
  5
79F
  8
LAYER_1
 10
2.678209109486692
 20
1.941051581042409
 30
0.0
  0
VERTEX
  5
7A0
  8
LAYER_1
 10
2.690128241113589
 20
1.963444350985266
 30
0.0
  0
VERTEX
  5
7A1
  8
LAYER_1
 10
2.699470732409758
 20
1.980177181805793
 30
0.0
  0
VERTEX
  5
7A2
  8
LAYER_1
 10
2.70341495601173
 20
1.987524465553222
 30
0.0
  0
VERTEX
  5
7A3
  8
LAYER_1
 10
2.703567408781584
 20
1.989236933903636
 30
0.0
  0
VERTEX
  5
7A4
  8
LAYER_1
 10
2.703326333074296
 20
1.99099135658281
 30
0.0
  0
VERTEX
  5
7A5
  8
LAYER_1
 10
2.701823718473471
 20
1.994508989725185
 30
0.0
  0
VERTEX
  5
7A6
  8
LAYER_1
 10
2.699227356699617
 20
1.997843214575834
 30
0.0
  0
VERTEX
  5
7A7
  8
LAYER_1
 10
2.695857492243092
 20
2.000759880730246
 30
0.0
  0
VERTEX
  5
7A8
  8
LAYER_1
 10
2.692034369594259
 20
2.003024837783909
 30
0.0
  0
VERTEX
  5
7A9
  8
LAYER_1
 10
2.688078233243478
 20
2.004403935332309
 30
0.0
  0
VERTEX
  5
7AA
  8
LAYER_1
 10
2.686150361333095
 20
2.004688114790626
 30
0.0
  0
VERTEX
  5
7AB
  8
LAYER_1
 10
2.684309327681111
 20
2.004663022970936
 30
0.0
  0
VERTEX
  5
7AC
  8
LAYER_1
 10
2.682595162848819
 20
2.004299391072673
 30
0.0
  0
VERTEX
  5
7AD
  8
LAYER_1
 10
2.681047897397516
 20
2.003567950295276
 30
0.0
  0
VERTEX
  5
7AE
  8
LAYER_1
 10
2.679222414441996
 20
2.002168876987226
 30
0.0
  0
VERTEX
  5
7AF
  8
LAYER_1
 10
2.677497203568491
 20
2.000383648073569
 30
0.0
  0
VERTEX
  5
7B0
  8
LAYER_1
 10
2.674274717061999
 20
1.995725099613216
 30
0.0
  0
VERTEX
  5
7B1
  8
LAYER_1
 10
2.671234675866995
 20
1.989733057281782
 30
0.0
  0
VERTEX
  5
7B2
  8
LAYER_1
 10
2.668231317972435
 20
1.982548273446835
 30
0.0
  0
VERTEX
  5
7B3
  8
LAYER_1
 10
2.661751604040455
 20
1.965163490736663
 30
0.0
  0
VERTEX
  5
7B4
  8
LAYER_1
 10
2.657983723980945
 20
1.95524499659657
 30
0.0
  0
VERTEX
  5
7B5
  8
LAYER_1
 10
2.653669479177694
 20
1.944696770423228
 30
0.0
  0
VERTEX
  5
7B6
  8
LAYER_1
 10
2.647088522698636
 20
1.929504805842345
 30
0.0
  0
VERTEX
  5
7B7
  8
LAYER_1
 10
2.639457662001859
 20
1.911409652180945
 30
0.0
  0
VERTEX
  5
7B8
  8
LAYER_1
 10
2.631957564801194
 20
1.891999649732612
 30
0.0
  0
VERTEX
  5
7B9
  8
LAYER_1
 10
2.628625511172475
 20
1.882297936555091
 30
0.0
  0
VERTEX
  5
7BA
  8
LAYER_1
 10
2.62576889881047
 20
1.87286313879093
 30
0.0
  0
VERTEX
  5
7BB
  8
LAYER_1
 10
2.623535311179408
 20
1.863893798976827
 30
0.0
  0
VERTEX
  5
7BC
  8
LAYER_1
 10
2.622072331743518
 20
1.855588459649481
 30
0.0
  0
VERTEX
  5
7BD
  8
LAYER_1
 10
2.621527543967028
 20
1.848145663345589
 30
0.0
  0
VERTEX
  5
7BE
  8
LAYER_1
 10
2.621645591783629
 20
1.844809763370157
 30
0.0
  0
VERTEX
  5
7BF
  8
LAYER_1
 10
2.622048531314166
 20
1.84176395260185
 30
0.0
  0
VERTEX
  5
7C0
  8
LAYER_1
 10
2.622754810491668
 20
1.839033048857755
 30
0.0
  0
VERTEX
  5
7C1
  8
LAYER_1
 10
2.623782877249162
 20
1.83664186995496
 30
0.0
  0
VERTEX
  5
7C2
  8
LAYER_1
 10
2.625151179519678
 20
1.834615233710553
 30
0.0
  0
VERTEX
  5
7C3
  8
LAYER_1
 10
2.626878165236245
 20
1.832977957941619
 30
0.0
  0
VERTEX
  5
7C4
  8
LAYER_1
 10
2.62898228233189
 20
1.831754860465248
 30
0.0
  0
VERTEX
  5
7C5
  8
LAYER_1
 10
2.631481978739643
 20
1.830970759098525
 30
0.0
  0
VERTEX
  5
7C6
  8
LAYER_1
 10
2.634395702392532
 20
1.830650471658537
 30
0.0
  0
SEQEND
  5
C23
  8
LAYER_1
  0
POLYLINE
  5
84
  8
LAYER_1
 66
     1
 10
0.0
 20
0.0
 30
0.0
 70
     1
  0
VERTEX
  5
7C7
  8
LAYER_1
 10
2.692919101956099
 20
2.027017992892772
 30
0.0
  0
VERTEX
  5
7C8
  8
LAYER_1
 10
2.695845707600068
 20
2.025676241181743
 30
0.0
  0
VERTEX
  5
7C9
  8
LAYER_1
 10
2.699253736472474
 20
2.024982916033323
 30
0.0
  0
VERTEX
  5
7CA
  8
LAYER_1
 10
2.703033805449911
 20
2.024882748503608
 30
0.0
  0
VERTEX
  5
7CB
  8
LAYER_1
 10
2.707076531408971
 20
2.025320469648697
 30
0.0
  0
VERTEX
  5
7CC
  8
LAYER_1
 10
2.71127253122625
 20
2.026240810524685
 30
0.0
  0
VERTEX
  5
7CD
  8
LAYER_1
 10
2.71551242177834
 20
2.02758850218767
 30
0.0
  0
VERTEX
  5
7CE
  8
LAYER_1
 10
2.719686819941835
 20
2.02930827569375
 30
0.0
  0
VERTEX
  5
7CF
  8
LAYER_1
 10
2.72368634259333
 20
2.031344862099021
 30
0.0
  0
VERTEX
  5
7D0
  8
LAYER_1
 10
2.727401606609417
 20
2.03364299245958
 30
0.0
  0
VERTEX
  5
7D1
  8
LAYER_1
 10
2.730723228866691
 20
2.036147397831524
 30
0.0
  0
VERTEX
  5
7D2
  8
LAYER_1
 10
2.733541826241746
 20
2.038802809270951
 30
0.0
  0
VERTEX
  5
7D3
  8
LAYER_1
 10
2.735748015611175
 20
2.041553957833957
 30
0.0
  0
VERTEX
  5
7D4
  8
LAYER_1
 10
2.737232413851571
 20
2.04434557457664
 30
0.0
  0
VERTEX
  5
7D5
  8
LAYER_1
 10
2.737885637839529
 20
2.047122390555097
 30
0.0
  0
VERTEX
  5
7D6
  8
LAYER_1
 10
2.737598304451643
 20
2.049829136825425
 30
0.0
  0
VERTEX
  5
7D7
  8
LAYER_1
 10
2.736261030564505
 20
2.05241054444372
 30
0.0
  0
VERTEX
  5
7D8
  8
LAYER_1
 10
2.735205648763147
 20
2.053536441807329
 30
0.0
  0
VERTEX
  5
7D9
  8
LAYER_1
 10
2.733950256327765
 20
2.054421611548664
 30
0.0
  0
VERTEX
  5
7DA
  8
LAYER_1
 10
2.730911726299697
 20
2.055516525933433
 30
0.0
  0
VERTEX
  5
7DB
  8
LAYER_1
 10
2.727290013969833
 20
2.055788803135868
 30
0.0
  0
VERTEX
  5
7DC
  8
LAYER_1
 10
2.723229692827709
 20
2.055331958693811
 30
0.0
  0
VERTEX
  5
7DD
  8
LAYER_1
 10
2.718875336362857
 20
2.054239508145102
 30
0.0
  0
VERTEX
  5
7DE
  8
LAYER_1
 10
2.714371518064812
 20
2.052604967027582
 30
0.0
  0
VERTEX
  5
7DF
  8
LAYER_1
 10
2.709862811423106
 20
2.050521850879091
 30
0.0
  0
VERTEX
  5
7E0
  8
LAYER_1
 10
2.705493789927274
 20
2.048083675237471
 30
0.0
  0
VERTEX
  5
7E1
  8
LAYER_1
 10
2.701409027066849
 20
2.045383955640564
 30
0.0
  0
VERTEX
  5
7E2
  8
LAYER_1
 10
2.697753096331365
 20
2.042516207626208
 30
0.0
  0
VERTEX
  5
7E3
  8
LAYER_1
 10
2.694670571210355
 20
2.039573946732246
 30
0.0
  0
VERTEX
  5
7E4
  8
LAYER_1
 10
2.692306025193353
 20
2.036650688496519
 30
0.0
  0
VERTEX
  5
7E5
  8
LAYER_1
 10
2.690804031769893
 20
2.033839948456867
 30
0.0
  0
VERTEX
  5
7E6
  8
LAYER_1
 10
2.690309164429508
 20
2.031235242151131
 30
0.0
  0
VERTEX
  5
7E7
  8
LAYER_1
 10
2.690484582255948
 20
2.030039375254058
 30
0.0
  0
VERTEX
  5
7E8
  8
LAYER_1
 10
2.690965996661732
 20
2.028930085117152
 30
0.0
  0
VERTEX
  5
7E9
  8
LAYER_1
 10
2.691771479333052
 20
2.027919061182648
 30
0.0
  0
SEQEND
  5
C24
  8
LAYER_1
  0
POLYLINE
  5
85
  8
LAYER_1
 66
     1
 10
0.0
 20
0.0
 30
0.0
 70
     1
  0
VERTEX
  5
7EA
  8
LAYER_1
 10
1.978100605328954
 20
2.041882375030172
 30
0.0
  0
VERTEX
  5
7EB
  8
LAYER_1
 10
1.975723276153004
 20
2.04169080934598
 30
0.0
  0
VERTEX
  5
7EC
  8
LAYER_1
 10
1.973959841200506
 20
2.041910585440813
 30
0.0
  0
VERTEX
  5
7ED
  8
LAYER_1
 10
1.97278625064116
 20
2.042524948270998
 30
0.0
  0
VERTEX
  5
7EE
  8
LAYER_1
 10
1.972178454644667
 20
2.043517142792861
 30
0.0
  0
VERTEX
  5
7EF
  8
LAYER_1
 10
1.972112403380731
 20
2.044870413962726
 30
0.0
  0
VERTEX
  5
7F0
  8
LAYER_1
 10
1.972564047019052
 20
2.04656800673692
 30
0.0
  0
VERTEX
  5
7F1
  8
LAYER_1
 10
1.974924219681271
 20
2.050929136923592
 30
0.0
  0
VERTEX
  5
7F2
  8
LAYER_1
 10
1.979066573988939
 20
2.056466493003483
 30
0.0
  0
VERTEX
  5
7F3
  8
LAYER_1
 10
1.984798711299667
 20
2.063046034627196
 30
0.0
  0
VERTEX
  5
7F4
  8
LAYER_1
 10
1.99192823297107
 20
2.070533721445334
 30
0.0
  0
VERTEX
  5
7F5
  8
LAYER_1
 10
2.000262740360759
 20
2.0787955131085
 30
0.0
  0
VERTEX
  5
7F6
  8
LAYER_1
 10
2.01977711772545
 20
2.097105249572336
 30
0.0
  0
VERTEX
  5
7F7
  8
LAYER_1
 10
2.041802654254643
 20
2.116902921223533
 30
0.0
  0
VERTEX
  5
7F8
  8
LAYER_1
 10
2.087230448250149
 20
2.156672778907327
 30
0.0
  0
VERTEX
  5
7F9
  8
LAYER_1
 10
2.110196747018457
 20
2.176136880008799
 30
0.0
  0
VERTEX
  5
7FA
  8
LAYER_1
 10
2.13230968950751
 20
2.193826622458488
 30
0.0
  0
VERTEX
  5
7FB
  8
LAYER_1
 10
2.153481624533886
 20
2.209828060055388
 30
0.0
  0
VERTEX
  5
7FC
  8
LAYER_1
 10
2.173624900914164
 20
2.22422724659849
 30
0.0
  0
VERTEX
  5
7FD
  8
LAYER_1
 10
2.192651867464925
 20
2.237110235886787
 30
0.0
  0
VERTEX
  5
7FE
  8
LAYER_1
 10
2.210474873002746
 20
2.248563081719271
 30
0.0
  0
VERTEX
  5
7FF
  8
LAYER_1
 10
2.227006266344207
 20
2.258671837894934
 30
0.0
  0
VERTEX
  5
800
  8
LAYER_1
 10
2.242158396305887
 20
2.267522558212766
 30
0.0
  0
VERTEX
  5
801
  8
LAYER_1
 10
2.267974261356222
 20
2.281794106470914
 30
0.0
  0
VERTEX
  5
802
  8
LAYER_1
 10
2.287221258686382
 20
2.29206615688565
 30
0.0
  0
VERTEX
  5
803
  8
LAYER_1
 10
2.294162303997846
 20
2.29591750489922
 30
0.0
  0
VERTEX
  5
804
  8
LAYER_1
 10
2.299198178829003
 20
2.299027139848913
 30
0.0
  0
VERTEX
  5
805
  8
LAYER_1
 10
2.302241231996433
 20
2.301481115533722
 30
0.0
  0
VERTEX
  5
806
  8
LAYER_1
 10
2.302988059461432
 20
2.30248912296398
 30
0.0
  0
VERTEX
  5
807
  8
LAYER_1
 10
2.303203812316716
 20
2.303365485752639
 30
0.0
  0
VERTEX
  5
808
  8
LAYER_1
 10
2.302787753852625
 20
2.304204581163489
 30
0.0
  0
VERTEX
  5
809
  8
LAYER_1
 10
2.30168191405341
 20
2.304720244818009
 30
0.0
  0
VERTEX
  5
80A
  8
LAYER_1
 10
2.299903202912126
 20
2.304905215768525
 30
0.0
  0
VERTEX
  5
80B
  8
LAYER_1
 10
2.297468530421832
 20
2.304752233067368
 30
0.0
  0
VERTEX
  5
80C
  8
LAYER_1
 10
2.290698941366443
 20
2.303403362919337
 30
0.0
  0
VERTEX
  5
80D
  8
LAYER_1
 10
2.281508426831704
 20
2.300615546792539
 30
0.0
  0
VERTEX
  5
80E
  8
LAYER_1
 10
2.270032266762077
 20
2.296330697105596
 30
0.0
  0
VERTEX
  5
80F
  8
LAYER_1
 10
2.256405741102022
 20
2.290490726277131
 30
0.0
  0
VERTEX
  5
810
  8
LAYER_1
 10
2.240764129796001
 20
2.283037546725765
 30
0.0
  0
VERTEX
  5
811
  8
LAYER_1
 10
2.223242712788474
 20
2.273913070870123
 30
0.0
  0
VERTEX
  5
812
  8
LAYER_1
 10
2.203976770023902
 20
2.263059211128824
 30
0.0
  0
VERTEX
  5
813
  8
LAYER_1
 10
2.183101581446747
 20
2.250417879920493
 30
0.0
  0
VERTEX
  5
814
  8
LAYER_1
 10
2.160752427001469
 20
2.23593098966375
 30
0.0
  0
VERTEX
  5
815
  8
LAYER_1
 10
2.137064586632531
 20
2.219540452777219
 30
0.0
  0
VERTEX
  5
816
  8
LAYER_1
 10
2.112173340284392
 20
2.201188181679522
 30
0.0
  0
VERTEX
  5
817
  8
LAYER_1
 10
2.086213967901513
 20
2.180816088789281
 30
0.0
  0
VERTEX
  5
818
  8
LAYER_1
 10
2.059321749428357
 20
2.158366086525118
 30
0.0
  0
VERTEX
  5
819
  8
LAYER_1
 10
2.031631964809384
 20
2.133780087305656
 30
0.0
  0
VERTEX
  5
81A
  8
LAYER_1
 10
2.018752738475753
 20
2.121574956384536
 30
0.0
  0
VERTEX
  5
81B
  8
LAYER_1
 10
2.005786839811792
 20
2.108732831733972
 30
0.0
  0
VERTEX
  5
81C
  8
LAYER_1
 10
1.982014255631263
 20
2.084979307565018
 30
0.0
  0
VERTEX
  5
81D
  8
LAYER_1
 10
1.972417185183889
 20
2.075988761206883
 30
0.0
  0
VERTEX
  5
81E
  8
LAYER_1
 10
1.96845555866731
 20
2.072635228588207
 30
0.0
  0
VERTEX
  5
81F
  8
LAYER_1
 10
1.96515267254457
 20
2.070202927439813
 30
0.0
  0
VERTEX
  5
820
  8
LAYER_1
 10
1.962584127757492
 20
2.068811911084217
 30
0.0
  0
VERTEX
  5
821
  8
LAYER_1
 10
1.960825525247901
 20
2.068582232843935
 30
0.0
  0
VERTEX
  5
822
  8
LAYER_1
 10
1.960273577641483
 20
2.068940412180324
 30
0.0
  0
VERTEX
  5
823
  8
LAYER_1
 10
1.959952465957622
 20
2.069633946041484
 30
0.0
  0
VERTEX
  5
824
  8
LAYER_1
 10
1.96004055082848
 20
2.072087103999378
 30
0.0
  0
VERTEX
  5
825
  8
LAYER_1
 10
1.961828534447852
 20
2.078557249666608
 30
0.0
  0
VERTEX
  5
826
  8
LAYER_1
 10
1.966065830777953
 20
2.090530204869038
 30
0.0
  0
VERTEX
  5
827
  8
LAYER_1
 10
1.972992425723346
 20
2.107229547816659
 30
0.0
  0
VERTEX
  5
828
  8
LAYER_1
 10
1.977539205771952
 20
2.11710898288554
 30
0.0
  0
VERTEX
  5
829
  8
LAYER_1
 10
1.982848305188592
 20
2.127878856719465
 30
0.0
  0
VERTEX
  5
82A
  8
LAYER_1
 10
1.988949722211337
 20
2.139442116594684
 30
0.0
  0
VERTEX
  5
82B
  8
LAYER_1
 10
1.995873455078255
 20
2.151701709787445
 30
0.0
  0
VERTEX
  5
82C
  8
LAYER_1
 10
2.003649502027419
 20
2.164560583573999
 30
0.0
  0
VERTEX
  5
82D
  8
LAYER_1
 10
2.012307861296897
 20
2.177921685230594
 30
0.0
  0
VERTEX
  5
82E
  8
LAYER_1
 10
2.02187853112476
 20
2.191687962033479
 30
0.0
  0
VERTEX
  5
82F
  8
LAYER_1
 10
2.032391509749079
 20
2.205762361258903
 30
0.0
  0
VERTEX
  5
830
  8
LAYER_1
 10
2.043876795407924
 20
2.220047830183115
 30
0.0
  0
VERTEX
  5
831
  8
LAYER_1
 10
2.056364386339365
 20
2.234447316082364
 30
0.0
  0
VERTEX
  5
832
  8
LAYER_1
 10
2.069884280781473
 20
2.248863766232899
 30
0.0
  0
VERTEX
  5
833
  8
LAYER_1
 10
2.084466476972318
 20
2.26320012791097
 30
0.0
  0
VERTEX
  5
834
  8
LAYER_1
 10
2.100140973149969
 20
2.277359348392825
 30
0.0
  0
VERTEX
  5
835
  8
LAYER_1
 10
2.116937767552498
 20
2.291244374954713
 30
0.0
  0
VERTEX
  5
836
  8
LAYER_1
 10
2.134886858417975
 20
2.304758154872884
 30
0.0
  0
VERTEX
  5
837
  8
LAYER_1
 10
2.15401824398447
 20
2.317803635423586
 30
0.0
  0
VERTEX
  5
838
  8
LAYER_1
 10
2.174361922490053
 20
2.330283763883068
 30
0.0
  0
VERTEX
  5
839
  8
LAYER_1
 10
2.184997746044401
 20
2.33628149210243
 30
0.0
  0
VERTEX
  5
83A
  8
LAYER_1
 10
2.195947892172796
 20
2.34210148752758
 30
0.0
  0
VERTEX
  5
83B
  8
LAYER_1
 10
2.207216110654998
 20
2.34773161856805
 30
0.0
  0
VERTEX
  5
83C
  8
LAYER_1
 10
2.218806151270766
 20
2.35315975363337
 30
0.0
  0
VERTEX
  5
83D
  8
LAYER_1
 10
2.23072176379986
 20
2.358373761133072
 30
0.0
  0
VERTEX
  5
83E
  8
LAYER_1
 10
2.242966698022037
 20
2.363361509476688
 30
0.0
  0
VERTEX
  5
83F
  8
LAYER_1
 10
2.255544703717056
 20
2.368110867073747
 30
0.0
  0
VERTEX
  5
840
  8
LAYER_1
 10
2.268459530664677
 20
2.372609702333782
 30
0.0
  0
VERTEX
  5
841
  8
LAYER_1
 10
2.281714928644657
 20
2.376845883666323
 30
0.0
  0
VERTEX
  5
842
  8
LAYER_1
 10
2.295314647436756
 20
2.380807279480901
 30
0.0
  0
VERTEX
  5
843
  8
LAYER_1
 10
2.309262436820733
 20
2.384481758187049
 30
0.0
  0
VERTEX
  5
844
  8
LAYER_1
 10
2.323562046576346
 20
2.387857188194296
 30
0.0
  0
VERTEX
  5
845
  8
LAYER_1
 10
2.338217226483354
 20
2.390921437912174
 30
0.0
  0
VERTEX
  5
846
  8
LAYER_1
 10
2.353231726321516
 20
2.393662375750214
 30
0.0
  0
VERTEX
  5
847
  8
LAYER_1
 10
2.368609295870591
 20
2.396067870117947
 30
0.0
  0
VERTEX
  5
848
  8
LAYER_1
 10
2.384353684910337
 20
2.398125789424904
 30
0.0
  0
VERTEX
  5
849
  8
LAYER_1
 10
2.400468643220514
 20
2.399824002080618
 30
0.0
  0
VERTEX
  5
84A
  8
LAYER_1
 10
2.41695792058088
 20
2.401150376494617
 30
0.0
  0
VERTEX
  5
84B
  8
LAYER_1
 10
2.476515178025194
 20
2.405429177639006
 30
0.0
  0
VERTEX
  5
84C
  8
LAYER_1
 10
2.492388061058255
 20
2.406174544234791
 30
0.0
  0
VERTEX
  5
84D
  8
LAYER_1
 10
2.496704267941421
 20
2.40601043664145
 30
0.0
  0
VERTEX
  5
84E
  8
LAYER_1
 10
2.497939337948278
 20
2.40577064982233
 30
0.0
  0
VERTEX
  5
84F
  8
LAYER_1
 10
2.498552204798123
 20
2.405416741826475
 30
0.0
  0
VERTEX
  5
850
  8
LAYER_1
 10
2.499753962767154
 20
2.403050997715207
 30
0.0
  0
VERTEX
  5
851
  8
LAYER_1
 10
2.500189905855057
 20
2.400379446254229
 30
0.0
  0
VERTEX
  5
852
  8
LAYER_1
 10
2.499919347988508
 20
2.397412094732737
 30
0.0
  0
VERTEX
  5
853
  8
LAYER_1
 10
2.499001603094181
 20
2.394158950439925
 30
0.0
  0
VERTEX
  5
854
  8
LAYER_1
 10
2.497495985098753
 20
2.390630020664987
 30
0.0
  0
VERTEX
  5
855
  8
LAYER_1
 10
2.495461807928901
 20
2.386835312697118
 30
0.0
  0
VERTEX
  5
856
  8
LAYER_1
 10
2.490045031772623
 20
2.378488591339365
 30
0.0
  0
VERTEX
  5
857
  8
LAYER_1
 10
2.475478582140692
 20
2.35904613103324
 30
0.0
  0
VERTEX
  5
858
  8
LAYER_1
 10
2.467277931491849
 20
2.34811050871198
 30
0.0
  0
VERTEX
  5
859
  8
LAYER_1
 10
2.45909834550563
 20
2.336472036029995
 30
0.0
  0
VERTEX
  5
85A
  8
LAYER_1
 10
2.444452372815759
 20
2.314214668601072
 30
0.0
  0
VERTEX
  5
85B
  8
LAYER_1
 10
2.436750569544515
 20
2.303071705027078
 30
0.0
  0
VERTEX
  5
85C
  8
LAYER_1
 10
2.42859156422684
 20
2.292360764313173
 30
0.0
  0
VERTEX
  5
85D
  8
LAYER_1
 10
2.419821863791063
 20
2.282413003534191
 30
0.0
  0
VERTEX
  5
85E
  8
LAYER_1
 10
2.41516003631899
 20
2.277828802206181
 30
0.0
  0
VERTEX
  5
85F
  8
LAYER_1
 10
2.410287975165514
 20
2.273559579764965
 30
0.0
  0
VERTEX
  5
860
  8
LAYER_1
 10
2.405186493696678
 20
2.269646730844897
 30
0.0
  0
VERTEX
  5
861
  8
LAYER_1
 10
2.399836405278523
 20
2.26613165008033
 30
0.0
  0
VERTEX
  5
862
  8
LAYER_1
 10
2.39421852327709
 20
2.263055732105619
 30
0.0
  0
VERTEX
  5
863
  8
LAYER_1
 10
2.388313661058419
 20
2.260460371555118
 30
0.0
  0
VERTEX
  5
864
  8
LAYER_1
 10
2.385917244785038
 20
2.258725227291422
 30
0.0
  0
VERTEX
  5
865
  8
LAYER_1
 10
2.381103471959026
 20
2.254827394987049
 30
0.0
  0
VERTEX
  5
866
  8
LAYER_1
 10
2.373696449742036
 20
2.249282416719557
 30
0.0
  0
VERTEX
  5
867
  8
LAYER_1
 10
2.363520285295722
 20
2.242605834566503
 30
0.0
  0
VERTEX
  5
868
  8
LAYER_1
 10
2.357338808224584
 20
2.239004298932128
 30
0.0
  0
VERTEX
  5
869
  8
LAYER_1
 10
2.350399085781734
 20
2.235313190605448
 30
0.0
  0
VERTEX
  5
86A
  8
LAYER_1
 10
2.342679131362379
 20
2.231596952346156
 30
0.0
  0
VERTEX
  5
86B
  8
LAYER_1
 10
2.334156958361725
 20
2.227920026913948
 30
0.0
  0
VERTEX
  5
86C
  8
LAYER_1
 10
2.324810580174979
 20
2.224346857068518
 30
0.0
  0
VERTEX
  5
86D
  8
LAYER_1
 10
2.314618010197348
 20
2.220941885569562
 30
0.0
  0
VERTEX
  5
86E
  8
LAYER_1
 10
2.303557261824037
 20
2.217769555176774
 30
0.0
  0
VERTEX
  5
86F
  8
LAYER_1
 10
2.291606348450254
 20
2.214894308649849
 30
0.0
  0
VERTEX
  5
870
  8
LAYER_1
 10
2.28163682627548
 20
2.212940322135462
 30
0.0
  0
VERTEX
  5
871
  8
LAYER_1
 10
2.266560136194618
 20
2.209883418266984
 30
0.0
  0
VERTEX
  5
872
  8
LAYER_1
 10
2.248871903387754
 20
2.20562313479286
 30
0.0
  0
VERTEX
  5
873
  8
LAYER_1
 10
2.239828341330849
 20
2.203010331250069
 30
0.0
  0
VERTEX
  5
874
  8
LAYER_1
 10
2.231067753034976
 20
2.200059009461533
 30
0.0
  0
VERTEX
  5
875
  8
LAYER_1
 10
2.222902091647646
 20
2.196756611645808
 30
0.0
  0
VERTEX
  5
876
  8
LAYER_1
 10
2.21564331031637
 20
2.19309058002145
 30
0.0
  0
VERTEX
  5
877
  8
LAYER_1
 10
2.20960336218866
 20
2.189048356807014
 30
0.0
  0
VERTEX
  5
878
  8
LAYER_1
 10
2.207137935934739
 20
2.186882249046814
 30
0.0
  0
VERTEX
  5
879
  8
LAYER_1
 10
2.205094200412025
 20
2.184617384221054
 30
0.0
  0
VERTEX
  5
87A
  8
LAYER_1
 10
2.203511149763958
 20
2.182252192607052
 30
0.0
  0
VERTEX
  5
87B
  8
LAYER_1
 10
2.202427778133977
 20
2.179785104482128
 30
0.0
  0
VERTEX
  5
87C
  8
LAYER_1
 10
2.20188307966552
 20
2.177214550123601
 30
0.0
  0
VERTEX
  5
87D
  8
LAYER_1
 10
2.201916048502026
 20
2.17453895980879
 30
0.0
  0
VERTEX
  5
87E
  8
LAYER_1
 10
2.202565678786935
 20
2.171756763815015
 30
0.0
  0
VERTEX
  5
87F
  8
LAYER_1
 10
2.203870964663684
 20
2.168866392419596
 30
0.0
  0
VERTEX
  5
880
  8
LAYER_1
 10
2.205870900275714
 20
2.165866275899853
 30
0.0
  0
VERTEX
  5
881
  8
LAYER_1
 10
2.208604479766462
 20
2.162754844533103
 30
0.0
  0
VERTEX
  5
882
  8
LAYER_1
 10
2.209619107211023
 20
2.162018922203952
 30
0.0
  0
VERTEX
  5
883
  8
LAYER_1
 10
2.21103531688772
 20
2.161436255650553
 30
0.0
  0
VERTEX
  5
884
  8
LAYER_1
 10
2.214938902257622
 20
2.160681110586105
 30
0.0
  0
VERTEX
  5
885
  8
LAYER_1
 10
2.220048074516362
 20
2.160390250769953
 30
0.0
  0
VERTEX
  5
886
  8
LAYER_1
 10
2.226095672304135
 20
2.16046451763229
 30
0.0
  0
VERTEX
  5
887
  8
LAYER_1
 10
2.239937499027556
 20
2.161311797113203
 30
0.0
  0
VERTEX
  5
888
  8
LAYER_1
 10
2.254327091549445
 20
2.162429680470394
 30
0.0
  0
VERTEX
  5
889
  8
LAYER_1
 10
2.267127158991356
 20
2.16302489914541
 30
0.0
  0
VERTEX
  5
88A
  8
LAYER_1
 10
2.272263217407805
 20
2.162878612802585
 30
0.0
  0
VERTEX
  5
88B
  8
LAYER_1
 10
2.276200410474845
 20
2.162304184579798
 30
0.0
  0
VERTEX
  5
88C
  8
LAYER_1
 10
2.277635944577396
 20
2.161825430210354
 30
0.0
  0
VERTEX
  5
88D
  8
LAYER_1
 10
2.278671576832668
 20
2.161202455907241
 30
0.0
  0
VERTEX
  5
88E
  8
LAYER_1
 10
2.279273912070685
 20
2.160422866849234
 30
0.0
  0
VERTEX
  5
88F
  8
LAYER_1
 10
2.279409555121469
 20
2.159474268215107
 30
0.0
  0
VERTEX
  5
890
  8
LAYER_1
 10
2.279045110815048
 20
2.158344265183635
 30
0.0
  0
VERTEX
  5
891
  8
LAYER_1
 10
2.278147183981444
 20
2.15702046293359
 30
0.0
  0
VERTEX
  5
892
  8
LAYER_1
 10
2.274617302052786
 20
2.153741881492884
 30
0.0
  0
VERTEX
  5
893
  8
LAYER_1
 10
2.258732034596142
 20
2.141920212349483
 30
0.0
  0
VERTEX
  5
894
  8
LAYER_1
 10
2.242287716375969
 20
2.130870024998725
 30
0.0
  0
VERTEX
  5
895
  8
LAYER_1
 10
2.225328514667636
 20
2.120564014770458
 30
0.0
  0
VERTEX
  5
896
  8
LAYER_1
 10
2.207898596746508
 20
2.110974876994527
 30
0.0
  0
VERTEX
  5
897
  8
LAYER_1
 10
2.190042129887956
 20
2.102075307000783
 30
0.0
  0
VERTEX
  5
898
  8
LAYER_1
 10
2.171803281367345
 20
2.093838000119071
 30
0.0
  0
VERTEX
  5
899
  8
LAYER_1
 10
2.153226218460045
 20
2.086235651679238
 30
0.0
  0
VERTEX
  5
89A
  8
LAYER_1
 10
2.134355108441421
 20
2.079240957011134
 30
0.0
  0
VERTEX
  5
89B
  8
LAYER_1
 10
2.115234118586844
 20
2.072826611444604
 30
0.0
  0
VERTEX
  5
89C
  8
LAYER_1
 10
2.095907416171679
 20
2.066965310309496
 30
0.0
  0
VERTEX
  5
89D
  8
LAYER_1
 10
2.076419168471295
 20
2.061629748935658
 30
0.0
  0
VERTEX
  5
89E
  8
LAYER_1
 10
2.056813542761059
 20
2.056792622652937
 30
0.0
  0
VERTEX
  5
89F
  8
LAYER_1
 10
2.03713470631634
 20
2.05242662679118
 30
0.0
  0
VERTEX
  5
8A0
  8
LAYER_1
 10
2.017426826412503
 20
2.048504456680235
 30
0.0
  0
VERTEX
  5
8A1
  8
LAYER_1
 10
1.997734070324919
 20
2.04499880764995
 30
0.0
  0
SEQEND
  5
C25
  8
LAYER_1
  0
POLYLINE
  5
86
  8
LAYER_1
 66
     1
 10
0.0
 20
0.0
 30
0.0
 70
     1
  0
VERTEX
  5
8A2
  8
LAYER_1
 10
2.921516457501071
 20
1.832097340240243
 30
0.0
  0
VERTEX
  5
8A3
  8
LAYER_1
 10
2.923308786034954
 20
1.830477322736898
 30
0.0
  0
VERTEX
  5
8A4
  8
LAYER_1
 10
2.925165354970876
 20
1.82944999448946
 30
0.0
  0
VERTEX
  5
8A5
  8
LAYER_1
 10
2.927090006359795
 20
1.828987998900347
 30
0.0
  0
VERTEX
  5
8A6
  8
LAYER_1
 10
2.929086582252671
 20
1.82906397937198
 30
0.0
  0
VERTEX
  5
8A7
  8
LAYER_1
 10
2.931158924700462
 20
1.829650579306778
 30
0.0
  0
VERTEX
  5
8A8
  8
LAYER_1
 10
2.933310875754128
 20
1.83072044210716
 30
0.0
  0
VERTEX
  5
8A9
  8
LAYER_1
 10
2.93786897188292
 20
1.834200529914356
 30
0.0
  0
VERTEX
  5
8AA
  8
LAYER_1
 10
2.942791607046716
 20
1.839285390012925
 30
0.0
  0
VERTEX
  5
8AB
  8
LAYER_1
 10
2.948109517653188
 20
1.845756169622222
 30
0.0
  0
VERTEX
  5
8AC
  8
LAYER_1
 10
2.960054110824841
 20
1.861980076250427
 30
0.0
  0
VERTEX
  5
8AD
  8
LAYER_1
 10
2.97394864265925
 20
1.881121427553822
 30
0.0
  0
VERTEX
  5
8AE
  8
LAYER_1
 10
2.981703976594166
 20
1.891239013007106
 30
0.0
  0
VERTEX
  5
8AF
  8
LAYER_1
 10
2.990039004417783
 20
1.901429401287257
 30
0.0
  0
VERTEX
  5
8B0
  8
LAYER_1
 10
2.998984462537774
 20
1.911473739613629
 30
0.0
  0
VERTEX
  5
8B1
  8
LAYER_1
 10
3.008571087361807
 20
1.921153175205581
 30
0.0
  0
VERTEX
  5
8B2
  8
LAYER_1
 10
3.018829615297556
 20
1.930248855282467
 30
0.0
  0
VERTEX
  5
8B3
  8
LAYER_1
 10
3.029790782752692
 20
1.938541927063644
 30
0.0
  0
VERTEX
  5
8B4
  8
LAYER_1
 10
3.0329895322606
 20
1.94113148282268
 30
0.0
  0
VERTEX
  5
8B5
  8
LAYER_1
 10
3.036380856087852
 20
1.943895509053088
 30
0.0
  0
VERTEX
  5
8B6
  8
LAYER_1
 10
3.038093394361839
 20
1.944967289511242
 30
0.0
  0
VERTEX
  5
8B7
  8
LAYER_1
 10
3.039787669404392
 20
1.945631896686661
 30
0.0
  0
VERTEX
  5
8B8
  8
LAYER_1
 10
3.041441545611752
 20
1.945739066945819
 30
0.0
  0
VERTEX
  5
8B9
  8
LAYER_1
 10
3.043032887380163
 20
1.945138536655192
 30
0.0
  0
VERTEX
  5
8BA
  8
LAYER_1
 10
3.0451414605419
 20
1.943192375638745
 30
0.0
  0
VERTEX
  5
8BB
  8
LAYER_1
 10
3.046461083274403
 20
1.940647505009061
 30
0.0
  0
VERTEX
  5
8BC
  8
LAYER_1
 10
3.047073547946334
 20
1.937533622236093
 30
0.0
  0
VERTEX
  5
8BD
  8
LAYER_1
 10
3.047060646926353
 20
1.933880424789792
 30
0.0
  0
VERTEX
  5
8BE
  8
LAYER_1
 10
3.046504172583121
 20
1.92971761014011
 30
0.0
  0
VERTEX
  5
8BF
  8
LAYER_1
 10
3.045485917285301
 20
1.925074875756999
 30
0.0
  0
VERTEX
  5
8C0
  8
LAYER_1
 10
3.042391233300537
 20
1.914468437670301
 30
0.0
  0
VERTEX
  5
8C1
  8
LAYER_1
 10
3.038430933921348
 20
1.902298690289313
 30
0.0
  0
VERTEX
  5
8C2
  8
LAYER_1
 10
3.034259358097025
 20
1.888803213373654
 30
0.0
  0
VERTEX
  5
8C3
  8
LAYER_1
 10
3.030530844776856
 20
1.874219586682938
 30
0.0
  0
VERTEX
  5
8C4
  8
LAYER_1
 10
3.029037217477482
 20
1.866593960846815
 30
0.0
  0
VERTEX
  5
8C5
  8
LAYER_1
 10
3.02789973291013
 20
1.858785389976783
 30
0.0
  0
VERTEX
  5
8C6
  8
LAYER_1
 10
3.027119009386843
 20
1.85255354431999
 30
0.0
  0
VERTEX
  5
8C7
  8
LAYER_1
 10
3.026756105870491
 20
1.845737087996409
 30
0.0
  0
VERTEX
  5
8C8
  8
LAYER_1
 10
3.027068408513831
 20
1.842677909103771
 30
0.0
  0
VERTEX
  5
8C9
  8
LAYER_1
 10
3.027889652437601
 20
1.840154511467473
 30
0.0
  0
VERTEX
  5
8CA
  8
LAYER_1
 10
3.029354666401368
 20
1.838394206395194
 30
0.0
  0
VERTEX
  5
8CB
  8
LAYER_1
 10
3.030370721135613
 20
1.837871248354212
 30
0.0
  0
VERTEX
  5
8CC
  8
LAYER_1
 10
3.031598279164696
 20
1.837624305194614
 30
0.0
  0
VERTEX
  5
8CD
  8
LAYER_1
 10
3.033543627250286
 20
1.837702178509281
 30
0.0
  0
VERTEX
  5
8CE
  8
LAYER_1
 10
3.035555105720822
 20
1.838198681901802
 30
0.0
  0
VERTEX
  5
8CF
  8
LAYER_1
 10
3.039818496525057
 20
1.840317071787355
 30
0.0
  0
VERTEX
  5
8D0
  8
LAYER_1
 10
3.044472536994052
 20
1.843718460585163
 30
0.0
  0
VERTEX
  5
8D1
  8
LAYER_1
 10
3.049601312544456
 20
1.848141834029115
 30
0.0
  0
VERTEX
  5
8D2
  8
LAYER_1
 10
3.0616194105561
 20
1.859010477791004
 30
0.0
  0
VERTEX
  5
8D3
  8
LAYER_1
 10
3.068676903850642
 20
1.86493371957672
 30
0.0
  0
VERTEX
  5
8D4
  8
LAYER_1
 10
3.076545473893198
 20
1.870834888944135
 30
0.0
  0
VERTEX
  5
8D5
  8
LAYER_1
 10
3.088848460647817
 20
1.879980785473553
 30
0.0
  0
VERTEX
  5
8D6
  8
LAYER_1
 10
3.096108330173505
 20
1.885329682065881
 30
0.0
  0
VERTEX
  5
8D7
  8
LAYER_1
 10
3.103273237928733
 20
1.890249934064514
 30
0.0
  0
VERTEX
  5
8D8
  8
LAYER_1
 10
3.109717774511468
 20
1.894032083860371
 30
0.0
  0
VERTEX
  5
8D9
  8
LAYER_1
 10
3.112474463175015
 20
1.89527466492942
 30
0.0
  0
VERTEX
  5
8DA
  8
LAYER_1
 10
3.114816530519676
 20
1.895966673844371
 30
0.0
  0
VERTEX
  5
8DB
  8
LAYER_1
 10
3.116665800370196
 20
1.896019428404086
 30
0.0
  0
VERTEX
  5
8DC
  8
LAYER_1
 10
3.117944096551323
 20
1.895344246407433
 30
0.0
  0
VERTEX
  5
8DD
  8
LAYER_1
 10
3.1185732428878
 20
1.893852445653275
 30
0.0
  0
VERTEX
  5
8DE
  8
LAYER_1
 10
3.118475063204375
 20
1.891455343940477
 30
0.0
  0
VERTEX
  5
8DF
  8
LAYER_1
 10
3.115092206157667
 20
1.874234463071925
 30
0.0
  0
VERTEX
  5
8E0
  8
LAYER_1
 10
3.113412793975255
 20
1.864641863826052
 30
0.0
  0
VERTEX
  5
8E1
  8
LAYER_1
 10
3.112353396865202
 20
1.85524159601922
 30
0.0
  0
VERTEX
  5
8E2
  8
LAYER_1
 10
3.112199642441622
 20
1.850812126400781
 30
0.0
  0
VERTEX
  5
8E3
  8
LAYER_1
 10
3.112373017961307
 20
1.846668987636506
 30
0.0
  0
VERTEX
  5
8E4
  8
LAYER_1
 10
3.112930898815981
 20
1.842891595724531
 30
0.0
  0
VERTEX
  5
8E5
  8
LAYER_1
 10
3.113930660397369
 20
1.839559366662991
 30
0.0
  0
VERTEX
  5
8E6
  8
LAYER_1
 10
3.115429678097195
 20
1.836751716450019
 30
0.0
  0
VERTEX
  5
8E7
  8
LAYER_1
 10
3.117485327307185
 20
1.834548061083752
 30
0.0
  0
VERTEX
  5
8E8
  8
LAYER_1
 10
3.120154983419064
 20
1.833027816562324
 30
0.0
  0
VERTEX
  5
8E9
  8
LAYER_1
 10
3.123496021824556
 20
1.832270398883869
 30
0.0
  0
VERTEX
  5
8EA
  8
LAYER_1
 10
3.127358211488685
 20
1.832172842678753
 30
0.0
  0
VERTEX
  5
8EB
  8
LAYER_1
 10
3.131120743986089
 20
1.832589037675113
 30
0.0
  0
VERTEX
  5
8EC
  8
LAYER_1
 10
3.134789514593856
 20
1.833471794530961
 30
0.0
  0
VERTEX
  5
8ED
  8
LAYER_1
 10
3.138370418589075
 20
1.834773923904313
 30
0.0
  0
VERTEX
  5
8EE
  8
LAYER_1
 10
3.141869351248835
 20
1.83644823645318
 30
0.0
  0
VERTEX
  5
8EF
  8
LAYER_1
 10
3.145292207850226
 20
1.838447542835576
 30
0.0
  0
VERTEX
  5
8F0
  8
LAYER_1
 10
3.151933273986255
 20
1.843232379733009
 30
0.0
  0
VERTEX
  5
8F1
  8
LAYER_1
 10
3.164561885749794
 20
1.85462564848281
 30
0.0
  0
VERTEX
  5
8F2
  8
LAYER_1
 10
3.170643755810731
 20
1.86047905086339
 30
0.0
  0
VERTEX
  5
8F3
  8
LAYER_1
 10
3.176633551613394
 20
1.865933612266565
 30
0.0
  0
VERTEX
  5
8F4
  8
LAYER_1
 10
3.186283096358113
 20
1.8753653603544
 30
0.0
  0
VERTEX
  5
8F5
  8
LAYER_1
 10
3.197351943901505
 20
1.886297568601949
 30
0.0
  0
VERTEX
  5
8F6
  8
LAYER_1
 10
3.202396421919362
 20
1.890521257684047
 30
0.0
  0
VERTEX
  5
8F7
  8
LAYER_1
 10
3.204617292236745
 20
1.892006608134402
 30
0.0
  0
VERTEX
  5
8F8
  8
LAYER_1
 10
3.206569104472876
 20
1.892953956684189
 30
0.0
  0
VERTEX
  5
8F9
  8
LAYER_1
 10
3.208200749412587
 20
1.893273048953331
 30
0.0
  0
VERTEX
  5
8FA
  8
LAYER_1
 10
3.209461117840712
 20
1.892873630561748
 30
0.0
  0
VERTEX
  5
8FB
  8
LAYER_1
 10
3.210299100542081
 20
1.891665447129363
 30
0.0
  0
VERTEX
  5
8FC
  8
LAYER_1
 10
3.210663588301531
 20
1.889558244276097
 30
0.0
  0
VERTEX
  5
8FD
  8
LAYER_1
 10
3.210207113108492
 20
1.878686073266745
 30
0.0
  0
VERTEX
  5
8FE
  8
LAYER_1
 10
3.20976057475964
 20
1.872873041391916
 30
0.0
  0
VERTEX
  5
8FF
  8
LAYER_1
 10
3.209559412208296
 20
1.86716414694873
 30
0.0
  0
VERTEX
  5
900
  8
LAYER_1
 10
3.209896807678756
 20
1.861825966195997
 30
0.0
  0
VERTEX
  5
901
  8
LAYER_1
 10
3.211065943395318
 20
1.857125075392527
 30
0.0
  0
VERTEX
  5
902
  8
LAYER_1
 10
3.21205403329098
 20
1.855096918802643
 30
0.0
  0
VERTEX
  5
903
  8
LAYER_1
 10
3.213360001582279
 20
1.853328050797129
 30
0.0
  0
VERTEX
  5
904
  8
LAYER_1
 10
3.215020496047252
 20
1.851851793408336
 30
0.0
  0
VERTEX
  5
905
  8
LAYER_1
 10
3.217072164463937
 20
1.850701468668615
 30
0.0
  0
VERTEX
  5
906
  8
LAYER_1
 10
3.220281950950687
 20
1.849653108148325
 30
0.0
  0
VERTEX
  5
907
  8
LAYER_1
 10
3.223490720993841
 20
1.849240111041926
 30
0.0
  0
VERTEX
  5
908
  8
LAYER_1
 10
3.226696747662849
 20
1.849400128548202
 30
0.0
  0
VERTEX
  5
909
  8
LAYER_1
 10
3.229898304027162
 20
1.850070811865939
 30
0.0
  0
VERTEX
  5
90A
  8
LAYER_1
 10
3.233093663156228
 20
1.851189812193923
 30
0.0
  0
VERTEX
  5
90B
  8
LAYER_1
 10
3.236281098119497
 20
1.852694780730937
 30
0.0
  0
VERTEX
  5
90C
  8
LAYER_1
 10
3.242625287826443
 20
1.856613227227199
 30
0.0
  0
VERTEX
  5
90D
  8
LAYER_1
 10
3.255142592306554
 20
1.866338391474645
 30
0.0
  0
VERTEX
  5
90E
  8
LAYER_1
 10
3.261288076190913
 20
1.871147528406393
 30
0.0
  0
VERTEX
  5
90F
  8
LAYER_1
 10
3.267339693912269
 20
1.875255981330531
 30
0.0
  0
VERTEX
  5
910
  8
LAYER_1
 10
3.275347989304627
 20
1.880508219800372
 30
0.0
  0
VERTEX
  5
911
  8
LAYER_1
 10
3.282667793377305
 20
1.886012714631448
 30
0.0
  0
VERTEX
  5
912
  8
LAYER_1
 10
3.295301162558485
 20
1.896301921579002
 30
0.0
  0
VERTEX
  5
913
  8
LAYER_1
 10
3.300644345164419
 20
1.900348357796326
 30
0.0
  0
VERTEX
  5
914
  8
LAYER_1
 10
3.305358271445537
 20
1.903170498576577
 30
0.0
  0
VERTEX
  5
915
  8
LAYER_1
 10
3.307483891198264
 20
1.904007102568559
 30
0.0
  0
VERTEX
  5
916
  8
LAYER_1
 10
3.309457750150556
 20
1.904399205970181
 30
0.0
  0
VERTEX
  5
917
  8
LAYER_1
 10
3.311281699396001
 20
1.904300666537747
 30
0.0
  0
VERTEX
  5
918
  8
LAYER_1
 10
3.31295759002819
 20
1.903665342027559
 30
0.0
  0
VERTEX
  5
919
  8
LAYER_1
 10
3.313241276375288
 20
1.902442505511676
 30
0.0
  0
VERTEX
  5
91A
  8
LAYER_1
 10
3.31325375649778
 20
1.899483727224451
 30
0.0
  0
VERTEX
  5
91B
  8
LAYER_1
 10
3.31295127609413
 20
1.889452096476675
 30
0.0
  0
VERTEX
  5
91C
  8
LAYER_1
 10
3.313022504867607
 20
1.875757952065633
 30
0.0
  0
VERTEX
  5
91D
  8
LAYER_1
 10
3.313502121461508
 20
1.868221031699326
 30
0.0
  0
VERTEX
  5
91E
  8
LAYER_1
 10
3.314439798868579
 20
1.860588796272729
 30
0.0
  0
VERTEX
  5
91F
  8
LAYER_1
 10
3.315957081595116
 20
1.853134683571017
 30
0.0
  0
VERTEX
  5
920
  8
LAYER_1
 10
3.318175514147415
 20
1.846132131379366
 30
0.0
  0
VERTEX
  5
921
  8
LAYER_1
 10
3.319585644266442
 20
1.84288563978268
 30
0.0
  0
VERTEX
  5
922
  8
LAYER_1
 10
3.321216641031771
 20
1.839854577482951
 30
0.0
  0
VERTEX
  5
923
  8
LAYER_1
 10
3.323083697506689
 20
1.837073124203324
 30
0.0
  0
VERTEX
  5
924
  8
LAYER_1
 10
3.325202006754482
 20
1.834575459666947
 30
0.0
  0
VERTEX
  5
925
  8
LAYER_1
 10
3.327586761838438
 20
1.832395763596967
 30
0.0
  0
VERTEX
  5
926
  8
LAYER_1
 10
3.330253155821843
 20
1.83056821571653
 30
0.0
  0
VERTEX
  5
927
  8
LAYER_1
 10
3.333216381767985
 20
1.829126995748785
 30
0.0
  0
VERTEX
  5
928
  8
LAYER_1
 10
3.33649163274015
 20
1.828106283416876
 30
0.0
  0
VERTEX
  5
929
  8
LAYER_1
 10
3.340094101801626
 20
1.827540258443952
 30
0.0
  0
VERTEX
  5
92A
  8
LAYER_1
 10
3.344038982015699
 20
1.827463100553159
 30
0.0
  0
VERTEX
  5
92B
  8
LAYER_1
 10
3.348341466445657
 20
1.827908989467645
 30
0.0
  0
VERTEX
  5
92C
  8
LAYER_1
 10
3.353016748154786
 20
1.828912104910556
 30
0.0
  0
VERTEX
  5
92D
  8
LAYER_1
 10
3.361294263418765
 20
1.831420316389091
 30
0.0
  0
VERTEX
  5
92E
  8
LAYER_1
 10
3.369350712830984
 20
1.834452191425527
 30
0.0
  0
VERTEX
  5
92F
  8
LAYER_1
 10
3.377204596483184
 20
1.837959763873653
 30
0.0
  0
VERTEX
  5
930
  8
LAYER_1
 10
3.384874414467105
 20
1.841895067587254
 30
0.0
  0
VERTEX
  5
931
  8
LAYER_1
 10
3.392378666874489
 20
1.846210136420116
 30
0.0
  0
VERTEX
  5
932
  8
LAYER_1
 10
3.399735853797076
 20
1.850857004226028
 30
0.0
  0
VERTEX
  5
933
  8
LAYER_1
 10
3.414083031554823
 20
1.860954272172143
 30
0.0
  0
VERTEX
  5
934
  8
LAYER_1
 10
3.44182660528935
 20
1.883019885307569
 30
0.0
  0
VERTEX
  5
935
  8
LAYER_1
 10
3.455519002733983
 20
1.894220772157465
 30
0.0
  0
VERTEX
  5
936
  8
LAYER_1
 10
3.469289141542098
 20
1.905022073635873
 30
0.0
  0
VERTEX
  5
937
  8
LAYER_1
 10
3.470227093944634
 20
1.905582050897773
 30
0.0
  0
VERTEX
  5
938
  8
LAYER_1
 10
3.470846559060662
 20
1.905612258464238
 30
0.0
  0
VERTEX
  5
939
  8
LAYER_1
 10
3.471174065914107
 20
1.905145814473156
 30
0.0
  0
VERTEX
  5
93A
  8
LAYER_1
 10
3.471236143528894
 20
1.904215837062415
 30
0.0
  0
VERTEX
  5
93B
  8
LAYER_1
 10
3.470670127138195
 20
1.901097754533505
 30
0.0
  0
VERTEX
  5
93C
  8
LAYER_1
 10
3.469360742079967
 20
1.896522955980611
 30
0.0
  0
VERTEX
  5
93D
  8
LAYER_1
 10
3.465360794726527
 20
1.88406299121527
 30
0.0
  0
VERTEX
  5
93E
  8
LAYER_1
 10
3.46093415899978
 20
1.868955503591201
 30
0.0
  0
VERTEX
  5
93F
  8
LAYER_1
 10
3.45909141347492
 20
1.861071301464897
 30
0.0
  0
VERTEX
  5
940
  8
LAYER_1
 10
3.457778692430936
 20
1.853320053933216
 30
0.0
  0
VERTEX
  5
941
  8
LAYER_1
 10
3.457208228059229
 20
1.845966706099257
 30
0.0
  0
VERTEX
  5
942
  8
LAYER_1
 10
3.457592252551201
 20
1.839276203066122
 30
0.0
  0
VERTEX
  5
943
  8
LAYER_1
 10
3.45820852068088
 20
1.836262313694583
 30
0.0
  0
VERTEX
  5
944
  8
LAYER_1
 10
3.459142998098253
 20
1.833513489936914
 30
0.0
  0
VERTEX
  5
945
  8
LAYER_1
 10
3.460422213827246
 20
1.831062849931
 30
0.0
  0
VERTEX
  5
946
  8
LAYER_1
 10
3.462072696891785
 20
1.828943511814731
 30
0.0
  0
VERTEX
  5
947
  8
LAYER_1
 10
3.464120976315794
 20
1.827188593725994
 30
0.0
  0
VERTEX
  5
948
  8
LAYER_1
 10
3.466593581123199
 20
1.825831213802677
 30
0.0
  0
VERTEX
  5
949
  8
LAYER_1
 10
3.469517040337924
 20
1.824904490182667
 30
0.0
  0
VERTEX
  5
94A
  8
LAYER_1
 10
3.472917882983896
 20
1.824441541003852
 30
0.0
  0
VERTEX
  5
94B
  8
LAYER_1
 10
3.587604927835241
 20
1.916899224203111
 30
0.0
  0
VERTEX
  5
94C
  8
LAYER_1
 10
3.588936307604536
 20
1.915945908064195
 30
0.0
  0
VERTEX
  5
94D
  8
LAYER_1
 10
3.589994727241873
 20
1.914545653573717
 30
0.0
  0
VERTEX
  5
94E
  8
LAYER_1
 10
3.590804264307017
 20
1.912730811286142
 30
0.0
  0
VERTEX
  5
94F
  8
LAYER_1
 10
3.591388996359734
 20
1.910533731755934
 30
0.0
  0
VERTEX
  5
950
  8
LAYER_1
 10
3.591980355666936
 20
1.905122263185486
 30
0.0
  0
VERTEX
  5
951
  8
LAYER_1
 10
3.591961425641596
 20
1.898570052298097
 30
0.0
  0
VERTEX
  5
952
  8
LAYER_1
 10
3.590863179505745
 20
1.883078621315389
 30
0.0
  0
VERTEX
  5
953
  8
LAYER_1
 10
3.589635221777097
 20
1.866129874293603
 30
0.0
  0
VERTEX
  5
954
  8
LAYER_1
 10
3.58945415226076
 20
1.857756018357366
 30
0.0
  0
VERTEX
  5
955
  8
LAYER_1
 10
3.589818516280568
 20
1.84979424671853
 30
0.0
  0
VERTEX
  5
956
  8
LAYER_1
 10
3.590920934314634
 20
1.842503363812821
 30
0.0
  0
VERTEX
  5
957
  8
LAYER_1
 10
3.591809107486425
 20
1.839190382021052
 30
0.0
  0
VERTEX
  5
958
  8
LAYER_1
 10
3.592954026841074
 20
1.83614217407596
 30
0.0
  0
VERTEX
  5
959
  8
LAYER_1
 10
3.594379769938345
 20
1.833391090532013
 30
0.0
  0
VERTEX
  5
95A
  8
LAYER_1
 10
3.596110414338002
 20
1.830969481943674
 30
0.0
  0
VERTEX
  5
95B
  8
LAYER_1
 10
3.598170037599809
 20
1.82890969886541
 30
0.0
  0
VERTEX
  5
95C
  8
LAYER_1
 10
3.600582717283532
 20
1.827244091851685
 30
0.0
  0
VERTEX
  5
95D
  8
LAYER_1
 10
3.603372530948934
 20
1.826005011456966
 30
0.0
  0
VERTEX
  5
95E
  8
LAYER_1
 10
3.60656355615578
 20
1.825224808235718
 30
0.0
  0
VERTEX
  5
95F
  8
LAYER_1
 10
3.610179870463833
 20
1.824935832742406
 30
0.0
  0
VERTEX
  5
960
  8
LAYER_1
 10
3.614245551432859
 20
1.825170435531496
 30
0.0
  0
VERTEX
  5
961
  8
LAYER_1
 10
3.619302091599221
 20
1.826070571573323
 30
0.0
  0
VERTEX
  5
962
  8
LAYER_1
 10
3.624683477607593
 20
1.827587930067111
 30
0.0
  0
VERTEX
  5
963
  8
LAYER_1
 10
3.630348768205208
 20
1.829675505181437
 30
0.0
  0
VERTEX
  5
964
  8
LAYER_1
 10
3.636257022139299
 20
1.832286291084876
 30
0.0
  0
VERTEX
  5
965
  8
LAYER_1
 10
3.648638655005839
 20
1.838889471933405
 30
0.0
  0
VERTEX
  5
966
  8
LAYER_1
 10
3.661500846185077
 20
1.847021425961312
 30
0.0
  0
VERTEX
  5
967
  8
LAYER_1
 10
3.674516065654876
 20
1.856306106517212
 30
0.0
  0
VERTEX
  5
968
  8
LAYER_1
 10
3.687356783393096
 20
1.866367466949719
 30
0.0
  0
VERTEX
  5
969
  8
LAYER_1
 10
3.699695469377603
 20
1.876829460607449
 30
0.0
  0
VERTEX
  5
96A
  8
LAYER_1
 10
3.711204593586258
 20
1.887316040839014
 30
0.0
  0
VERTEX
  5
96B
  8
LAYER_1
 10
3.721556625996924
 20
1.897451160993031
 30
0.0
  0
VERTEX
  5
96C
  8
LAYER_1
 10
3.730424036587463
 20
1.906858774418113
 30
0.0
  0
VERTEX
  5
96D
  8
LAYER_1
 10
3.737479295335739
 20
1.915162834462874
 30
0.0
  0
VERTEX
  5
96E
  8
LAYER_1
 10
3.742394872219613
 20
1.92198729447593
 30
0.0
  0
VERTEX
  5
96F
  8
LAYER_1
 10
3.743947926830482
 20
1.924727159892011
 30
0.0
  0
VERTEX
  5
970
  8
LAYER_1
 10
3.744843237216949
 20
1.926956107805895
 30
0.0
  0
VERTEX
  5
971
  8
LAYER_1
 10
3.745039862126247
 20
1.92862713238616
 30
0.0
  0
VERTEX
  5
972
  8
LAYER_1
 10
3.744496860305609
 20
1.929693227801383
 30
0.0
  0
VERTEX
  5
973
  8
LAYER_1
 10
3.743173290502268
 20
1.93010738822014
 30
0.0
  0
VERTEX
  5
974
  8
LAYER_1
 10
3.741028211463457
 20
1.929822607811009
 30
0.0
  0
VERTEX
  5
975
  8
LAYER_1
 10
3.738020681936408
 20
1.928791880742565
 30
0.0
  0
VERTEX
  5
976
  8
LAYER_1
 10
3.734109760668355
 20
1.926968201183387
 30
0.0
  0
VERTEX
  5
977
  8
LAYER_1
 10
3.726376435061094
 20
1.92250107496266
 30
0.0
  0
VERTEX
  5
978
  8
LAYER_1
 10
3.718164907557572
 20
1.91689784499495
 30
0.0
  0
VERTEX
  5
979
  8
LAYER_1
 10
3.70074059318889
 20
1.903347953657027
 30
0.0
  0
VERTEX
  5
97A
  8
LAYER_1
 10
3.682703510216594
 20
1.888448286846518
 30
0.0
  0
VERTEX
  5
97B
  8
LAYER_1
 10
3.673726021958556
 20
1.881157837538075
 30
0.0
  0
VERTEX
  5
97C
  8
LAYER_1
 10
3.66492035129497
 20
1.874328604240322
 30
0.0
  0
VERTEX
  5
97D
  8
LAYER_1
 10
3.656394834807624
 20
1.868226806912872
 30
0.0
  0
VERTEX
  5
97E
  8
LAYER_1
 10
3.648257809078301
 20
1.863118665515338
 30
0.0
  0
VERTEX
  5
97F
  8
LAYER_1
 10
3.64061761068879
 20
1.859270400007332
 30
0.0
  0
VERTEX
  5
980
  8
LAYER_1
 10
3.637017676928271
 20
1.85790191444928
 30
0.0
  0
VERTEX
  5
981
  8
LAYER_1
 10
3.633582576220874
 20
1.856948230348466
 30
0.0
  0
VERTEX
  5
982
  8
LAYER_1
 10
3.630325850639323
 20
1.856442625199839
 30
0.0
  0
VERTEX
  5
983
  8
LAYER_1
 10
3.62726104225634
 20
1.856418376498352
 30
0.0
  0
VERTEX
  5
984
  8
LAYER_1
 10
3.624401693144648
 20
1.856908761738957
 30
0.0
  0
VERTEX
  5
985
  8
LAYER_1
 10
3.621761345376972
 20
1.857947058416604
 30
0.0
  0
VERTEX
  5
986
  8
LAYER_1
 10
3.619353541026034
 20
1.859566544026246
 30
0.0
  0
VERTEX
  5
987
  8
LAYER_1
 10
3.617191822164556
 20
1.861800496062834
 30
0.0
  0
VERTEX
  5
988
  8
LAYER_1
 10
3.615289730865264
 20
1.864682192021319
 30
0.0
  0
VERTEX
  5
989
  8
LAYER_1
 10
3.61366080920088
 20
1.868244909396654
 30
0.0
  0
VERTEX
  5
98A
  8
LAYER_1
 10
3.612041213453861
 20
1.87321971339377
 30
0.0
  0
VERTEX
  5
98B
  8
LAYER_1
 10
3.611022791486348
 20
1.877986060446335
 30
0.0
  0
VERTEX
  5
98C
  8
LAYER_1
 10
3.610571901708419
 20
1.882550815579952
 30
0.0
  0
VERTEX
  5
98D
  8
LAYER_1
 10
3.610654902530155
 20
1.886920843820228
 30
0.0
  0
VERTEX
  5
98E
  8
LAYER_1
 10
3.611238152361636
 20
1.891103010192765
 30
0.0
  0
VERTEX
  5
98F
  8
LAYER_1
 10
3.612288009612943
 20
1.895104179723169
 30
0.0
  0
VERTEX
  5
990
  8
LAYER_1
 10
3.613770832694156
 20
1.898931217437044
 30
0.0
  0
VERTEX
  5
991
  8
LAYER_1
 10
3.615652980015356
 20
1.902590988359995
 30
0.0
  0
VERTEX
  5
992
  8
LAYER_1
 10
3.617900809986622
 20
1.906090357517625
 30
0.0
  0
VERTEX
  5
993
  8
LAYER_1
 10
3.620480681018035
 20
1.909436189935541
 30
0.0
  0
VERTEX
  5
994
  8
LAYER_1
 10
3.626501979901625
 20
1.915694704654643
 30
0.0
  0
VERTEX
  5
995
  8
LAYER_1
 10
3.633447743946766
 20
1.921421452722137
 30
0.0
  0
VERTEX
  5
996
  8
LAYER_1
 10
3.641048840434101
 20
1.926671354342858
 30
0.0
  0
VERTEX
  5
997
  8
LAYER_1
 10
3.649036136644275
 20
1.931499329721644
 30
0.0
  0
VERTEX
  5
998
  8
LAYER_1
 10
3.657140499857928
 20
1.935960299063328
 30
0.0
  0
VERTEX
  5
999
  8
LAYER_1
 10
3.672623896418247
 20
1.94400090045474
 30
0.0
  0
VERTEX
  5
99A
  8
LAYER_1
 10
3.679464664326197
 20
1.947690372914139
 30
0.0
  0
VERTEX
  5
99B
  8
LAYER_1
 10
3.685345968360197
 20
1.95123252015578
 30
0.0
  0
VERTEX
  5
99C
  8
LAYER_1
 10
3.689998675800891
 20
1.954682262384501
 30
0.0
  0
VERTEX
  5
99D
  8
LAYER_1
 10
3.691780201823949
 20
1.956389644183027
 30
0.0
  0
VERTEX
  5
99E
  8
LAYER_1
 10
3.693153653928921
 20
1.958094519805136
 30
0.0
  0
VERTEX
  5
99F
  8
LAYER_1
 10
3.694609647774107
 20
1.960608804596128
 30
0.0
  0
VERTEX
  5
9A0
  8
LAYER_1
 10
3.695776300644423
 20
1.963399004753807
 30
0.0
  0
VERTEX
  5
9A1
  8
LAYER_1
 10
3.696656895465309
 20
1.966413814124158
 30
0.0
  0
VERTEX
  5
9A2
  8
LAYER_1
 10
3.697254715162209
 20
1.969601926553164
 30
0.0
  0
VERTEX
  5
9A3
  8
LAYER_1
 10
3.697615160885817
 20
1.976292835971071
 30
0.0
  0
VERTEX
  5
9A4
  8
LAYER_1
 10
3.696883901218782
 20
1.983061283775394
 30
0.0
  0
VERTEX
  5
9A5
  8
LAYER_1
 10
3.695087199564638
 20
1.989496820733998
 30
0.0
  0
VERTEX
  5
9A6
  8
LAYER_1
 10
3.693797515306005
 20
1.992461482261115
 30
0.0
  0
VERTEX
  5
9A7
  8
LAYER_1
 10
3.692251319326922
 20
1.995188997614752
 30
0.0
  0
VERTEX
  5
9A8
  8
LAYER_1
 10
3.69045189455283
 20
1.997628060640892
 30
0.0
  0
VERTEX
  5
9A9
  8
LAYER_1
 10
3.68840252390917
 20
1.999727365185518
 30
0.0
  0
VERTEX
  5
9AA
  8
LAYER_1
 10
3.686106490321385
 20
2.001435605094614
 30
0.0
  0
VERTEX
  5
9AB
  8
LAYER_1
 10
3.683567076714917
 20
2.002701474214164
 30
0.0
  0
VERTEX
  5
9AC
  8
LAYER_1
 10
3.680844378022152
 20
2.003534079814134
 30
0.0
  0
VERTEX
  5
9AD
  8
LAYER_1
 10
3.678033812087839
 20
2.003971763561611
 30
0.0
  0
VERTEX
  5
9AE
  8
LAYER_1
 10
3.67513416573866
 20
2.004029276036641
 30
0.0
  0
VERTEX
  5
9AF
  8
LAYER_1
 10
3.672144225801299
 20
2.003721367819269
 30
0.0
  0
VERTEX
  5
9B0
  8
LAYER_1
 10
3.665888612468761
 20
2.002068291627504
 30
0.0
  0
VERTEX
  5
9B1
  8
LAYER_1
 10
3.659257266703688
 20
1.999130539626685
 30
0.0
  0
VERTEX
  5
9B2
  8
LAYER_1
 10
3.652240483119543
 20
1.995026116457179
 30
0.0
  0
VERTEX
  5
9B3
  8
LAYER_1
 10
3.644828556329788
 20
1.989873026759353
 30
0.0
  0
VERTEX
  5
9B4
  8
LAYER_1
 10
3.63701178094789
 20
1.983789275173577
 30
0.0
  0
VERTEX
  5
9B5
  8
LAYER_1
 10
3.628780451587309
 20
1.976892866340215
 30
0.0
  0
VERTEX
  5
9B6
  8
LAYER_1
 10
3.611035309383956
 20
1.961134095492212
 30
0.0
  0
VERTEX
  5
9B7
  8
LAYER_1
 10
3.591515486627438
 20
1.943540751338284
 30
0.0
  0
VERTEX
  5
9B8
  8
LAYER_1
 10
3.570143340225461
 20
1.925056871001374
 30
0.0
  0
VERTEX
  5
9B9
  8
LAYER_1
 10
3.558738382191084
 20
1.915775991365219
 30
0.0
  0
VERTEX
  5
9BA
  8
LAYER_1
 10
3.546841227085732
 20
1.906626491604422
 30
0.0
  0
VERTEX
  5
9BB
  8
LAYER_1
 10
3.536761716950769
 20
1.898011710353303
 30
0.0
  0
VERTEX
  5
9BC
  8
LAYER_1
 10
3.531346817491579
 20
1.893240319691492
 30
0.0
  0
VERTEX
  5
9BD
  8
LAYER_1
 10
3.525840904427292
 20
1.88885351615019
 30
0.0
  0
VERTEX
  5
9BE
  8
LAYER_1
 10
3.520363289749941
 20
1.885371740087905
 30
0.0
  0
VERTEX
  5
9BF
  8
LAYER_1
 10
3.517672379303877
 20
1.884132874973427
 30
0.0
  0
VERTEX
  5
9C0
  8
LAYER_1
 10
3.515033285451559
 20
1.883315431863144
 30
0.0
  0
VERTEX
  5
9C1
  8
LAYER_1
 10
3.51246092219199
 20
1.882984465801868
 30
0.0
  0
VERTEX
  5
9C2
  8
LAYER_1
 10
3.509970203524176
 20
1.883205031834414
 30
0.0
  0
VERTEX
  5
9C3
  8
LAYER_1
 10
3.50757604344712
 20
1.884042185005594
 30
0.0
  0
VERTEX
  5
9C4
  8
LAYER_1
 10
3.505293355959826
 20
1.885560980360223
 30
0.0
  0
VERTEX
  5
9C5
  8
LAYER_1
 10
3.504655297561836
 20
1.88713339341047
 30
0.0
  0
VERTEX
  5
9C6
  8
LAYER_1
 10
3.504681858010871
 20
1.890193942501299
 30
0.0
  0
VERTEX
  5
9C7
  8
LAYER_1
 10
3.505379404567881
 20
1.894716968779437
 30
0.0
  0
VERTEX
  5
9C8
  8
LAYER_1
 10
3.506754304493815
 20
1.900676813391611
 30
0.0
  0
VERTEX
  5
9C9
  8
LAYER_1
 10
3.511561633496248
 20
1.916804322204968
 30
0.0
  0
VERTEX
  5
9CA
  8
LAYER_1
 10
3.519154783105758
 20
1.93837119811518
 30
0.0
  0
VERTEX
  5
9CB
  8
LAYER_1
 10
3.529584691409934
 20
1.965172170296058
 30
0.0
  0
VERTEX
  5
9CC
  8
LAYER_1
 10
3.542902296496367
 20
1.997001967921412
 30
0.0
  0
VERTEX
  5
9CD
  8
LAYER_1
 10
3.559158536452644
 20
2.033655320165052
 30
0.0
  0
VERTEX
  5
9CE
  8
LAYER_1
 10
3.578404349366355
 20
2.074926956200787
 30
0.0
  0
VERTEX
  5
9CF
  8
LAYER_1
 10
3.585760991702411
 20
2.088857659554999
 30
0.0
  0
VERTEX
  5
9D0
  8
LAYER_1
 10
3.594922704985935
 20
2.104840244480393
 30
0.0
  0
VERTEX
  5
9D1
  8
LAYER_1
 10
3.604468860143635
 20
2.121770071656103
 30
0.0
  0
VERTEX
  5
9D2
  8
LAYER_1
 10
3.608942156839898
 20
2.130245001300055
 30
0.0
  0
VERTEX
  5
9D3
  8
LAYER_1
 10
3.61297882810222
 20
2.138542501761261
 30
0.0
  0
VERTEX
  5
9D4
  8
LAYER_1
 10
3.616401295296439
 20
2.146524493124613
 30
0.0
  0
VERTEX
  5
9D5
  8
LAYER_1
 10
3.619031979788395
 20
2.154052895475002
 30
0.0
  0
VERTEX
  5
9D6
  8
LAYER_1
 10
3.620693302943926
 20
2.16098962889732
 30
0.0
  0
VERTEX
  5
9D7
  8
LAYER_1
 10
3.62120768612887
 20
2.16719661347646
 30
0.0
  0
VERTEX
  5
9D8
  8
LAYER_1
 10
3.620979281909197
 20
2.169983299976366
 30
0.0
  0
VERTEX
  5
9D9
  8
LAYER_1
 10
3.620397550709066
 20
2.172535769297311
 30
0.0
  0
VERTEX
  5
9DA
  8
LAYER_1
 10
3.619440295199208
 20
2.174836761449907
 30
0.0
  0
VERTEX
  5
9DB
  8
LAYER_1
 10
3.618085318050352
 20
2.176869016444766
 30
0.0
  0
VERTEX
  5
9DC
  8
LAYER_1
 10
3.616310421933228
 20
2.178615274292499
 30
0.0
  0
VERTEX
  5
9DD
  8
LAYER_1
 10
3.614093409518566
 20
2.180058275003717
 30
0.0
  0
VERTEX
  5
9DE
  8
LAYER_1
 10
3.611412083477096
 20
2.181180758589031
 30
0.0
  0
VERTEX
  5
9DF
  8
LAYER_1
 10
3.608244246479547
 20
2.181965465059055
 30
0.0
  0
VERTEX
  5
9E0
  8
LAYER_1
 10
3.604306540204326
 20
2.182210745898858
 30
0.0
  0
VERTEX
  5
9E1
  8
LAYER_1
 10
3.600715630891251
 20
2.181536605761132
 30
0.0
  0
VERTEX
  5
9E2
  8
LAYER_1
 10
3.597442247923215
 20
2.180034299635683
 30
0.0
  0
VERTEX
  5
9E3
  8
LAYER_1
 10
3.594457120683107
 20
2.177795082512312
 30
0.0
  0
VERTEX
  5
9E4
  8
LAYER_1
 10
3.591730978553819
 20
2.174910209380823
 30
0.0
  0
VERTEX
  5
9E5
  8
LAYER_1
 10
3.589234550918239
 20
2.171470935231018
 30
0.0
  0
VERTEX
  5
9E6
  8
LAYER_1
 10
3.58693856715926
 20
2.1675685150527
 30
0.0
  0
VERTEX
  5
9E7
  8
LAYER_1
 10
3.584813756659771
 20
2.163294203835673
 30
0.0
  0
VERTEX
  5
9E8
  8
LAYER_1
 10
3.580960572970829
 20
2.153994928244703
 30
0.0
  0
VERTEX
  5
9E9
  8
LAYER_1
 10
3.577440834914537
 20
2.144303148376532
 30
0.0
  0
VERTEX
  5
9EA
  8
LAYER_1
 10
3.57402037755402
 20
2.134948904149584
 30
0.0
  0
VERTEX
  5
9EB
  8
LAYER_1
 10
3.570465035952402
 20
2.126662235482283
 30
0.0
  0
VERTEX
  5
9EC
  8
LAYER_1
 10
3.563620912383656
 20
2.112190818800176
 30
0.0
  0
VERTEX
  5
9ED
  8
LAYER_1
 10
3.557083331692655
 20
2.097367639199533
 30
0.0
  0
VERTEX
  5
9EE
  8
LAYER_1
 10
3.54454222436093
 20
2.067045371478146
 30
0.0
  0
VERTEX
  5
9EF
  8
LAYER_1
 10
3.532070564791312
 20
2.036454192789146
 30
0.0
  0
VERTEX
  5
9F0
  8
LAYER_1
 10
3.525619793802944
 20
2.021294874478984
 30
0.0
  0
VERTEX
  5
9F1
  8
LAYER_1
 10
3.518897203817884
 20
2.006352863603554
 30
0.0
  0
VERTEX
  5
9F2
  8
LAYER_1
 10
3.511806401190393
 20
1.99172300522173
 30
0.0
  0
VERTEX
  5
9F3
  8
LAYER_1
 10
3.504250992274732
 20
1.977500144392392
 30
0.0
  0
VERTEX
  5
9F4
  8
LAYER_1
 10
3.49613458342516
 20
1.963779126174417
 30
0.0
  0
VERTEX
  5
9F5
  8
LAYER_1
 10
3.48736078099594
 20
1.950654795626683
 30
0.0
  0
VERTEX
  5
9F6
  8
LAYER_1
 10
3.47783319134133
 20
1.938221997808067
 30
0.0
  0
VERTEX
  5
9F7
  8
LAYER_1
 10
3.47275660329021
 20
1.932294562753079
 30
0.0
  0
VERTEX
  5
9F8
  8
LAYER_1
 10
3.467455420815591
 20
1.926575577777448
 30
0.0
  0
VERTEX
  5
9F9
  8
LAYER_1
 10
3.461917594711756
 20
1.921076898513537
 30
0.0
  0
VERTEX
  5
9FA
  8
LAYER_1
 10
3.456131075772986
 20
1.915810380593703
 30
0.0
  0
VERTEX
  5
9FB
  8
LAYER_1
 10
3.450083814793564
 20
1.910787879650308
 30
0.0
  0
VERTEX
  5
9FC
  8
LAYER_1
 10
3.443763762567773
 20
1.90602125131571
 30
0.0
  0
VERTEX
  5
9FD
  8
LAYER_1
 10
3.431092980808359
 20
1.896961848019526
 30
0.0
  0
VERTEX
  5
9FE
  8
LAYER_1
 10
3.415844239021381
 20
1.886420116439752
 30
0.0
  0
VERTEX
  5
9FF
  8
LAYER_1
 10
3.399305042817434
 20
1.875778501085319
 30
0.0
  0
VERTEX
  5
A00
  8
LAYER_1
 10
3.390953869812409
 20
1.870852250901646
 30
0.0
  0
VERTEX
  5
A01
  8
LAYER_1
 10
3.382762897807115
 20
1.866419446465155
 30
0.0
  0
VERTEX
  5
A02
  8
LAYER_1
 10
3.374893065002878
 20
1.862652893339464
 30
0.0
  0
VERTEX
  5
A03
  8
LAYER_1
 10
3.36750530960102
 20
1.859725397088189
 30
0.0
  0
VERTEX
  5
A04
  8
LAYER_1
 10
3.360760569802868
 20
1.857809763274946
 30
0.0
  0
VERTEX
  5
A05
  8
LAYER_1
 10
3.354819783809746
 20
1.85707879746335
 30
0.0
  0
VERTEX
  5
A06
  8
LAYER_1
 10
3.352201166677984
 20
1.8572115667968
 30
0.0
  0
VERTEX
  5
A07
  8
LAYER_1
 10
3.349843889822977
 20
1.857705305217019
 30
0.0
  0
VERTEX
  5
A08
  8
LAYER_1
 10
3.347768070519889
 20
1.858581613419457
 30
0.0
  0
VERTEX
  5
A09
  8
LAYER_1
 10
3.345993826043887
 20
1.859862092099567
 30
0.0
  0
VERTEX
  5
A0A
  8
LAYER_1
 10
3.344541273670136
 20
1.861568341952802
 30
0.0
  0
VERTEX
  5
A0B
  8
LAYER_1
 10
3.3434305306738
 20
1.863721963674612
 30
0.0
  0
VERTEX
  5
A0C
  8
LAYER_1
 10
3.342681714330046
 20
1.866344557960451
 30
0.0
  0
VERTEX
  5
A0D
  8
LAYER_1
 10
3.342314941914041
 20
1.869457725505769
 30
0.0
  0
VERTEX
  5
A0E
  8
LAYER_1
 10
3.34225752599551
 20
1.876290540618077
 30
0.0
  0
VERTEX
  5
A0F
  8
LAYER_1
 10
3.342747097269887
 20
1.883076211183834
 30
0.0
  0
VERTEX
  5
A10
  8
LAYER_1
 10
3.343743474635377
 20
1.889810650633542
 30
0.0
  0
VERTEX
  5
A11
  8
LAYER_1
 10
3.345206476990191
 20
1.896489772397707
 30
0.0
  0
VERTEX
  5
A12
  8
LAYER_1
 10
3.347095923232537
 20
1.903109489906833
 30
0.0
  0
VERTEX
  5
A13
  8
LAYER_1
 10
3.349371632260624
 20
1.909665716591424
 30
0.0
  0
VERTEX
  5
A14
  8
LAYER_1
 10
3.354921114266856
 20
1.922571351209016
 30
0.0
  0
VERTEX
  5
A15
  8
LAYER_1
 10
3.361533474194554
 20
1.935173983694515
 30
0.0
  0
VERTEX
  5
A16
  8
LAYER_1
 10
3.36888726322939
 20
1.947440921491954
 30
0.0
  0
VERTEX
  5
A17
  8
LAYER_1
 10
3.384533333363152
 20
1.97083694279878
 30
0.0
  0
VERTEX
  5
A18
  8
LAYER_1
 10
3.388241747103409
 20
1.975456877998324
 30
0.0
  0
VERTEX
  5
A19
  8
LAYER_1
 10
3.392394766458274
 20
1.979389811805862
 30
0.0
  0
VERTEX
  5
A1A
  8
LAYER_1
 10
3.39689527977568
 20
1.982709711942715
 30
0.0
  0
VERTEX
  5
A1B
  8
LAYER_1
 10
3.401646175403559
 20
1.985490546130206
 30
0.0
  0
VERTEX
  5
A1C
  8
LAYER_1
 10
3.406550341689842
 20
1.987806282089658
 30
0.0
  0
VERTEX
  5
A1D
  8
LAYER_1
 10
3.411510666982462
 20
1.989730887542393
 30
0.0
  0
VERTEX
  5
A1E
  8
LAYER_1
 10
3.421211347978439
 20
1.992702577812998
 30
0.0
  0
VERTEX
  5
A1F
  8
LAYER_1
 10
3.429971325174945
 20
1.9949973587126
 30
0.0
  0
VERTEX
  5
A20
  8
LAYER_1
 10
3.437013705355437
 20
1.997206972011778
 30
0.0
  0
VERTEX
  5
A21
  8
LAYER_1
 10
3.439648017434508
 20
1.998464760114512
 30
0.0
  0
VERTEX
  5
A22
  8
LAYER_1
 10
3.441561595303371
 20
1.999923159481107
 30
0.0
  0
VERTEX
  5
A23
  8
LAYER_1
 10
3.442657327309958
 20
2.001656137832884
 30
0.0
  0
VERTEX
  5
A24
  8
LAYER_1
 10
3.442838101802201
 20
2.003737662891167
 30
0.0
  0
VERTEX
  5
A25
  8
LAYER_1
 10
3.442331842681879
 20
2.006160562960987
 30
0.0
  0
VERTEX
  5
A26
  8
LAYER_1
 10
3.441527214180123
 20
2.008251777970483
 30
0.0
  0
VERTEX
  5
A27
  8
LAYER_1
 10
3.440441144681577
 20
2.010024010158139
 30
0.0
  0
VERTEX
  5
A28
  8
LAYER_1
 10
3.439090562570886
 20
2.01148996176244
 30
0.0
  0
VERTEX
  5
A29
  8
LAYER_1
 10
3.437492396232694
 20
2.012662335021874
 30
0.0
  0
VERTEX
  5
A2A
  8
LAYER_1
 10
3.435663574051647
 20
2.013553832174924
 30
0.0
  0
VERTEX
  5
A2B
  8
LAYER_1
 10
3.431381675699563
 20
2.014545007115818
 30
0.0
  0
VERTEX
  5
A2C
  8
LAYER_1
 10
3.426380294591794
 20
2.014565104493006
 30
0.0
  0
VERTEX
  5
A2D
  8
LAYER_1
 10
3.420794857805498
 20
2.01371574221437
 30
0.0
  0
VERTEX
  5
A2E
  8
LAYER_1
 10
3.414760792417831
 20
2.012098538187796
 30
0.0
  0
VERTEX
  5
A2F
  8
LAYER_1
 10
3.408413525505952
 20
2.009815110321166
 30
0.0
  0
VERTEX
  5
A30
  8
LAYER_1
 10
3.401888484147017
 20
2.006967076522364
 30
0.0
  0
VERTEX
  5
A31
  8
LAYER_1
 10
3.395321095418186
 20
2.003656054699275
 30
0.0
  0
VERTEX
  5
A32
  8
LAYER_1
 10
3.388846786396615
 20
1.999983662759782
 30
0.0
  0
VERTEX
  5
A33
  8
LAYER_1
 10
3.382600984159464
 20
1.996051518611769
 30
0.0
  0
VERTEX
  5
A34
  8
LAYER_1
 10
3.376719115783889
 20
1.99196124016312
 30
0.0
  0
VERTEX
  5
A35
  8
LAYER_1
 10
3.371336608347048
 20
1.987814445321718
 30
0.0
  0
VERTEX
  5
A36
  8
LAYER_1
 10
3.366588888926099
 20
1.983712751995447
 30
0.0
  0
VERTEX
  5
A37
  8
LAYER_1
 10
3.362611384598201
 20
1.979757778092192
 30
0.0
  0
VERTEX
  5
A38
  8
LAYER_1
 10
3.328846932775777
 20
1.942968327478301
 30
0.0
  0
VERTEX
  5
A39
  8
LAYER_1
 10
3.313382495859681
 20
1.926714291336138
 30
0.0
  0
VERTEX
  5
A3A
  8
LAYER_1
 10
3.298892296591899
 20
1.912564588253926
 30
0.0
  0
VERTEX
  5
A3B
  8
LAYER_1
 10
3.292019343494463
 20
1.90643758198923
 30
0.0
  0
VERTEX
  5
A3C
  8
LAYER_1
 10
3.28539811871111
 20
1.901027123444237
 30
0.0
  0
VERTEX
  5
A3D
  8
LAYER_1
 10
3.279031345209174
 20
1.896396700770517
 30
0.0
  0
VERTEX
  5
A3E
  8
LAYER_1
 10
3.272921745955991
 20
1.892609802119642
 30
0.0
  0
VERTEX
  5
A3F
  8
LAYER_1
 10
3.267072043918894
 20
1.889729915643184
 30
0.0
  0
VERTEX
  5
A40
  8
LAYER_1
 10
3.261484962065219
 20
1.887820529492714
 30
0.0
  0
VERTEX
  5
A41
  8
LAYER_1
 10
3.2561632233623
 20
1.886945131819803
 30
0.0
  0
VERTEX
  5
A42
  8
LAYER_1
 10
3.251109550777473
 20
1.887167210776024
 30
0.0
  0
VERTEX
  5
A43
  8
LAYER_1
 10
3.248154051474745
 20
1.887953405287177
 30
0.0
  0
VERTEX
  5
A44
  8
LAYER_1
 10
3.245840716039625
 20
1.889230398631646
 30
0.0
  0
VERTEX
  5
A45
  8
LAYER_1
 10
3.244126725081435
 20
1.890965416956713
 30
0.0
  0
VERTEX
  5
A46
  8
LAYER_1
 10
3.242969259209497
 20
1.893125686409662
 30
0.0
  0
VERTEX
  5
A47
  8
LAYER_1
 10
3.242325499033132
 20
1.895678433137777
 30
0.0
  0
VERTEX
  5
A48
  8
LAYER_1
 10
3.242152625161663
 20
1.898590883288339
 30
0.0
  0
VERTEX
  5
A49
  8
LAYER_1
 10
3.242407818204411
 20
1.901830263008634
 30
0.0
  0
VERTEX
  5
A4A
  8
LAYER_1
 10
3.243048258770698
 20
1.905363798445944
 30
0.0
  0
VERTEX
  5
A4B
  8
LAYER_1
 10
3.245313604911178
 20
1.913182241060744
 30
0.0
  0
VERTEX
  5
A4C
  8
LAYER_1
 10
3.248606108457677
 20
1.921784020311005
 30
0.0
  0
VERTEX
  5
A4D
  8
LAYER_1
 10
3.256902367267031
 20
1.940288825430977
 30
0.0
  0
VERTEX
  5
A4E
  8
LAYER_1
 10
3.265196594195361
 20
1.958780687231995
 30
0.0
  0
VERTEX
  5
A4F
  8
LAYER_1
 10
3.26848655789058
 20
1.967366287333563
 30
0.0
  0
VERTEX
  5
A50
  8
LAYER_1
 10
3.270748348239267
 20
1.975162079140193
 30
0.0
  0
VERTEX
  5
A51
  8
LAYER_1
 10
3.271386629931966
 20
1.978681862301115
 30
0.0
  0
VERTEX
  5
A52
  8
LAYER_1
 10
3.271639410115998
 20
1.981905871830152
 30
0.0
  0
VERTEX
  5
A53
  8
LAYER_1
 10
3.271463869400685
 20
1.984801333874588
 30
0.0
  0
VERTEX
  5
A54
  8
LAYER_1
 10
3.270817188395348
 20
1.987335474581705
 30
0.0
  0
VERTEX
  5
A55
  8
LAYER_1
 10
3.269656547709309
 20
1.989475520098789
 30
0.0
  0
VERTEX
  5
A56
  8
LAYER_1
 10
3.267939127951891
 20
1.991188696573121
 30
0.0
  0
VERTEX
  5
A57
  8
LAYER_1
 10
3.265622109732415
 20
1.992442230151986
 30
0.0
  0
VERTEX
  5
A58
  8
LAYER_1
 10
3.262662673660203
 20
1.993203346982666
 30
0.0
  0
VERTEX
  5
A59
  8
LAYER_1
 10
3.254105366875709
 20
1.994269366877729
 30
0.0
  0
VERTEX
  5
A5A
  8
LAYER_1
 10
3.245882219915887
 20
1.994818706877085
 30
0.0
  0
VERTEX
  5
A5B
  8
LAYER_1
 10
3.237988383262215
 20
1.994882421474371
 30
0.0
  0
VERTEX
  5
A5C
  8
LAYER_1
 10
3.230419007396173
 20
1.994491565163228
 30
0.0
  0
VERTEX
  5
A5D
  8
LAYER_1
 10
3.22316924279924
 20
1.993677192437291
 30
0.0
  0
VERTEX
  5
A5E
  8
LAYER_1
 10
3.216234239952894
 20
1.992470357790199
 30
0.0
  0
VERTEX
  5
A5F
  8
LAYER_1
 10
3.209609149338615
 20
1.990902115715592
 30
0.0
  0
VERTEX
  5
A60
  8
LAYER_1
 10
3.203289121437882
 20
1.989003520707105
 30
0.0
  0
VERTEX
  5
A61
  8
LAYER_1
 10
3.197269306732173
 20
1.986805627258379
 30
0.0
  0
VERTEX
  5
A62
  8
LAYER_1
 10
3.191544855702968
 20
1.984339489863051
 30
0.0
  0
VERTEX
  5
A63
  8
LAYER_1
 10
3.186110918831745
 20
1.98163616301476
 30
0.0
  0
VERTEX
  5
A64
  8
LAYER_1
 10
3.180962646599983
 20
1.978726701207142
 30
0.0
  0
VERTEX
  5
A65
  8
LAYER_1
 10
3.171503697980762
 20
1.972413590688484
 30
0.0
  0
VERTEX
  5
A66
  8
LAYER_1
 10
3.163129213697134
 20
1.965648594256181
 30
0.0
  0
VERTEX
  5
A67
  8
LAYER_1
 10
3.155800397600933
 20
1.95868014785934
 30
0.0
  0
VERTEX
  5
A68
  8
LAYER_1
 10
3.14947845354399
 20
1.951756687447065
 30
0.0
  0
VERTEX
  5
A69
  8
LAYER_1
 10
3.144124585378136
 20
1.945126648968462
 30
0.0
  0
VERTEX
  5
A6A
  8
LAYER_1
 10
3.139699996955205
 20
1.939038468372636
 30
0.0
  0
VERTEX
  5
A6B
  8
LAYER_1
 10
3.133483474745437
 20
1.929481424625738
 30
0.0
  0
VERTEX
  5
A6C
  8
LAYER_1
 10
3.130518517729339
 20
1.925073043799213
 30
0.0
  0
VERTEX
  5
A6D
  8
LAYER_1
 10
3.117122648673075
 20
1.914960450914246
 30
0.0
  0
VERTEX
  5
A6E
  8
LAYER_1
 10
3.104739735673985
 20
1.906951216508775
 30
0.0
  0
VERTEX
  5
A6F
  8
LAYER_1
 10
3.093579161758034
 20
1.900838109557159
 30
0.0
  0
VERTEX
  5
A70
  8
LAYER_1
 10
3.083850309951187
 20
1.896413899033761
 30
0.0
  0
VERTEX
  5
A71
  8
LAYER_1
 10
3.075762563279411
 20
1.893471353912943
 30
0.0
  0
VERTEX
  5
A72
  8
LAYER_1
 10
3.069525304768671
 20
1.891803243169065
 30
0.0
  0
VERTEX
  5
A73
  8
LAYER_1
 10
3.065347917444933
 20
1.89120233577649
 30
0.0
  0
VERTEX
  5
A74
  8
LAYER_1
 10
3.063439784334164
 20
1.891461400709579
 30
0.0
  0
VERTEX
  5
A75
  8
LAYER_1
 10
3.061581880668656
 20
1.893737770537848
 30
0.0
  0
VERTEX
  5
A76
  8
LAYER_1
 10
3.060531751608039
 20
1.896520436698969
 30
0.0
  0
VERTEX
  5
A77
  8
LAYER_1
 10
3.060207734568529
 20
1.899789632606884
 30
0.0
  0
VERTEX
  5
A78
  8
LAYER_1
 10
3.060528166966341
 20
1.903525591675532
 30
0.0
  0
VERTEX
  5
A79
  8
LAYER_1
 10
3.061411386217693
 20
1.907708547318854
 30
0.0
  0
VERTEX
  5
A7A
  8
LAYER_1
 10
3.0627757297388
 20
1.912318732950789
 30
0.0
  0
VERTEX
  5
A7B
  8
LAYER_1
 10
3.066621139255148
 20
1.92274172783626
 30
0.0
  0
VERTEX
  5
A7C
  8
LAYER_1
 10
3.071411094845115
 20
1.934636443643466
 30
0.0
  0
VERTEX
  5
A7D
  8
LAYER_1
 10
3.076492295838431
 20
1.947844747683928
 30
0.0
  0
VERTEX
  5
A7E
  8
LAYER_1
 10
3.081211441564827
 20
1.962208507269166
 30
0.0
  0
VERTEX
  5
A7F
  8
LAYER_1
 10
3.083231087243471
 20
1.969774266425927
 30
0.0
  0
VERTEX
  5
A80
  8
LAYER_1
 10
3.084915231354034
 20
1.977569589710703
 30
0.0
  0
VERTEX
  5
A81
  8
LAYER_1
 10
3.085490051257596
 20
1.981599340444961
 30
0.0
  0
VERTEX
  5
A82
  8
LAYER_1
 10
3.085589430712372
 20
1.98498155579905
 30
0.0
  0
VERTEX
  5
A83
  8
LAYER_1
 10
3.085242969553841
 20
1.987750010495288
 30
0.0
  0
VERTEX
  5
A84
  8
LAYER_1
 10
3.084480267617486
 20
1.989938479255993
 30
0.0
  0
VERTEX
  5
A85
  8
LAYER_1
 10
3.08333092473879
 20
1.991580736803481
 30
0.0
  0
VERTEX
  5
A86
  8
LAYER_1
 10
3.081824540753233
 20
1.99271055786007
 30
0.0
  0
VERTEX
  5
A87
  8
LAYER_1
 10
3.079990715496297
 20
1.993361717148078
 30
0.0
  0
VERTEX
  5
A88
  8
LAYER_1
 10
3.077859048803466
 20
1.993567989389821
 30
0.0
  0
VERTEX
  5
A89
  8
LAYER_1
 10
3.075459140510221
 20
1.993363149307617
 30
0.0
  0
VERTEX
  5
A8A
  8
LAYER_1
 10
3.072820590452043
 20
1.992780971623783
 30
0.0
  0
VERTEX
  5
A8B
  8
LAYER_1
 10
3.066945964382817
 20
1.990619702340498
 30
0.0
  0
VERTEX
  5
A8C
  8
LAYER_1
 10
3.060471969279644
 20
1.987354379318503
 30
0.0
  0
VERTEX
  5
A8D
  8
LAYER_1
 10
3.053635403826379
 20
1.983255200336338
 30
0.0
  0
VERTEX
  5
A8E
  8
LAYER_1
 10
3.039821756604996
 20
1.973636065605652
 30
0.0
  0
VERTEX
  5
A8F
  8
LAYER_1
 10
3.027399412189509
 20
1.963923880376754
 30
0.0
  0
VERTEX
  5
A90
  8
LAYER_1
 10
3.014306189659588
 20
1.95286668733757
 30
0.0
  0
VERTEX
  5
A91
  8
LAYER_1
 10
3.008663687074965
 20
1.948019651517003
 30
0.0
  0
VERTEX
  5
A92
  8
LAYER_1
 10
3.003514740614246
 20
1.942967847126593
 30
0.0
  0
VERTEX
  5
A93
  8
LAYER_1
 10
2.994636636824027
 20
1.933571634097043
 30
0.0
  0
VERTEX
  5
A94
  8
LAYER_1
 10
2.990877039874283
 20
1.929888076188303
 30
0.0
  0
VERTEX
  5
A95
  8
LAYER_1
 10
2.987550119807953
 20
1.927321451170518
 30
0.0
  0
VERTEX
  5
A96
  8
LAYER_1
 10
2.986044157415405
 20
1.926560246422359
 30
0.0
  0
VERTEX
  5
A97
  8
LAYER_1
 10
2.984640656814914
 20
1.926202184408888
 30
0.0
  0
VERTEX
  5
A98
  8
LAYER_1
 10
2.983337715530215
 20
1.926288568300757
 30
0.0
  0
VERTEX
  5
A99
  8
LAYER_1
 10
2.982133431085044
 20
1.926860701268614
 30
0.0
  0
VERTEX
  5
A9A
  8
LAYER_1
 10
2.982278098979633
 20
1.927998315279177
 30
0.0
  0
VERTEX
  5
A9B
  8
LAYER_1
 10
2.983267554717792
 20
1.930752072400259
 30
0.0
  0
VERTEX
  5
A9C
  8
LAYER_1
 10
2.98704819144486
 20
1.940069126535087
 30
0.0
  0
VERTEX
  5
A9D
  8
LAYER_1
 10
2.992010064706324
 20
1.952734084795309
 30
0.0
  0
VERTEX
  5
A9E
  8
LAYER_1
 10
2.996687897942262
 20
1.966669168303135
 30
0.0
  0
VERTEX
  5
A9F
  8
LAYER_1
 10
2.998462400625683
 20
1.97346370112559
 30
0.0
  0
VERTEX
  5
AA0
  8
LAYER_1
 10
2.99961641459275
 20
1.979796598180776
 30
0.0
  0
VERTEX
  5
AA1
  8
LAYER_1
 10
2.999966780273473
 20
1.985408137108968
 30
0.0
  0
VERTEX
  5
AA2
  8
LAYER_1
 10
2.999783357640834
 20
1.987862234038027
 30
0.0
  0
VERTEX
  5
AA3
  8
LAYER_1
 10
2.999330338097864
 20
1.990038595550442
 30
0.0
  0
VERTEX
  5
AA4
  8
LAYER_1
 10
2.998584826698312
 20
1.991904756351247
 30
0.0
  0
VERTEX
  5
AA5
  8
LAYER_1
 10
2.99752392849593
 20
1.993428251145476
 30
0.0
  0
VERTEX
  5
AA6
  8
LAYER_1
 10
2.996124748544469
 20
1.994576614638164
 30
0.0
  0
VERTEX
  5
AA7
  8
LAYER_1
 10
2.994364391897681
 20
1.995317381534345
 30
0.0
  0
VERTEX
  5
AA8
  8
LAYER_1
 10
2.992219963609316
 20
1.995618086539054
 30
0.0
  0
VERTEX
  5
AA9
  8
LAYER_1
 10
2.989668568733127
 20
1.995446264357326
 30
0.0
  0
VERTEX
  5
AAA
  8
LAYER_1
 10
2.986687312322863
 20
1.994769449694194
 30
0.0
  0
VERTEX
  5
AAB
  8
LAYER_1
 10
2.983253299432278
 20
1.993555177254695
 30
0.0
  0
VERTEX
  5
AAC
  8
LAYER_1
 10
2.979312435794176
 20
1.991728473655924
 30
0.0
  0
VERTEX
  5
AAD
  8
LAYER_1
 10
2.977516492429323
 20
1.990540138277088
 30
0.0
  0
VERTEX
  5
AAE
  8
LAYER_1
 10
2.975981136172154
 20
1.989067479277965
 30
0.0
  0
VERTEX
  5
AAF
  8
LAYER_1
 10
2.917228959487235
 20
1.83902424494899
 30
0.0
  0
VERTEX
  5
AB0
  8
LAYER_1
 10
2.917744678600508
 20
1.837082762029851
 30
0.0
  0
VERTEX
  5
AB1
  8
LAYER_1
 10
2.918777409866647
 20
1.835297990384247
 30
0.0
  0
SEQEND
  5
C26
  8
LAYER_1
  0
POLYLINE
  5
87
  8
LAYER_1
 66
     1
 10
0.0
 20
0.0
 30
0.0
 70
     1
  0
VERTEX
  5
AB2
  8
LAYER_1
 10
1.788646627565982
 20
1.681209033524885
 30
0.0
  0
VERTEX
  5
AB3
  8
LAYER_1
 10
1.789494452406442
 20
1.674836840675902
 30
0.0
  0
VERTEX
  5
AB4
  8
LAYER_1
 10
1.790241665546642
 20
1.671436447398073
 30
0.0
  0
VERTEX
  5
AB5
  8
LAYER_1
 10
1.791265478997272
 20
1.668184963200462
 30
0.0
  0
VERTEX
  5
AB6
  8
LAYER_1
 10
1.792611692631172
 20
1.665301218319899
 30
0.0
  0
VERTEX
  5
AB7
  8
LAYER_1
 10
1.794326106321178
 20
1.663004042993216
 30
0.0
  0
VERTEX
  5
AB8
  8
LAYER_1
 10
1.79645451994013
 20
1.661512267457246
 30
0.0
  0
VERTEX
  5
AB9
  8
LAYER_1
 10
1.797688289183223
 20
1.661136789059787
 30
0.0
  0
VERTEX
  5
ABA
  8
LAYER_1
 10
1.799042733360866
 20
1.661044721948819
 30
0.0
  0
VERTEX
  5
ABB
  8
LAYER_1
 10
1.80225493202406
 20
1.661732733966018
 30
0.0
  0
VERTEX
  5
ABC
  8
LAYER_1
 10
1.80504596519641
 20
1.663463684757853
 30
0.0
  0
VERTEX
  5
ABD
  8
LAYER_1
 10
1.80746514214515
 20
1.666165865594172
 30
0.0
  0
VERTEX
  5
ABE
  8
LAYER_1
 10
1.809561772137511
 20
1.669767567744826
 30
0.0
  0
VERTEX
  5
ABF
  8
LAYER_1
 10
1.811385164440725
 20
1.674197082479664
 30
0.0
  0
VERTEX
  5
AC0
  8
LAYER_1
 10
1.812984628322024
 20
1.679382701068538
 30
0.0
  0
VERTEX
  5
AC1
  8
LAYER_1
 10
1.815709007887806
 20
1.691735414887788
 30
0.0
  0
VERTEX
  5
AC2
  8
LAYER_1
 10
1.818129384972713
 20
1.706252039361377
 30
0.0
  0
VERTEX
  5
AC3
  8
LAYER_1
 10
1.820640233714602
 20
1.722358904648103
 30
0.0
  0
VERTEX
  5
AC4
  8
LAYER_1
 10
1.82363602825133
 20
1.739482340906767
 30
0.0
  0
VERTEX
  5
AC5
  8
LAYER_1
 10
1.827511242720752
 20
1.757048678296167
 30
0.0
  0
VERTEX
  5
AC6
  8
LAYER_1
 10
1.834255246193863
 20
1.782372676663017
 30
0.0
  0
VERTEX
  5
AC7
  8
LAYER_1
 10
1.841461032283018
 20
1.806837762413983
 30
0.0
  0
VERTEX
  5
AC8
  8
LAYER_1
 10
1.849091064749134
 20
1.830361393786071
 30
0.0
  0
VERTEX
  5
AC9
  8
LAYER_1
 10
1.857107807353128
 20
1.852861029016287
 30
0.0
  0
VERTEX
  5
ACA
  8
LAYER_1
 10
1.865473723855916
 20
1.874254126341637
 30
0.0
  0
VERTEX
  5
ACB
  8
LAYER_1
 10
1.874151278018415
 20
1.894458143999128
 30
0.0
  0
VERTEX
  5
ACC
  8
LAYER_1
 10
1.883102933601543
 20
1.913390540225766
 30
0.0
  0
VERTEX
  5
ACD
  8
LAYER_1
 10
1.892291154366216
 20
1.930968773258558
 30
0.0
  0
VERTEX
  5
ACE
  8
LAYER_1
 10
1.901678404073352
 20
1.947110301334508
 30
0.0
  0
VERTEX
  5
ACF
  8
LAYER_1
 10
1.911227146483866
 20
1.961732582690625
 30
0.0
  0
VERTEX
  5
AD0
  8
LAYER_1
 10
1.920899845358677
 20
1.974753075563913
 30
0.0
  0
VERTEX
  5
AD1
  8
LAYER_1
 10
1.930658964458701
 20
1.98608923819138
 30
0.0
  0
VERTEX
  5
AD2
  8
LAYER_1
 10
1.935559201518454
 20
1.991099901361994
 30
0.0
  0
VERTEX
  5
AD3
  8
LAYER_1
 10
1.940466967544854
 20
1.995658528810031
 30
0.0
  0
VERTEX
  5
AD4
  8
LAYER_1
 10
1.945377570508016
 20
1.999754802815115
 30
0.0
  0
VERTEX
  5
AD5
  8
LAYER_1
 10
1.950286318378054
 20
2.003378405656873
 30
0.0
  0
VERTEX
  5
AD6
  8
LAYER_1
 10
1.955188519125083
 20
2.00651901961493
 30
0.0
  0
VERTEX
  5
AD7
  8
LAYER_1
 10
1.960079480719217
 20
2.009166326968912
 30
0.0
  0
VERTEX
  5
AD8
  8
LAYER_1
 10
1.964954511130572
 20
2.011310009998445
 30
0.0
  0
VERTEX
  5
AD9
  8
LAYER_1
 10
1.969808918329262
 20
2.012939750983154
 30
0.0
  0
VERTEX
  5
ADA
  8
LAYER_1
 10
1.988126979710185
 20
2.01736879486782
 30
0.0
  0
VERTEX
  5
ADB
  8
LAYER_1
 10
2.010174527010071
 20
2.021815826473249
 30
0.0
  0
VERTEX
  5
ADC
  8
LAYER_1
 10
2.03570264528247
 20
2.026907906405736
 30
0.0
  0
VERTEX
  5
ADD
  8
LAYER_1
 10
2.06446241958093
 20
2.033272095271573
 30
0.0
  0
VERTEX
  5
ADE
  8
LAYER_1
 10
2.079976391819167
 20
2.037127186993966
 30
0.0
  0
VERTEX
  5
ADF
  8
LAYER_1
 10
2.096204934958999
 20
2.041535453677056
 30
0.0
  0
VERTEX
  5
AE0
  8
LAYER_1
 10
2.113116934632121
 20
2.046575277896631
 30
0.0
  0
VERTEX
  5
AE1
  8
LAYER_1
 10
2.130681276470226
 20
2.052325042228477
 30
0.0
  0
VERTEX
  5
AE2
  8
LAYER_1
 10
2.148866846105008
 20
2.058863129248381
 30
0.0
  0
VERTEX
  5
AE3
  8
LAYER_1
 10
2.16764252916816
 20
2.06626792153213
 30
0.0
  0
VERTEX
  5
AE4
  8
LAYER_1
 10
2.186977211291376
 20
2.07461780165551
 30
0.0
  0
VERTEX
  5
AE5
  8
LAYER_1
 10
2.20683977810635
 20
2.083991152194309
 30
0.0
  0
VERTEX
  5
AE6
  8
LAYER_1
 10
2.224863089281576
 20
2.093381769250571
 30
0.0
  0
VERTEX
  5
AE7
  8
LAYER_1
 10
2.243109133424619
 20
2.103603730040344
 30
0.0
  0
VERTEX
  5
AE8
  8
LAYER_1
 10
2.276483855624339
 20
2.122879692851362
 30
0.0
  0
VERTEX
  5
AE9
  8
LAYER_1
 10
2.289719751186106
 20
2.130102699888076
 30
0.0
  0
VERTEX
  5
AEA
  8
LAYER_1
 10
2.295060786411705
 20
2.132709929661369
 30
0.0
  0
VERTEX
  5
AEB
  8
LAYER_1
 10
2.299392814725872
 20
2.134495060689239
 30
0.0
  0
VERTEX
  5
AEC
  8
LAYER_1
 10
2.302597537222674
 20
2.135343655785156
 30
0.0
  0
VERTEX
  5
AED
  8
LAYER_1
 10
2.30374019038146
 20
2.135380990737839
 30
0.0
  0
VERTEX
  5
AEE
  8
LAYER_1
 10
2.304556654996181
 20
2.135141277762585
 30
0.0
  0
VERTEX
  5
AEF
  8
LAYER_1
 10
2.305032143703594
 20
2.134610212211076
 30
0.0
  0
VERTEX
  5
AF0
  8
LAYER_1
 10
2.305151869140459
 20
2.133773489434994
 30
0.0
  0
VERTEX
  5
AF1
  8
LAYER_1
 10
2.304264880749577
 20
2.131125853615849
 30
0.0
  0
VERTEX
  5
AF2
  8
LAYER_1
 10
2.281878019863718
 20
2.086251372308079
 30
0.0
  0
VERTEX
  5
AF3
  8
LAYER_1
 10
2.265322831347164
 20
2.053280726408356
 30
0.0
  0
VERTEX
  5
AF4
  8
LAYER_1
 10
2.25916201105746
 20
2.041459585363173
 30
0.0
  0
VERTEX
  5
AF5
  8
LAYER_1
 10
2.254374985056183
 20
2.032854695521996
 30
0.0
  0
VERTEX
  5
AF6
  8
LAYER_1
 10
2.250933712075367
 20
2.02754615433549
 30
0.0
  0
VERTEX
  5
AF7
  8
LAYER_1
 10
2.249708970071391
 20
2.02615304494107
 30
0.0
  0
VERTEX
  5
AF8
  8
LAYER_1
 10
2.248810150847043
 20
2.025614059254319
 30
0.0
  0
VERTEX
  5
AF9
  8
LAYER_1
 10
2.246739451701386
 20
2.026876897654546
 30
0.0
  0
VERTEX
  5
AFA
  8
LAYER_1
 10
2.24219823271994
 20
2.030113696055975
 30
0.0
  0
VERTEX
  5
AFB
  8
LAYER_1
 10
2.235816830139896
 20
2.034220489981562
 30
0.0
  0
VERTEX
  5
AFC
  8
LAYER_1
 10
2.232133040074523
 20
2.036255146366841
 30
0.0
  0
VERTEX
  5
AFD
  8
LAYER_1
 10
2.228225580198446
 20
2.038093314954268
 30
0.0
  0
VERTEX
  5
AFE
  8
LAYER_1
 10
2.224173242541315
 20
2.039597000184215
 30
0.0
  0
VERTEX
  5
AFF
  8
LAYER_1
 10
2.22005481913278
 20
2.04062820649705
 30
0.0
  0
VERTEX
  5
B00
  8
LAYER_1
 10
2.21594910200249
 20
2.041048938333144
 30
0.0
  0
VERTEX
  5
B01
  8
LAYER_1
 10
2.211934883180092
 20
2.040721200132867
 30
0.0
  0
VERTEX
  5
B02
  8
LAYER_1
 10
2.208090954695237
 20
2.039506996336588
 30
0.0
  0
VERTEX
  5
B03
  8
LAYER_1
 10
2.204496108577572
 20
2.037268331384676
 30
0.0
  0
VERTEX
  5
B04
  8
LAYER_1
 10
2.201229136856749
 20
2.033867209717503
 30
0.0
  0
VERTEX
  5
B05
  8
LAYER_1
 10
2.198368831562414
 20
2.029165635775437
 30
0.0
  0
VERTEX
  5
B06
  8
LAYER_1
 10
2.197427759168309
 20
2.026240629189266
 30
0.0
  0
VERTEX
  5
B07
  8
LAYER_1
 10
2.197439044036892
 20
2.023436009284681
 30
0.0
  0
VERTEX
  5
B08
  8
LAYER_1
 10
2.198279931766443
 20
2.020731575526081
 30
0.0
  0
VERTEX
  5
B09
  8
LAYER_1
 10
2.199827667955238
 20
2.018107127377862
 30
0.0
  0
VERTEX
  5
B0A
  8
LAYER_1
 10
2.201959498201555
 20
2.015542464304424
 30
0.0
  0
VERTEX
  5
B0B
  8
LAYER_1
 10
2.204552668103674
 20
2.013017385770164
 30
0.0
  0
VERTEX
  5
B0C
  8
LAYER_1
 10
2.210632009268424
 20
2.008005180176769
 30
0.0
  0
VERTEX
  5
B0D
  8
LAYER_1
 10
2.217083656235711
 20
2.002908906312862
 30
0.0
  0
VERTEX
  5
B0E
  8
LAYER_1
 10
2.222925573791759
 20
1.997566959893627
 30
0.0
  0
VERTEX
  5
B0F
  8
LAYER_1
 10
2.225310998036263
 20
1.994753358136757
 30
0.0
  0
VERTEX
  5
B10
  8
LAYER_1
 10
2.227175726722791
 20
1.991817736634248
 30
0.0
  0
VERTEX
  5
B11
  8
LAYER_1
 10
2.228397005449621
 20
1.988739894850499
 30
0.0
  0
VERTEX
  5
B12
  8
LAYER_1
 10
2.228852079815031
 20
1.985499632249908
 30
0.0
  0
VERTEX
  5
B13
  8
LAYER_1
 10
2.228602684288498
 20
1.980026216763199
 30
0.0
  0
VERTEX
  5
B14
  8
LAYER_1
 10
2.227782707511478
 20
1.974108481084717
 30
0.0
  0
VERTEX
  5
B15
  8
LAYER_1
 10
2.226431512066204
 20
1.967740388875909
 30
0.0
  0
VERTEX
  5
B16
  8
LAYER_1
 10
2.224588460534911
 20
1.960915903798223
 30
0.0
  0
VERTEX
  5
B17
  8
LAYER_1
 10
2.2195842395432
 20
1.945873609682004
 30
0.0
  0
VERTEX
  5
B18
  8
LAYER_1
 10
2.213084945194213
 20
1.928933308027637
 30
0.0
  0
VERTEX
  5
B19
  8
LAYER_1
 10
2.196860739055886
 20
1.889165519270768
 30
0.0
  0
VERTEX
  5
B1A
  8
LAYER_1
 10
2.187765628582283
 20
1.866241450751422
 30
0.0
  0
VERTEX
  5
B1B
  8
LAYER_1
 10
2.178435047382879
 20
1.841226211860236
 30
0.0
  0
VERTEX
  5
B1C
  8
LAYER_1
 10
2.173954229145988
 20
1.829672246987085
 30
0.0
  0
VERTEX
  5
B1D
  8
LAYER_1
 10
2.1712076939418
 20
1.823827519431642
 30
0.0
  0
VERTEX
  5
B1E
  8
LAYER_1
 10
2.168047255231259
 20
1.818285017468268
 30
0.0
  0
VERTEX
  5
B1F
  8
LAYER_1
 10
2.164415548427471
 20
1.813305282850448
 30
0.0
  0
VERTEX
  5
B20
  8
LAYER_1
 10
2.160255208943545
 20
1.809148857331667
 30
0.0
  0
VERTEX
  5
B21
  8
LAYER_1
 10
2.157958875513125
 20
1.80746080478238
 30
0.0
  0
VERTEX
  5
B22
  8
LAYER_1
 10
2.155508872192585
 20
1.80607628266541
 30
0.0
  0
VERTEX
  5
B23
  8
LAYER_1
 10
2.152898028408563
 20
1.805027858699941
 30
0.0
  0
VERTEX
  5
B24
  8
LAYER_1
 10
2.150119173587697
 20
1.804348100605161
 30
0.0
  0
VERTEX
  5
B25
  8
LAYER_1
 10
2.136917802340452
 20
1.803471805976181
 30
0.0
  0
VERTEX
  5
B26
  8
LAYER_1
 10
2.124779271027044
 20
1.802508613290282
 30
0.0
  0
VERTEX
  5
B27
  8
LAYER_1
 10
2.11196397575815
 20
1.801166887264462
 30
0.0
  0
VERTEX
  5
B28
  8
LAYER_1
 10
2.10073326641205
 20
1.799425250579482
 30
0.0
  0
VERTEX
  5
B29
  8
LAYER_1
 10
2.096418803297009
 20
1.798397785327546
 30
0.0
  0
VERTEX
  5
B2A
  8
LAYER_1
 10
2.093348492867021
 20
1.797262325916106
 30
0.0
  0
VERTEX
  5
B2B
  8
LAYER_1
 10
2.091805003856871
 20
1.796016200180257
 30
0.0
  0
VERTEX
  5
B2C
  8
LAYER_1
 10
2.091694151363855
 20
1.795350802389147
 30
0.0
  0
VERTEX
  5
B2D
  8
LAYER_1
 10
2.092071005001343
 20
1.794656735955095
 30
0.0
  0
VERTEX
  5
B2E
  8
LAYER_1
 10
2.094429165035223
 20
1.793181261075716
 30
0.0
  0
VERTEX
  5
B2F
  8
LAYER_1
 10
2.099162152693295
 20
1.791587103377214
 30
0.0
  0
VERTEX
  5
B30
  8
LAYER_1
 10
2.101698892641537
 20
1.791153824716247
 30
0.0
  0
VERTEX
  5
B31
  8
LAYER_1
 10
2.104865362817504
 20
1.79100108752968
 30
0.0
  0
VERTEX
  5
B32
  8
LAYER_1
 10
2.112703676730685
 20
1.791191584727795
 30
0.0
  0
VERTEX
  5
B33
  8
LAYER_1
 10
2.121909460188972
 20
1.791467289267656
 30
0.0
  0
VERTEX
  5
B34
  8
LAYER_1
 10
2.131715078948504
 20
1.791136895445361
 30
0.0
  0
VERTEX
  5
B35
  8
LAYER_1
 10
2.136602940865028
 20
1.790528378615936
 30
0.0
  0
VERTEX
  5
B36
  8
LAYER_1
 10
2.141352898765416
 20
1.789509097557008
 30
0.0
  0
VERTEX
  5
B37
  8
LAYER_1
 10
2.145868998369183
 20
1.78799263905559
 30
0.0
  0
VERTEX
  5
B38
  8
LAYER_1
 10
2.150055285395846
 20
1.785892589898694
 30
0.0
  0
VERTEX
  5
B39
  8
LAYER_1
 10
2.153815805564923
 20
1.783122536873333
 30
0.0
  0
VERTEX
  5
B3A
  8
LAYER_1
 10
2.157054604595931
 20
1.779596066766518
 30
0.0
  0
VERTEX
  5
B3B
  8
LAYER_1
 10
2.159675728208386
 20
1.775226766365262
 30
0.0
  0
VERTEX
  5
B3C
  8
LAYER_1
 10
2.161583222121807
 20
1.769928222456576
 30
0.0
  0
VERTEX
  5
B3D
  8
LAYER_1
 10
2.163140629689289
 20
1.766006625453524
 30
0.0
  0
VERTEX
  5
B3E
  8
LAYER_1
 10
2.165658316062288
 20
1.762051780818753
 30
0.0
  0
VERTEX
  5
B3F
  8
LAYER_1
 10
2.16890564981339
 20
1.758332786183165
 30
0.0
  0
VERTEX
  5
B40
  8
LAYER_1
 10
2.172651999515186
 20
1.755118739177665
 30
0.0
  0
VERTEX
  5
B41
  8
LAYER_1
 10
2.176666733740263
 20
1.752678737433153
 30
0.0
  0
VERTEX
  5
B42
  8
LAYER_1
 10
2.180719221061208
 20
1.751281878580533
 30
0.0
  0
VERTEX
  5
B43
  8
LAYER_1
 10
2.182687549811566
 20
1.75105872074834
 30
0.0
  0
VERTEX
  5
B44
  8
LAYER_1
 10
2.184578830050612
 20
1.751197260250708
 30
0.0
  0
VERTEX
  5
B45
  8
LAYER_1
 10
2.186364232849919
 20
1.751731134291501
 30
0.0
  0
VERTEX
  5
B46
  8
LAYER_1
 10
2.188014929281061
 20
1.75269398007458
 30
0.0
  0
VERTEX
  5
B47
  8
LAYER_1
 10
2.190028170199287
 20
1.754455466824144
 30
0.0
  0
VERTEX
  5
B48
  8
LAYER_1
 10
2.191783327951593
 20
1.756460301162144
 30
0.0
  0
VERTEX
  5
B49
  8
LAYER_1
 10
2.194672307549719
 20
1.761052951559871
 30
0.0
  0
VERTEX
  5
B4A
  8
LAYER_1
 10
2.199035318258959
 20
1.771540751937173
 30
0.0
  0
VERTEX
  5
B4B
  8
LAYER_1
 10
2.201121003735179
 20
1.776847657742433
 30
0.0
  0
VERTEX
  5
B4C
  8
LAYER_1
 10
2.2035505788692
 20
1.78180440450922
 30
0.0
  0
VERTEX
  5
B4D
  8
LAYER_1
 10
2.206629870843576
 20
1.786116870150375
 30
0.0
  0
VERTEX
  5
B4E
  8
LAYER_1
 10
2.208508731640445
 20
1.787939584396604
 30
0.0
  0
VERTEX
  5
B4F
  8
LAYER_1
 10
2.210664706840859
 20
1.78949093257874
 30
0.0
  0
VERTEX
  5
B50
  8
LAYER_1
 10
3.782555718475073
 20
1.78949093257874
 30
0.0
  0
VERTEX
  5
B51
  8
LAYER_1
 10
3.78365949678389
 20
1.790932007767354
 30
0.0
  0
VERTEX
  5
B52
  8
LAYER_1
 10
3.784447909861617
 20
1.792666997206559
 30
0.0
  0
VERTEX
  5
B53
  8
LAYER_1
 10
3.784920957708253
 20
1.794597929479493
 30
0.0
  0
VERTEX
  5
B54
  8
LAYER_1
 10
3.785078640323799
 20
1.796626833169291
 30
0.0
  0
VERTEX
  5
B55
  8
LAYER_1
 10
3.784920957708253
 20
1.798655736859089
 30
0.0
  0
VERTEX
  5
B56
  8
LAYER_1
 10
3.784447909861617
 20
1.800586669132023
 30
0.0
  0
VERTEX
  5
B57
  8
LAYER_1
 10
3.78365949678389
 20
1.802321658571229
 30
0.0
  0
VERTEX
  5
B58
  8
LAYER_1
 10
3.782555718475073
 20
1.803762733759843
 30
0.0
  0
VERTEX
  5
B59
  8
LAYER_1
 10
2.210297653958945
 20
1.803762733759843
 30
0.0
  0
VERTEX
  5
B5A
  8
LAYER_1
 10
2.209373226010064
 20
1.805045617544017
 30
0.0
  0
VERTEX
  5
B5B
  8
LAYER_1
 10
2.208878558644205
 20
1.806528696687722
 30
0.0
  0
VERTEX
  5
B5C
  8
LAYER_1
 10
2.208847229037725
 20
1.809904983309308
 30
0.0
  0
VERTEX
  5
B5D
  8
LAYER_1
 10
2.209541111891856
 20
1.813510678135781
 30
0.0
  0
VERTEX
  5
B5E
  8
LAYER_1
 10
2.210297653958945
 20
1.816964865678319
 30
0.0
  0
VERTEX
  5
B5F
  8
LAYER_1
 10
2.261730247473625
 20
1.959944989912399
 30
0.0
  0
VERTEX
  5
B60
  8
LAYER_1
 10
2.263498872593003
 20
1.962873989693628
 30
0.0
  0
VERTEX
  5
B61
  8
LAYER_1
 10
2.265489178194573
 20
1.96547918412226
 30
0.0
  0
VERTEX
  5
B62
  8
LAYER_1
 10
2.26769021255887
 20
1.967774954443827
 30
0.0
  0
VERTEX
  5
B63
  8
LAYER_1
 10
2.270091023966426
 20
1.969775681903859
 30
0.0
  0
VERTEX
  5
B64
  8
LAYER_1
 10
2.272680660697778
 20
1.971495747747888
 30
0.0
  0
VERTEX
  5
B65
  8
LAYER_1
 10
2.275448171033458
 20
1.972949533221445
 30
0.0
  0
VERTEX
  5
B66
  8
LAYER_1
 10
2.281473005639944
 20
1.975115788039266
 30
0.0
  0
VERTEX
  5
B67
  8
LAYER_1
 10
2.288077914030158
 20
1.976389496321572
 30
0.0
  0
VERTEX
  5
B68
  8
LAYER_1
 10
2.295175282448375
 20
1.97688570803261
 30
0.0
  0
VERTEX
  5
B69
  8
LAYER_1
 10
2.302677497138869
 20
1.976719473136631
 30
0.0
  0
VERTEX
  5
B6A
  8
LAYER_1
 10
2.310496944345915
 20
1.976005841597881
 30
0.0
  0
VERTEX
  5
B6B
  8
LAYER_1
 10
2.326737081286761
 20
1.973396588449069
 30
0.0
  0
VERTEX
  5
B6C
  8
LAYER_1
 10
2.34319478322511
 20
1.969978348300164
 30
0.0
  0
VERTEX
  5
B6D
  8
LAYER_1
 10
2.359169140115157
 20
1.966671520865157
 30
0.0
  0
VERTEX
  5
B6E
  8
LAYER_1
 10
2.366756029777755
 20
1.965347511825986
 30
0.0
  0
VERTEX
  5
B6F
  8
LAYER_1
 10
2.373959241911101
 20
1.964396505858036
 30
0.0
  0
VERTEX
  5
B70
  8
LAYER_1
 10
2.389007216555964
 20
1.963152295011199
 30
0.0
  0
VERTEX
  5
B71
  8
LAYER_1
 10
2.403891424137693
 20
1.962547120359489
 30
0.0
  0
VERTEX
  5
B72
  8
LAYER_1
 10
2.418592513395348
 20
1.962553607743824
 30
0.0
  0
VERTEX
  5
B73
  8
LAYER_1
 10
2.433091133067988
 20
1.963144383005124
 30
0.0
  0
VERTEX
  5
B74
  8
LAYER_1
 10
2.447367931894676
 20
1.964292071984307
 30
0.0
  0
VERTEX
  5
B75
  8
LAYER_1
 10
2.46140355861447
 20
1.965969300522292
 30
0.0
  0
VERTEX
  5
B76
  8
LAYER_1
 10
2.475178661966432
 20
1.968148694459997
 30
0.0
  0
VERTEX
  5
B77
  8
LAYER_1
 10
2.488673890689621
 20
1.970802879638343
 30
0.0
  0
VERTEX
  5
B78
  8
LAYER_1
 10
2.501869893523098
 20
1.973904481898248
 30
0.0
  0
VERTEX
  5
B79
  8
LAYER_1
 10
2.514747319205924
 20
1.97742612708063
 30
0.0
  0
VERTEX
  5
B7A
  8
LAYER_1
 10
2.527286816477158
 20
1.981340441026408
 30
0.0
  0
VERTEX
  5
B7B
  8
LAYER_1
 10
2.539469034075861
 20
1.985620049576502
 30
0.0
  0
VERTEX
  5
B7C
  8
LAYER_1
 10
2.551274620741093
 20
1.990237578571831
 30
0.0
  0
VERTEX
  5
B7D
  8
LAYER_1
 10
2.562684225211915
 20
1.995165653853312
 30
0.0
  0
VERTEX
  5
B7E
  8
LAYER_1
 10
2.573678496227386
 20
2.000376901261866
 30
0.0
  0
VERTEX
  5
B7F
  8
LAYER_1
 10
2.584238082526569
 20
2.005843946638411
 30
0.0
  0
VERTEX
  5
B80
  8
LAYER_1
 10
2.594343632848521
 20
2.011539415823866
 30
0.0
  0
VERTEX
  5
B81
  8
LAYER_1
 10
2.603975795932305
 20
2.017435934659149
 30
0.0
  0
VERTEX
  5
B82
  8
LAYER_1
 10
2.613115220516979
 20
2.023506128985181
 30
0.0
  0
VERTEX
  5
B83
  8
LAYER_1
 10
2.621742555341606
 20
2.029722624642878
 30
0.0
  0
VERTEX
  5
B84
  8
LAYER_1
 10
2.629838449145244
 20
2.036058047473162
 30
0.0
  0
VERTEX
  5
B85
  8
LAYER_1
 10
2.637383550666955
 20
2.042485023316949
 30
0.0
  0
VERTEX
  5
B86
  8
LAYER_1
 10
2.644358508645798
 20
2.04897617801516
 30
0.0
  0
VERTEX
  5
B87
  8
LAYER_1
 10
2.650743971820834
 20
2.055504137408713
 30
0.0
  0
VERTEX
  5
B88
  8
LAYER_1
 10
2.656520588931123
 20
2.062041527338527
 30
0.0
  0
VERTEX
  5
B89
  8
LAYER_1
 10
2.661669008715726
 20
2.06856097364552
 30
0.0
  0
VERTEX
  5
B8A
  8
LAYER_1
 10
2.666169879913704
 20
2.075035102170613
 30
0.0
  0
VERTEX
  5
B8B
  8
LAYER_1
 10
2.670003851264115
 20
2.081436538754724
 30
0.0
  0
VERTEX
  5
B8C
  8
LAYER_1
 10
2.67315157150602
 20
2.08773790923877
 30
0.0
  0
VERTEX
  5
B8D
  8
LAYER_1
 10
2.675593689378481
 20
2.093911839463673
 30
0.0
  0
VERTEX
  5
B8E
  8
LAYER_1
 10
2.677310853620557
 20
2.09993095527035
 30
0.0
  0
VERTEX
  5
B8F
  8
LAYER_1
 10
2.678283712971308
 20
2.10576788249972
 30
0.0
  0
VERTEX
  5
B90
  8
LAYER_1
 10
2.678599026179301
 20
2.111778079019309
 30
0.0
  0
VERTEX
  5
B91
  8
LAYER_1
 10
2.678303861331246
 20
2.117653908904141
 30
0.0
  0
VERTEX
  5
B92
  8
LAYER_1
 10
2.677424911787078
 20
2.123392589220291
 30
0.0
  0
VERTEX
  5
B93
  8
LAYER_1
 10
2.675988870906731
 20
2.128991337033832
 30
0.0
  0
VERTEX
  5
B94
  8
LAYER_1
 10
2.67402243205014
 20
2.134447369410837
 30
0.0
  0
VERTEX
  5
B95
  8
LAYER_1
 10
2.671552288577237
 20
2.13975790341738
 30
0.0
  0
VERTEX
  5
B96
  8
LAYER_1
 10
2.668605133847957
 20
2.144920156119535
 30
0.0
  0
VERTEX
  5
B97
  8
LAYER_1
 10
2.665207661222235
 20
2.149931344583373
 30
0.0
  0
VERTEX
  5
B98
  8
LAYER_1
 10
2.661386564060004
 20
2.154788685874969
 30
0.0
  0
VERTEX
  5
B99
  8
LAYER_1
 10
2.657168535721198
 20
2.159489397060398
 30
0.0
  0
VERTEX
  5
B9A
  8
LAYER_1
 10
2.652580269565752
 20
2.164030695205731
 30
0.0
  0
VERTEX
  5
B9B
  8
LAYER_1
 10
2.647648458953599
 20
2.168409797377042
 30
0.0
  0
VERTEX
  5
B9C
  8
LAYER_1
 10
2.642399797244673
 20
2.172623920640405
 30
0.0
  0
VERTEX
  5
B9D
  8
LAYER_1
 10
2.636860977798909
 20
2.176670282061894
 30
0.0
  0
VERTEX
  5
B9E
  8
LAYER_1
 10
2.625019639136602
 20
2.184248587643539
 30
0.0
  0
VERTEX
  5
B9F
  8
LAYER_1
 10
2.61233798984615
 20
2.191122450650567
 30
0.0
  0
VERTEX
  5
BA0
  8
LAYER_1
 10
2.599029576807026
 20
2.197269607611565
 30
0.0
  0
VERTEX
  5
BA1
  8
LAYER_1
 10
2.585307946898701
 20
2.20266779505512
 30
0.0
  0
VERTEX
  5
BA2
  8
LAYER_1
 10
2.571386647000649
 20
2.207294749509819
 30
0.0
  0
VERTEX
  5
BA3
  8
LAYER_1
 10
2.557479223992341
 20
2.211128207504251
 30
0.0
  0
VERTEX
  5
BA4
  8
LAYER_1
 10
2.543799224753251
 20
2.214145905567001
 30
0.0
  0
VERTEX
  5
BA5
  8
LAYER_1
 10
2.530560196162849
 20
2.216325580226658
 30
0.0
  0
VERTEX
  5
BA6
  8
LAYER_1
 10
2.517975685100611
 20
2.217644968011811
 30
0.0
  0
VERTEX
  5
BA7
  8
LAYER_1
 10
2.498842450252439
 20
2.218490469829437
 30
0.0
  0
VERTEX
  5
BA8
  8
LAYER_1
 10
2.480247160481817
 20
2.218578088330108
 30
0.0
  0
VERTEX
  5
BA9
  8
LAYER_1
 10
2.462771818826344
 20
2.218404395726874
 30
0.0
  0
VERTEX
  5
BAA
  8
LAYER_1
 10
2.446998428323618
 20
2.218465964232786
 30
0.0
  0
VERTEX
  5
BAB
  8
LAYER_1
 10
2.439931840703784
 20
2.218740150218251
 30
0.0
  0
VERTEX
  5
BAC
  8
LAYER_1
 10
2.433508992011237
 20
2.219259366060896
 30
0.0
  0
VERTEX
  5
BAD
  8
LAYER_1
 10
2.427802632625677
 20
2.220085683287354
 30
0.0
  0
VERTEX
  5
BAE
  8
LAYER_1
 10
2.422885512926801
 20
2.221281173424255
 30
0.0
  0
VERTEX
  5
BAF
  8
LAYER_1
 10
2.418830383294311
 20
2.222907907998231
 30
0.0
  0
VERTEX
  5
BB0
  8
LAYER_1
 10
2.415709994107907
 20
2.225027958535914
 30
0.0
  0
VERTEX
  5
BB1
  8
LAYER_1
 10
2.413597095747288
 20
2.227703396563935
 30
0.0
  0
VERTEX
  5
BB2
  8
LAYER_1
 10
2.412941190120304
 20
2.229268783238894
 30
0.0
  0
VERTEX
  5
BB3
  8
LAYER_1
 10
2.412564438592154
 20
2.230996293608924
 30
0.0
  0
VERTEX
  5
BB4
  8
LAYER_1
 10
2.413016962671667
 20
2.232619385129075
 30
0.0
  0
VERTEX
  5
BB5
  8
LAYER_1
 10
2.414617789893639
 20
2.235187521315612
 30
0.0
  0
VERTEX
  5
BB6
  8
LAYER_1
 10
2.420919128002383
 20
2.243312350980732
 30
0.0
  0
VERTEX
  5
BB7
  8
LAYER_1
 10
2.430778001393223
 20
2.255677629190062
 30
0.0
  0
VERTEX
  5
BB8
  8
LAYER_1
 10
2.443503958540997
 20
2.272590202529378
 30
0.0
  0
VERTEX
  5
BB9
  8
LAYER_1
 10
2.45072632742212
 20
2.282847614430837
 30
0.0
  0
VERTEX
  5
BBA
  8
LAYER_1
 10
2.45840654792054
 20
2.29435691758446
 30
0.0
  0
VERTEX
  5
BBB
  8
LAYER_1
 10
2.466458313595612
 20
2.307156467813467
 30
0.0
  0
VERTEX
  5
BBC
  8
LAYER_1
 10
2.47479531800669
 20
2.321284620941083
 30
0.0
  0
VERTEX
  5
BBD
  8
LAYER_1
 10
2.483331254713129
 20
2.336779732790529
 30
0.0
  0
VERTEX
  5
BBE
  8
LAYER_1
 10
2.491979817274283
 20
2.353680159185026
 30
0.0
  0
VERTEX
  5
BBF
  8
LAYER_1
 10
2.500654699249507
 20
2.372024255947797
 30
0.0
  0
VERTEX
  5
BC0
  8
LAYER_1
 10
2.509269594198156
 20
2.391850378902066
 30
0.0
  0
VERTEX
  5
BC1
  8
LAYER_1
 10
2.513720064787219
 20
2.40079153139743
 30
0.0
  0
VERTEX
  5
BC2
  8
LAYER_1
 10
2.516196492522954
 20
2.405552566281587
 30
0.0
  0
VERTEX
  5
BC3
  8
LAYER_1
 10
2.518390784675576
 20
2.410322619809659
 30
0.0
  0
VERTEX
  5
BC4
  8
LAYER_1
 10
2.519965743337147
 20
2.414963226646345
 30
0.0
  0
VERTEX
  5
BC5
  8
LAYER_1
 10
2.520584170599731
 20
2.419335921456344
 30
0.0
  0
VERTEX
  5
BC6
  8
LAYER_1
 10
2.520429310610172
 20
2.421378531434055
 30
0.0
  0
VERTEX
  5
BC7
  8
LAYER_1
 10
2.51990886855539
 20
2.423302238904355
 30
0.0
  0
VERTEX
  5
BC8
  8
LAYER_1
 10
2.518980694696893
 20
2.425089735700333
 30
0.0
  0
VERTEX
  5
BC9
  8
LAYER_1
 10
2.517602639296188
 20
2.426723713655076
 30
0.0
  0
VERTEX
  5
BCA
  8
LAYER_1
 10
2.328217008797654
 20
2.418215922381293
 30
0.0
  0
VERTEX
  5
BCB
  8
LAYER_1
 10
2.311686824510723
 20
2.415387456791958
 30
0.0
  0
VERTEX
  5
BCC
  8
LAYER_1
 10
2.295249787380589
 20
2.411899617487522
 30
0.0
  0
VERTEX
  5
BCD
  8
LAYER_1
 10
2.278921581760439
 20
2.407778099335336
 30
0.0
  0
VERTEX
  5
BCE
  8
LAYER_1
 10
2.262717892003457
 20
2.403048597202751
 30
0.0
  0
VERTEX
  5
BCF
  8
LAYER_1
 10
2.24665440246283
 20
2.39773680595712
 30
0.0
  0
VERTEX
  5
BD0
  8
LAYER_1
 10
2.230746797491742
 20
2.391868420465795
 30
0.0
  0
VERTEX
  5
BD1
  8
LAYER_1
 10
2.215010761443379
 20
2.385469135596128
 30
0.0
  0
VERTEX
  5
BD2
  8
LAYER_1
 10
2.199461978670926
 20
2.378564646215471
 30
0.0
  0
VERTEX
  5
BD3
  8
LAYER_1
 10
2.184116133527569
 20
2.371180647191177
 30
0.0
  0
VERTEX
  5
BD4
  8
LAYER_1
 10
2.168988910366493
 20
2.363342833390598
 30
0.0
  0
VERTEX
  5
BD5
  8
LAYER_1
 10
2.154095993540883
 20
2.355076899681084
 30
0.0
  0
VERTEX
  5
BD6
  8
LAYER_1
 10
2.139453067403925
 20
2.346408540929989
 30
0.0
  0
VERTEX
  5
BD7
  8
LAYER_1
 10
2.125075816308804
 20
2.337363452004665
 30
0.0
  0
VERTEX
  5
BD8
  8
LAYER_1
 10
2.110979924608707
 20
2.327967327772464
 30
0.0
  0
VERTEX
  5
BD9
  8
LAYER_1
 10
2.097181076656818
 20
2.318245863100737
 30
0.0
  0
VERTEX
  5
BDA
  8
LAYER_1
 10
2.083694956806322
 20
2.308224752856837
 30
0.0
  0
VERTEX
  5
BDB
  8
LAYER_1
 10
2.072221622535338
 20
2.299115010311581
 30
0.0
  0
VERTEX
  5
BDC
  8
LAYER_1
 10
2.061393415030811
 20
2.289804679680991
 30
0.0
  0
VERTEX
  5
BDD
  8
LAYER_1
 10
2.051187381950626
 20
2.280315069531771
 30
0.0
  0
VERTEX
  5
BDE
  8
LAYER_1
 10
2.041580570952668
 20
2.270667488430627
 30
0.0
  0
VERTEX
  5
BDF
  8
LAYER_1
 10
2.032550029694821
 20
2.260883244944263
 30
0.0
  0
VERTEX
  5
BE0
  8
LAYER_1
 10
2.02407280583497
 20
2.250983647639384
 30
0.0
  0
VERTEX
  5
BE1
  8
LAYER_1
 10
2.016125947031
 20
2.240990005082693
 30
0.0
  0
VERTEX
  5
BE2
  8
LAYER_1
 10
2.008686500940796
 20
2.230923625840896
 30
0.0
  0
VERTEX
  5
BE3
  8
LAYER_1
 10
2.001731515222243
 20
2.220805818480698
 30
0.0
  0
VERTEX
  5
BE4
  8
LAYER_1
 10
1.995238037533225
 20
2.210657891568802
 30
0.0
  0
VERTEX
  5
BE5
  8
LAYER_1
 10
1.989183115531628
 20
2.200501153671914
 30
0.0
  0
VERTEX
  5
BE6
  8
LAYER_1
 10
1.983543796875335
 20
2.190356913356738
 30
0.0
  0
VERTEX
  5
BE7
  8
LAYER_1
 10
1.973420160230205
 20
2.170191159738341
 30
0.0
  0
VERTEX
  5
BE8
  8
LAYER_1
 10
1.964683508860912
 20
2.150331099247247
 30
0.0
  0
VERTEX
  5
BE9
  8
LAYER_1
 10
1.957150224030536
 20
2.130947200417093
 30
0.0
  0
VERTEX
  5
BEA
  8
LAYER_1
 10
1.950636687002154
 20
2.112209931781515
 30
0.0
  0
VERTEX
  5
BEB
  8
LAYER_1
 10
1.939934381403689
 20
2.077357159228635
 30
0.0
  0
VERTEX
  5
BEC
  8
LAYER_1
 10
1.931107642170144
 20
2.047136529857702
 30
0.0
  0
VERTEX
  5
BED
  8
LAYER_1
 10
1.926938563097913
 20
2.034189440199557
 30
0.0
  0
VERTEX
  5
BEE
  8
LAYER_1
 10
1.922687519406147
 20
2.022911791937808
 30
0.0
  0
VERTEX
  5
BEF
  8
LAYER_1
 10
1.913959305199927
 20
2.002916137038923
 30
0.0
  0
VERTEX
  5
BF0
  8
LAYER_1
 10
1.904691106332185
 20
1.983066328132316
 30
0.0
  0
VERTEX
  5
BF1
  8
LAYER_1
 10
1.885037673861005
 20
1.943667751956453
 30
0.0
  0
VERTEX
  5
BF2
  8
LAYER_1
 10
1.864733060490352
 20
1.904443070731245
 30
0.0
  0
VERTEX
  5
BF3
  8
LAYER_1
 10
1.844783104717968
 20
1.865119291777718
 30
0.0
  0
VERTEX
  5
BF4
  8
LAYER_1
 10
1.835255447961671
 20
1.845334930440656
 30
0.0
  0
VERTEX
  5
BF5
  8
LAYER_1
 10
1.826193645041596
 20
1.825423422416899
 30
0.0
  0
VERTEX
  5
BF6
  8
LAYER_1
 10
1.817723425769959
 20
1.805350643621576
 30
0.0
  0
VERTEX
  5
BF7
  8
LAYER_1
 10
1.809970519958979
 20
1.785082469969814
 30
0.0
  0
VERTEX
  5
BF8
  8
LAYER_1
 10
1.803060657420873
 20
1.764584777376743
 30
0.0
  0
VERTEX
  5
BF9
  8
LAYER_1
 10
1.79711956796786
 20
1.74382344175749
 30
0.0
  0
VERTEX
  5
BFA
  8
LAYER_1
 10
1.794551603714581
 20
1.733333244036523
 30
0.0
  0
VERTEX
  5
BFB
  8
LAYER_1
 10
1.792272981412157
 20
1.722764339027184
 30
0.0
  0
VERTEX
  5
BFC
  8
LAYER_1
 10
1.790299417287115
 20
1.712112461218863
 30
0.0
  0
VERTEX
  5
BFD
  8
LAYER_1
 10
1.788646627565982
 20
1.701373345100952
 30
0.0
  0
VERTEX
  5
BFE
  8
LAYER_1
 10
1.788174536059565
 20
1.696355046755332
 30
0.0
  0
VERTEX
  5
BFF
  8
LAYER_1
 10
1.788076377513412
 20
1.691304674345774
 30
0.0
  0
SEQEND
  5
C27
  8
LAYER_1
  0
ENDSEC
  0
EOF
