0
SECTION
2
HEADER
9
$INSUNITS
70
4
9
$ACADVER
1
AC1014
9
$HANDSEED
5
FFFF
0
ENDSEC
0
SECTION
2
TABLES
0
TABLE
2
VPORT
5
8
100
AcDbSymbolTable
0
ENDTAB
0
TABLE
2
LTYPE
5
5
100
AcDbSymbolTable
0
LTYPE
5
14
100
AcDbSymbolTableRecord
100
AcDbLinetypeTableRecord
2
BYBLOCK
70
0
0
LTYPE
5
15
100
AcDbSymbolTableRecord
100
AcDbLinetypeTableRecord
2
BYLAYER
70
0
0
ENDTAB
0
TABLE
2
LAYER
5
2
100
AcDbSymbolTable
70
2
0
LAYER
5
50
100
AcDbSymbolTableRecord
100
AcDbLayerTableRecord
2
0
70
0
6
CONTINUOUS
0
ENDTAB
0
TABLE
2
STYLE
5
3
100
AcDbSymbolTable
70
1
0
STYLE
5
11
100
AcDbSymbolTableRecord
100
AcDbTextStyleTableRecord
2
STANDARD
70
0
0
ENDTAB
0
TABLE
2
VIEW
5
6
100
AcDbSymbolTable
70
0
0
ENDTAB
0
TABLE
2
UCS
5
7
100
AcDbSymbolTable
70
0
0
ENDTAB
0
TABLE
2
APPID
5
9
100
AcDbSymbolTable
70
2
0
APPID
5
12
100
AcDbSymbolTableRecord
100
AcDbRegAppTableRecord
2
ACAD
70
0
0
ENDTAB
0
TABLE
2
DIMSTYLE
5
A
100
AcDbSymbolTable
70
1
0
ENDTAB
0
TABLE
2
BLOCK_RECORD
5
1
100
AcDbSymbolTable
70
1
0
BLOCK_RECORD
5
1F
100
AcDbSymbolTableRecord
100
AcDbBlockTableRecord
2
*MODEL_SPACE
0
BLOCK_RECORD
5
1B
100
AcDbSymbolTableRecord
100
AcDbBlockTableRecord
2
*PAPER_SPACE
0
ENDTAB
0
ENDSEC
0
SECTION
2
BLOCKS
0
BLOCK
5
20
100
AcDbEntity
100
AcDbBlockBegin
2
*MODEL_SPACE
0
ENDBLK
5
21
100
AcDbEntity
100
AcDbBlockEnd
0
BLOCK
5
1C
100
AcDbEntity
100
AcDbBlockBegin
2
*PAPER_SPACE
0
ENDBLK
5
1D
100
AcDbEntity
100
AcDbBlockEnd
0
ENDSEC
0
SECTION
2
ENTITIES
0
LWPOLYLINE
5
100
100
AcDbEntity
8
0
100
AcDbPolyline
90
12
70
1
43
0.0
10
-50
20
392.7910560237097
10
0
20
342.7910560237097
10
0
20
10
10
-10
20
0
10
-590.20000000000005
20
0
42
-0.41421356237309509
10
-640.20000000000005
20
50
10
-640.20000000000005
20
75.5
10
-580.15000000000009
20
75.5
42
0.99999999999999989
10
-580.15000000000009
20
124.80000000000001
10
-640.20000000000005
20
124.80000000000001
10
-640.20000000000005
20
292.79105602370964
42
-0.4142135623730952
10
-540.20000000000005
20
392.7910560237097
0
LWPOLYLINE
5
101
100
AcDbEntity
8
0
100
AcDbPolyline
90
8
70
1
43
0.0
10
-532.10000000000025
20
275.65000000000015
10
-493.10000000000002
20
275.65000000000015
42
0.99999999999999989
10
-493.10000000000002
20
330.95000000000005
10
-571.20000000000016
20
330.95000000000005
42
0.41421356237309465
10
-598.85000000000014
20
303.30000000000007
10
-598.85000000000014
20
205.10000000000002
42
0.99999999999999989
10
-543.55000000000007
20
205.10000000000002
10
-543.5500000000003
20
264.20000000000016
42
-0.41421356237309959
0
CIRCLE
5
102
100
AcDbEntity
8
0
100
AcDbCircle
10
-292.15000000000009
20
100.15000000000001
30
0
40
18.70000000000001
210
0
220
-0
230
1
0
CIRCLE
5
103
100
AcDbEntity
8
0
100
AcDbCircle
10
-100.15000000000001
20
196.15000000000003
30
0
40
18.70000000000001
210
0
220
-0
230
1
0
CIRCLE
5
104
100
AcDbEntity
8
0
100
AcDbCircle
10
-196.15000000000003
20
100.15000000000001
30
0
40
18.70000000000001
210
0
220
-0
230
1
0
CIRCLE
5
105
100
AcDbEntity
8
0
100
AcDbCircle
10
-484.15000000000015
20
100.15000000000001
30
0
40
18.699999999999971
210
0
220
-0
230
1
0
CIRCLE
5
106
100
AcDbEntity
8
0
100
AcDbCircle
10
-100.15000000000001
20
100.15000000000001
30
0
40
18.70000000000001
210
0
220
-0
230
1
0
LWPOLYLINE
5
107
100
AcDbEntity
8
0
100
AcDbPolyline
90
4
70
1
43
0.0
10
-293.97052801185481
20
382.39105602370967
42
-0.99999999999999989
10
-293.97052801185481
20
341.35000000000002
10
-386.32947198814531
20
341.35000000000002
42
-0.99999999999999989
10
-386.32947198814531
20
382.39105602370967
0
CIRCLE
5
108
100
AcDbEntity
8
0
100
AcDbCircle
10
-292.15000000000009
20
196.15000000000003
30
0
40
18.70000000000001
210
0
220
-0
230
1
0
CIRCLE
5
109
100
AcDbEntity
8
0
100
AcDbCircle
10
-484.15000000000015
20
196.15000000000003
30
0
40
18.699999999999971
210
0
220
-0
230
1
0
CIRCLE
5
110
100
AcDbEntity
8
0
100
AcDbCircle
10
-388.15000000000009
20
196.15000000000003
30
0
40
18.699999999999971
210
0
220
-0
230
1
0
CIRCLE
5
111
100
AcDbEntity
8
0
100
AcDbCircle
10
-196.15000000000003
20
196.15000000000003
30
0
40
18.70000000000001
210
0
220
-0
230
1
0
CIRCLE
5
112
100
AcDbEntity
8
0
100
AcDbCircle
10
-388.15000000000009
20
100.15000000000001
30
0
40
18.699999999999971
210
0
220
-0
230
1
0
LWPOLYLINE
5
113
100
AcDbEntity
8
0
100
AcDbPolyline
90
4
70
1
43
0.0
10
-173.37500000000011
20
279.35439758536046
10
-95.275000000000247
20
324.44545360906989
42
0.99999999999999989
10
-122.92499999999961
20
372.33665843834962
10
-201.02499999999995
20
327.24560241463973
42
0.99999999999999989
0
LWPOLYLINE
5
114
100
AcDbEntity
8
0
100
AcDbPolyline
90
4
70
1
43
0.0
10
-301.09999999999991
20
330.94999999999999
42
-0.99999999999999989
10
-301.10000000000002
20
275.65000000000009
10
-379.20000000000022
20
275.65000000000009
42
-0.99999999999999989
10
-379.20000000000022
20
330.95000000000005
0
LWPOLYLINE
5
115
100
AcDbEntity
8
0
100
AcDbPolyline
90
12
70
1
43
0.0
10
-50.000000000000036
20
392.79105602370964
10
-2.6645352591003757e-14
20
342.79105602370964
10
0
20
10
10
-10
20
3.1086244689504383e-14
10
-590.20000000000005
20
0
42
-0.41421356237309515
10
-640.20000000000005
20
50.000000000000007
10
-640.20000000000005
20
75.5
10
-580.15000000000009
20
75.5
42
0.99999999999999989
10
-580.15000000000009
20
124.80000000000001
10
-640.20000000000005
20
124.80000000000001
10
-640.20000000000005
20
292.7910560237097
42
-0.41421356237309509
10
-540.20000000000005
20
392.7910560237097
0
LWPOLYLINE
5
116
100
AcDbEntity
8
0
100
AcDbPolyline
90
8
70
1
43
0.0
10
-532.10000000000025
20
275.65000000000015
10
-493.10000000000002
20
275.65000000000015
42
0.99999999999999989
10
-493.10000000000002
20
330.94999999999999
10
-571.20000000000016
20
330.95000000000005
42
0.41421356237309465
10
-598.85000000000014
20
303.30000000000007
10
-598.85000000000014
20
205.10000000000002
42
0.99999999999999989
10
-543.55000000000007
20
205.10000000000002
10
-543.5500000000003
20
264.20000000000016
42
-0.41421356237309959
0
CIRCLE
5
117
100
AcDbEntity
8
0
100
AcDbCircle
10
-292.15000000000009
20
100.15000000000001
30
0
40
18.70000000000001
210
0
220
-0
230
1
0
CIRCLE
5
118
100
AcDbEntity
8
0
100
AcDbCircle
10
-100.15000000000001
20
196.15000000000003
30
0
40
18.70000000000001
210
0
220
-0
230
1
0
CIRCLE
5
119
100
AcDbEntity
8
0
100
AcDbCircle
10
-196.15000000000003
20
100.15000000000001
30
0
40
18.70000000000001
210
0
220
-0
230
1
0
CIRCLE
5
120
100
AcDbEntity
8
0
100
AcDbCircle
10
-484.15000000000015
20
100.15000000000001
30
0
40
18.699999999999974
210
0
220
-0
230
1
0
CIRCLE
5
121
100
AcDbEntity
8
0
100
AcDbCircle
10
-100.15000000000001
20
100.15000000000001
30
0
40
18.70000000000001
210
0
220
-0
230
1
0
LWPOLYLINE
5
122
100
AcDbEntity
8
0
100
AcDbPolyline
90
4
70
1
43
0.0
10
-293.97052801185481
20
382.39105602370967
42
-0.99999999999999989
10
-293.97052801185481
20
341.35000000000002
10
-386.32947198814531
20
341.35000000000002
42
-0.99999999999999989
10
-386.32947198814531
20
382.39105602370967
0
CIRCLE
5
123
100
AcDbEntity
8
0
100
AcDbCircle
10
-292.15000000000009
20
196.15000000000003
30
0
40
18.70000000000001
210
0
220
-0
230
1
0
CIRCLE
5
124
100
AcDbEntity
8
0
100
AcDbCircle
10
-484.15000000000015
20
196.15000000000003
30
0
40
18.699999999999974
210
0
220
-0
230
1
0
CIRCLE
5
125
100
AcDbEntity
8
0
100
AcDbCircle
10
-388.15000000000009
20
196.15000000000003
30
0
40
18.699999999999974
210
0
220
-0
230
1
0
CIRCLE
5
126
100
AcDbEntity
8
0
100
AcDbCircle
10
-196.15000000000003
20
196.15000000000003
30
0
40
18.70000000000001
210
0
220
-0
230
1
0
CIRCLE
5
127
100
AcDbEntity
8
0
100
AcDbCircle
10
-388.15000000000009
20
100.15000000000001
30
0
40
18.699999999999974
210
0
220
-0
230
1
0
LINE
5
128
100
AcDbEntity
8
0
100
AcDbLine
10
-95.275000000000247
20
324.44545360906989
30
0
11
-173.37500000000011
21
279.35439758536046
31
0
0
ARC
5
129
100
AcDbEntity
8
0
100
AcDbCircle
10
-109.09999999999999
20
348.39105602370967
30
0
40
27.64999999999992
210
-0
220
0
230
1
100
AcDbArc
50
-60.00000000000049
51
119.99999999999955
0
LINE
5
130
100
AcDbEntity
8
0
100
AcDbLine
10
-201.02499999999995
20
327.24560241463973
30
0
11
-122.92499999999976
21
372.33665843834945
31
0
0
ARC
5
131
100
AcDbEntity
8
0
100
AcDbCircle
10
-187.20000000000002
20
303.30000000000013
30
0
40
27.649999999999885
210
0
220
0
230
1
100
AcDbArc
50
120.00000000000001
51
299.99999999999983
0
LWPOLYLINE
5
132
100
AcDbEntity
8
0
100
AcDbPolyline
90
4
70
1
43
0.0
10
-301.09999999999991
20
330.94999999999999
42
-0.99999999999999989
10
-301.10000000000002
20
275.65000000000009
10
-379.20000000000022
20
275.65000000000009
42
-0.99999999999999989
10
-379.20000000000022
20
330.95000000000005
0
ENDSEC
0
SECTION
2
OBJECTS
0
DICTIONARY
5
C
100
AcDbDictionary
3
ACAD_GROUP
350
D
3
ACAD_MLINESTYLE
350
17
0
DICTIONARY
5
D
100
AcDbDictionary
0
DICTIONARY
5
1A
330
C
100
AcDbDictionary
0
DICTIONARY
5
17
100
AcDbDictionary
0
ENDSEC
0
EOF
