  0
SECTION
  2
HEADER
  9
$ACADVER
  1
AC1009
  9
$DWGCODEPAGE
  3
ansi_1252
  9
$INSBASE
 10
0.0
 20
0.0
 30
0.0
  9
$EXTMIN
 10
0.4539320394190822
 20
0.4426913858921129
 30
0.0
  9
$EXTMAX
 10
11.54606796058092
 20
11.55730861410789
 30
0.0
  9
$LIMMIN
 10
0.0
 20
0.0
  9
$LIMMAX
 10
12.0
 20
9.0
  9
$ORTHOMODE
 70
     0
  9
$REGENMODE
 70
     1
  9
$FILLMODE
 70
     1
  9
$QTEXTMODE
 70
     0
  9
$MIRRTEXT
 70
     1
  9
$DRAGMODE
 70
     2
  9
$LTSCALE
 40
1.0
  9
$OSMODE
 70
    37
  9
$ATTMODE
 70
     1
  9
$TEXTSIZE
 40
0.2
  9
$TRACEWID
 40
0.05
  9
$TEXTSTYLE
  7
STANDARD
  9
$CLAYER
  8
0
  9
$CELTYPE
  6
BYLAYER
  9
$CECOLOR
 62
   256
  9
$DIMSCALE
 40
1.0
  9
$DIMASZ
 40
0.18
  9
$DIMEXO
 40
0.0625
  9
$DIMDLI
 40
0.38
  9
$DIMRND
 40
0.0
  9
$DIMDLE
 40
0.0
  9
$DIMEXE
 40
0.18
  9
$DIMTP
 40
0.0
  9
$DIMTM
 40
0.0
  9
$DIMTXT
 40
0.18
  9
$DIMCEN
 40
0.09
  9
$DIMTSZ
 40
0.0
  9
$DIMTOL
 70
     0
  9
$DIMLIM
 70
     0
  9
$DIMTIH
 70
     1
  9
$DIMTOH
 70
     1
  9
$DIMSE1
 70
     0
  9
$DIMSE2
 70
     0
  9
$DIMTAD
 70
     0
  9
$DIMZIN
 70
     0
  9
$DIMBLK
  1

  9
$DIMASO
 70
     1
  9
$DIMSHO
 70
     1
  9
$DIMPOST
  1

  9
$DIMAPOST
  1

  9
$DIMALT
 70
     0
  9
$DIMALTD
 70
     2
  9
$DIMALTF
 40
25.4
  9
$DIMLFAC
 40
1.0
  9
$DIMTOFL
 70
     0
  9
$DIMTVP
 40
0.0
  9
$DIMTIX
 70
     0
  9
$DIMSOXD
 70
     0
  9
$DIMSAH
 70
     0
  9
$DIMBLK1
  1

  9
$DIMBLK2
  1

  9
$DIMSTYLE
  2
STANDARD
  9
$DIMCLRD
 70
     0
  9
$DIMCLRE
 70
     0
  9
$DIMCLRT
 70
     0
  9
$DIMTFAC
 40
1.0
  9
$DIMGAP
 40
0.09
  9
$LUNITS
 70
     2
  9
$LUPREC
 70
     4
  9
$SKETCHINC
 40
0.1
  9
$FILLETRAD
 40
0.0
  9
$AUNITS
 70
     0
  9
$AUPREC
 70
     0
  9
$MENU
  1
.
  9
$ELEVATION
 40
0.0
  9
$PELEVATION
 40
0.0
  9
$THICKNESS
 40
0.0
  9
$LIMCHECK
 70
     0
  9
$CHAMFERA
 40
0.0
  9
$CHAMFERB
 40
0.0
  9
$SKPOLY
 70
     0
  9
$TDCREATE
 40
2454910.5
  9
$TDUPDATE
 40
2459743.610968275
  9
$TDINDWG
 40
0.0000000116
  9
$TDUSRTIMER
 40
0.0000000116
  9
$USRTIMER
 70
     1
  9
$ANGBASE
 50
0.0
  9
$ANGDIR
 70
     0
  9
$PDMODE
 70
     0
  9
$PDSIZE
 40
0.0
  9
$PLINEWID
 40
0.0
  9
$COORDS
 70
     1
  9
$SPLFRAME
 70
     0
  9
$SPLINETYPE
 70
     6
  9
$SPLINESEGS
 70
     8
  9
$ATTDIA
 70
     0
  9
$ATTREQ
 70
     1
  9
$HANDLING
 70
     1
  9
$HANDSEED
  5
6BA
  9
$SURFTAB1
 70
     6
  9
$SURFTAB2
 70
     6
  9
$SURFTYPE
 70
     6
  9
$SURFU
 70
     6
  9
$SURFV
 70
     6
  9
$UCSNAME
  2

  9
$UCSORG
 10
0.0
 20
0.0
 30
0.0
  9
$UCSXDIR
 10
1.0
 20
0.0
 30
0.0
  9
$UCSYDIR
 10
0.0
 20
1.0
 30
0.0
  9
$PUCSNAME
  2

  9
$PUCSORG
 10
0.0
 20
0.0
 30
0.0
  9
$PUCSXDIR
 10
1.0
 20
0.0
 30
0.0
  9
$PUCSYDIR
 10
0.0
 20
1.0
 30
0.0
  9
$USERI1
 70
     0
  9
$USERI2
 70
     0
  9
$USERI3
 70
     0
  9
$USERI4
 70
     0
  9
$USERI5
 70
     0
  9
$USERR1
 40
0.0
  9
$USERR2
 40
0.0
  9
$USERR3
 40
0.0
  9
$USERR4
 40
0.0
  9
$USERR5
 40
0.0
  9
$WORLDVIEW
 70
     1
  9
$SHADEDGE
 70
     3
  9
$SHADEDIF
 70
    70
  9
$TILEMODE
 70
     1
  9
$MAXACTVP
 70
    64
  9
$PLIMCHECK
 70
     0
  9
$PEXTMIN
 10
1.000000000000000E+20
 20
1.000000000000000E+20
 30
1.000000000000000E+20
  9
$PEXTMAX
 10
-1.000000000000000E+20
 20
-1.000000000000000E+20
 30
-1.000000000000000E+20
  9
$PLIMMIN
 10
0.0
 20
0.0
  9
$PLIMMAX
 10
12.0
 20
9.0
  9
$UNITMODE
 70
     0
  9
$VISRETAIN
 70
     1
  9
$PLINEGEN
 70
     0
  9
$PSLTSCALE
 70
     1
  0
ENDSEC
  0
SECTION
  2
TABLES
  0
TABLE
  2
VPORT
 70
     1
  0
VPORT
  2
*ACTIVE
 70
     0
 10
0.0
 20
0.0
 11
1.0
 21
1.0
 12
10.42990654205607
 22
4.5
 13
0.0
 23
0.0
 14
0.5
 24
0.5
 15
0.5
 25
0.5
 16
0.0
 26
0.0
 36
1.0
 17
0.0
 27
0.0
 37
0.0
 40
9.0
 41
1.972972972850329
 42
50.0
 43
0.0
 44
0.0
 50
0.0
 51
0.0
 71
     0
 72
   100
 73
     1
 74
     3
 75
     0
 76
     0
 77
     0
 78
     0
  0
ENDTAB
  0
TABLE
  2
LTYPE
 70
     2
  0
LTYPE
  2
CONTINUOUS
 70
     0
  3
Solid line
 72
    65
 73
     0
 40
0.0
  0
LTYPE
  2
CONTINUOUS2
 70
     0
  3
Solid Line
 72
    65
 73
     0
 40
0.0
  0
ENDTAB
  0
TABLE
  2
LAYER
 70
     1
  0
LAYER
  2
0
 70
     0
 62
     7
  6
CONTINUOUS
  0
ENDTAB
  0
TABLE
  2
STYLE
 70
     1
  0
STYLE
  2
STANDARD
 70
     0
 40
0.0
 41
1.0
 50
0.0
 71
     0
 42
0.2
  3
txt
  4

  0
ENDTAB
  0
TABLE
  2
VIEW
 70
     0
  0
ENDTAB
  0
TABLE
  2
UCS
 70
     0
  0
ENDTAB
  0
TABLE
  2
APPID
 70
     1
  0
APPID
  2
ACAD
 70
     0
  0
ENDTAB
  0
TABLE
  2
DIMSTYLE
 70
     1
  0
DIMSTYLE
  2
STANDARD
 70
     0
  3

  4

  5

  6

  7

 40
1.0
 41
0.18
 42
0.0625
 43
0.38
 44
0.18
 45
0.0
 46
0.0
 47
0.0
 48
0.0
140
0.18
141
0.09
142
0.0
143
25.4
144
1.0
145
0.0
146
1.0
147
0.09
 71
     0
 72
     0
 73
     1
 74
     1
 75
     0
 76
     0
 77
     0
 78
     0
170
     0
171
     2
172
     0
173
     0
174
     0
175
     0
176
     0
177
     0
178
     0
  0
ENDTAB
  0
ENDSEC
  0
SECTION
  2
BLOCKS
  0
BLOCK
  8
0
  2
$MODEL_SPACE
 70
     0
 10
0.0
 20
0.0
 30
0.0
  3
$MODEL_SPACE
  1

  0
ENDBLK
  5
21
  8
0
  0
BLOCK
 67
     1
  8
0
  2
$PAPER_SPACE
 70
     0
 10
0.0
 20
0.0
 30
0.0
  3
$PAPER_SPACE
  1

  0
ENDBLK
  5
1D
 67
     1
  8
0
  0
ENDSEC
  0
SECTION
  2
ENTITIES
  0
POLYLINE
  5
5F
  8
0
 66
     1
 10
0.0
 20
0.0
 30
0.0
 70
     1
  0
VERTEX
  5
8A
  8
0
 10
1.59091603941908
 20
2.850883385892113
 30
0.0
  0
VERTEX
  5
8B
  8
0
 10
1.589627039419081
 20
2.876402385892112
 30
0.0
  0
VERTEX
  5
8C
  8
0
 10
1.585845039419083
 20
2.901184385892114
 30
0.0
  0
VERTEX
  5
8D
  8
0
 10
1.579695039419081
 20
2.925103385892113
 30
0.0
  0
VERTEX
  5
8E
  8
0
 10
1.571302039419083
 20
2.948035385892114
 30
0.0
  0
VERTEX
  5
8F
  8
0
 10
1.560792039419083
 20
2.969853385892113
 30
0.0
  0
VERTEX
  5
90
  8
0
 10
1.548290039419082
 20
2.990432385892111
 30
0.0
  0
VERTEX
  5
91
  8
0
 10
1.533922039419081
 20
3.009646385892113
 30
0.0
  0
VERTEX
  5
92
  8
0
 10
1.517813039419081
 20
3.027371385892112
 30
0.0
  0
VERTEX
  5
93
  8
0
 10
1.500089039419083
 20
3.043480385892112
 30
0.0
  0
VERTEX
  5
94
  8
0
 10
1.48087403941908
 20
3.057849385892114
 30
0.0
  0
VERTEX
  5
95
  8
0
 10
1.460295039419083
 20
3.070351385892112
 30
0.0
  0
VERTEX
  5
96
  8
0
 10
1.438477039419083
 20
3.080861385892112
 30
0.0
  0
VERTEX
  5
97
  8
0
 10
1.415546039419083
 20
3.089254385892113
 30
0.0
  0
VERTEX
  5
98
  8
0
 10
1.391626039419083
 20
3.095405385892112
 30
0.0
  0
VERTEX
  5
99
  8
0
 10
1.366843039419083
 20
3.099187385892114
 30
0.0
  0
VERTEX
  5
9A
  8
0
 10
1.341322039419082
 20
3.100476385892113
 30
0.0
  0
VERTEX
  5
9B
  8
0
 10
1.315803039419083
 20
3.099187385892114
 30
0.0
  0
VERTEX
  5
9C
  8
0
 10
1.291021039419081
 20
3.095405385892112
 30
0.0
  0
VERTEX
  5
9D
  8
0
 10
1.267102039419082
 20
3.089254385892113
 30
0.0
  0
VERTEX
  5
9E
  8
0
 10
1.244170039419081
 20
3.080861385892112
 30
0.0
  0
VERTEX
  5
9F
  8
0
 10
1.222352039419081
 20
3.070351385892112
 30
0.0
  0
VERTEX
  5
A0
  8
0
 10
1.201773039419083
 20
3.057849385892114
 30
0.0
  0
VERTEX
  5
A1
  8
0
 10
1.182559039419082
 20
3.043480385892112
 30
0.0
  0
VERTEX
  5
A2
  8
0
 10
1.164834039419083
 20
3.027371385892112
 30
0.0
  0
VERTEX
  5
A3
  8
0
 10
1.148725039419083
 20
3.009646385892113
 30
0.0
  0
VERTEX
  5
A4
  8
0
 10
1.134356039419081
 20
2.990432385892111
 30
0.0
  0
VERTEX
  5
A5
  8
0
 10
1.121854039419083
 20
2.969853385892113
 30
0.0
  0
VERTEX
  5
A6
  8
0
 10
1.111344039419083
 20
2.948035385892114
 30
0.0
  0
VERTEX
  5
A7
  8
0
 10
1.102951039419081
 20
2.925103385892113
 30
0.0
  0
VERTEX
  5
A8
  8
0
 10
1.096800039419082
 20
2.901184385892114
 30
0.0
  0
VERTEX
  5
A9
  8
0
 10
1.093018039419081
 20
2.876402385892112
 30
0.0
  0
VERTEX
  5
AA
  8
0
 10
1.091729039419081
 20
2.850883385892113
 30
0.0
  0
VERTEX
  5
AB
  8
0
 10
1.093018039419081
 20
2.825363385892112
 30
0.0
  0
VERTEX
  5
AC
  8
0
 10
1.096800039419082
 20
2.800581385892114
 30
0.0
  0
VERTEX
  5
AD
  8
0
 10
1.102951039419081
 20
2.776662385892111
 30
0.0
  0
VERTEX
  5
AE
  8
0
 10
1.111344039419083
 20
2.753730385892114
 30
0.0
  0
VERTEX
  5
AF
  8
0
 10
1.121854039419083
 20
2.731912385892114
 30
0.0
  0
VERTEX
  5
B0
  8
0
 10
1.134356039419081
 20
2.711333385892113
 30
0.0
  0
VERTEX
  5
B1
  8
0
 10
1.148725039419083
 20
2.692119385892111
 30
0.0
  0
VERTEX
  5
B2
  8
0
 10
1.164834039419083
 20
2.674394385892112
 30
0.0
  0
VERTEX
  5
B3
  8
0
 10
1.182559039419082
 20
2.658285385892112
 30
0.0
  0
VERTEX
  5
B4
  8
0
 10
1.201773039419083
 20
2.643916385892114
 30
0.0
  0
VERTEX
  5
B5
  8
0
 10
1.222352039419081
 20
2.631414385892112
 30
0.0
  0
VERTEX
  5
B6
  8
0
 10
1.244170039419081
 20
2.620904385892112
 30
0.0
  0
VERTEX
  5
B7
  8
0
 10
1.267102039419082
 20
2.612511385892114
 30
0.0
  0
VERTEX
  5
B8
  8
0
 10
1.291021039419081
 20
2.606360385892112
 30
0.0
  0
VERTEX
  5
B9
  8
0
 10
1.315803039419083
 20
2.602578385892114
 30
0.0
  0
VERTEX
  5
BA
  8
0
 10
1.341322039419082
 20
2.601289385892114
 30
0.0
  0
VERTEX
  5
BB
  8
0
 10
1.366843039419083
 20
2.602578385892114
 30
0.0
  0
VERTEX
  5
BC
  8
0
 10
1.391626039419083
 20
2.606360385892112
 30
0.0
  0
VERTEX
  5
BD
  8
0
 10
1.415546039419083
 20
2.612511385892114
 30
0.0
  0
VERTEX
  5
BE
  8
0
 10
1.438477039419083
 20
2.620904385892112
 30
0.0
  0
VERTEX
  5
BF
  8
0
 10
1.460295039419083
 20
2.631414385892112
 30
0.0
  0
VERTEX
  5
C0
  8
0
 10
1.48087403941908
 20
2.643916385892114
 30
0.0
  0
VERTEX
  5
C1
  8
0
 10
1.500089039419083
 20
2.658285385892112
 30
0.0
  0
VERTEX
  5
C2
  8
0
 10
1.517813039419081
 20
2.674394385892112
 30
0.0
  0
VERTEX
  5
C3
  8
0
 10
1.533922039419081
 20
2.692119385892111
 30
0.0
  0
VERTEX
  5
C4
  8
0
 10
1.548290039419082
 20
2.711333385892113
 30
0.0
  0
VERTEX
  5
C5
  8
0
 10
1.560792039419083
 20
2.731912385892114
 30
0.0
  0
VERTEX
  5
C6
  8
0
 10
1.571302039419083
 20
2.753730385892114
 30
0.0
  0
VERTEX
  5
C7
  8
0
 10
1.579695039419081
 20
2.776662385892111
 30
0.0
  0
VERTEX
  5
C8
  8
0
 10
1.585845039419083
 20
2.800581385892114
 30
0.0
  0
VERTEX
  5
C9
  8
0
 10
1.589627039419081
 20
2.825363385892112
 30
0.0
  0
SEQEND
  5
696
  8
0
  0
POLYLINE
  5
60
  8
0
 66
     1
 10
0.0
 20
0.0
 30
0.0
 70
     1
  0
VERTEX
  5
CA
  8
0
 10
2.142382039419082
 20
3.960163385892114
 30
0.0
  0
VERTEX
  5
CB
  8
0
 10
1.636563039419083
 20
1.770858385892113
 30
0.0
  0
VERTEX
  5
CC
  8
0
 10
4.21797203941908
 20
3.044296385892112
 30
0.0
  0
VERTEX
  5
CD
  8
0
 10
4.006384039419081
 20
3.960163385892114
 30
0.0
  0
SEQEND
  5
697
  8
0
  0
POLYLINE
  5
61
  8
0
 66
     1
 10
0.0
 20
0.0
 30
0.0
 70
     1
  0
VERTEX
  5
CE
  8
0
 10
4.849605039419081
 20
3.390651385892111
 30
0.0
  0
VERTEX
  5
CF
  8
0
 10
5.012800039419083
 20
3.426404385892114
 30
0.0
  0
VERTEX
  5
D0
  8
0
 10
5.178883039419083
 20
3.433430385892114
 30
0.0
  0
VERTEX
  5
D1
  8
0
 10
5.34395003941908
 20
3.411579385892113
 30
0.0
  0
VERTEX
  5
D2
  8
0
 10
5.504201039419082
 20
3.361340385892111
 30
0.0
  0
VERTEX
  5
D3
  8
0
 10
5.475419039419083
 20
3.498669385892113
 30
0.0
  0
VERTEX
  5
D4
  8
0
 10
5.368567039419083
 20
3.615152385892111
 30
0.0
  0
VERTEX
  5
D5
  8
0
 10
5.246049039419083
 20
3.709404385892112
 30
0.0
  0
VERTEX
  5
D6
  8
0
 10
5.111419039419082
 20
3.778699385892113
 30
0.0
  0
VERTEX
  5
D7
  8
0
 10
4.968475039419082
 20
3.821098385892112
 30
0.0
  0
VERTEX
  5
D8
  8
0
 10
4.821339039419082
 20
3.835367385892114
 30
0.0
  0
VERTEX
  5
D9
  8
0
 10
3.94784403941908
 20
3.835367385892114
 30
0.0
  0
VERTEX
  5
DA
  8
0
 10
3.879566039419081
 20
3.787339385892112
 30
0.0
  0
VERTEX
  5
DB
  8
0
 10
3.804737039419083
 20
3.754393385892113
 30
0.0
  0
VERTEX
  5
DC
  8
0
 10
3.725906039419082
 20
3.737629385892111
 30
0.0
  0
VERTEX
  5
DD
  8
0
 10
3.64573303941908
 20
3.737629385892111
 30
0.0
  0
VERTEX
  5
DE
  8
0
 10
3.56688903941908
 20
3.754393385892113
 30
0.0
  0
VERTEX
  5
DF
  8
0
 10
3.492060039419083
 20
3.787339385892112
 30
0.0
  0
VERTEX
  5
E0
  8
0
 10
3.423769039419081
 20
3.835367385892114
 30
0.0
  0
VERTEX
  5
E1
  8
0
 10
3.336421039419082
 20
3.835367385892114
 30
0.0
  0
VERTEX
  5
E2
  8
0
 10
3.268129039419082
 20
3.787339385892112
 30
0.0
  0
VERTEX
  5
E3
  8
0
 10
3.193300039419081
 20
3.754393385892113
 30
0.0
  0
VERTEX
  5
E4
  8
0
 10
3.11446903941908
 20
3.737629385892111
 30
0.0
  0
VERTEX
  5
E5
  8
0
 10
3.034283039419083
 20
3.737629385892111
 30
0.0
  0
VERTEX
  5
E6
  8
0
 10
2.955439039419082
 20
3.754393385892113
 30
0.0
  0
VERTEX
  5
E7
  8
0
 10
2.88062303941908
 20
3.787339385892112
 30
0.0
  0
VERTEX
  5
E8
  8
0
 10
2.812332039419082
 20
3.835367385892114
 30
0.0
  0
VERTEX
  5
E9
  8
0
 10
2.724990039419082
 20
3.835367385892114
 30
0.0
  0
VERTEX
  5
EA
  8
0
 10
2.65668503941908
 20
3.787339385892112
 30
0.0
  0
VERTEX
  5
EB
  8
0
 10
2.581863039419082
 20
3.754393385892113
 30
0.0
  0
VERTEX
  5
EC
  8
0
 10
2.503032039419081
 20
3.737629385892111
 30
0.0
  0
VERTEX
  5
ED
  8
0
 10
2.42284603941908
 20
3.737629385892111
 30
0.0
  0
VERTEX
  5
EE
  8
0
 10
2.344015039419083
 20
3.754393385892113
 30
0.0
  0
VERTEX
  5
EF
  8
0
 10
2.269186039419082
 20
3.787339385892112
 30
0.0
  0
VERTEX
  5
F0
  8
0
 10
2.200895039419083
 20
3.835367385892114
 30
0.0
  0
VERTEX
  5
F1
  8
0
 10
1.32741303941908
 20
3.835367385892114
 30
0.0
  0
VERTEX
  5
F2
  8
0
 10
1.15700303941908
 20
3.816188385892113
 30
0.0
  0
VERTEX
  5
F3
  8
0
 10
0.9931440394190814
 20
3.759371385892115
 30
0.0
  0
VERTEX
  5
F4
  8
0
 10
0.8421290394190803
 20
3.667113385892113
 30
0.0
  0
VERTEX
  5
F5
  8
0
 10
0.7097710394190804
 20
3.542954385892111
 30
0.0
  0
VERTEX
  5
F6
  8
0
 10
0.6011420394190834
 20
3.391654385892112
 30
0.0
  0
VERTEX
  5
F7
  8
0
 10
0.5204260394190809
 20
3.219047385892113
 30
0.0
  0
VERTEX
  5
F8
  8
0
 10
0.4707160394190799
 20
3.031764385892112
 30
0.0
  0
VERTEX
  5
F9
  8
0
 10
0.4539320394190822
 20
2.836994385892114
 30
0.0
  0
VERTEX
  5
FA
  8
0
 10
0.4707160394190799
 20
2.642224385892112
 30
0.0
  0
VERTEX
  5
FB
  8
0
 10
0.5204260394190809
 20
2.454940385892113
 30
0.0
  0
VERTEX
  5
FC
  8
0
 10
0.6011420394190834
 20
2.282333385892114
 30
0.0
  0
VERTEX
  5
FD
  8
0
 10
0.7097710394190804
 20
2.131033385892112
 30
0.0
  0
VERTEX
  5
FE
  8
0
 10
0.8421290394190803
 20
2.006874385892113
 30
0.0
  0
VERTEX
  5
FF
  8
0
 10
0.9931440394190814
 20
1.914616385892112
 30
0.0
  0
VERTEX
  5
100
  8
0
 10
1.15700303941908
 20
1.857799385892113
 30
0.0
  0
VERTEX
  5
101
  8
0
 10
1.32741303941908
 20
1.838621385892113
 30
0.0
  0
VERTEX
  5
102
  8
0
 10
1.497823039419081
 20
1.857799385892113
 30
0.0
  0
VERTEX
  5
103
  8
0
 10
1.66167603941908
 20
1.914616385892112
 30
0.0
  0
VERTEX
  5
104
  8
0
 10
1.81269003941908
 20
2.006874385892113
 30
0.0
  0
VERTEX
  5
105
  8
0
 10
1.94505503941908
 20
2.131033385892112
 30
0.0
  0
VERTEX
  5
106
  8
0
 10
2.053691039419081
 20
2.282333385892114
 30
0.0
  0
VERTEX
  5
107
  8
0
 10
2.13440703941908
 20
2.454940385892113
 30
0.0
  0
VERTEX
  5
108
  8
0
 10
2.184110039419081
 20
2.642224385892112
 30
0.0
  0
VERTEX
  5
109
  8
0
 10
2.200895039419083
 20
2.836994385892114
 30
0.0
  0
VERTEX
  5
10A
  8
0
 10
4.821339039419082
 20
3.270113385892111
 30
0.0
  0
SEQEND
  5
698
  8
0
  0
POLYLINE
  5
62
  8
0
 66
     1
 10
0.0
 20
0.0
 30
0.0
 70
     1
  0
VERTEX
  5
10B
  8
0
 10
4.706891039419083
 20
1.474417385892112
 30
0.0
  0
VERTEX
  5
10C
  8
0
 10
4.699466039419081
 20
1.498865385892111
 30
0.0
  0
VERTEX
  5
10D
  8
0
 10
4.694636039419083
 20
1.523465385892115
 30
0.0
  0
VERTEX
  5
10E
  8
0
 10
4.692327039419083
 20
1.548054385892113
 30
0.0
  0
VERTEX
  5
10F
  8
0
 10
4.692462039419083
 20
1.572472385892114
 30
0.0
  0
VERTEX
  5
110
  8
0
 10
4.694966039419081
 20
1.596559385892112
 30
0.0
  0
VERTEX
  5
111
  8
0
 10
4.699764039419082
 20
1.620155385892113
 30
0.0
  0
VERTEX
  5
112
  8
0
 10
4.706780039419082
 20
1.643099385892112
 30
0.0
  0
VERTEX
  5
113
  8
0
 10
4.715938039419082
 20
1.665230385892114
 30
0.0
  0
VERTEX
  5
114
  8
0
 10
4.727163039419081
 20
1.686388385892114
 30
0.0
  0
VERTEX
  5
115
  8
0
 10
4.740380039419082
 20
1.706412385892113
 30
0.0
  0
VERTEX
  5
116
  8
0
 10
4.75551203941908
 20
1.725143385892112
 30
0.0
  0
VERTEX
  5
117
  8
0
 10
4.77248503941908
 20
1.742419385892111
 30
0.0
  0
VERTEX
  5
118
  8
0
 10
4.791223039419083
 20
1.758079385892112
 30
0.0
  0
VERTEX
  5
119
  8
0
 10
4.811649039419083
 20
1.771965385892114
 30
0.0
  0
VERTEX
  5
11A
  8
0
 10
4.833690039419081
 20
1.783914385892112
 30
0.0
  0
VERTEX
  5
11B
  8
0
 10
4.857268039419082
 20
1.793766385892114
 30
0.0
  0
VERTEX
  5
11C
  8
0
 10
4.88171503941908
 20
1.801192385892113
 30
0.0
  0
VERTEX
  5
11D
  8
0
 10
4.90631203941908
 20
1.806021385892114
 30
0.0
  0
VERTEX
  5
11E
  8
0
 10
4.930900039419082
 20
1.808330385892114
 30
0.0
  0
VERTEX
  5
11F
  8
0
 10
4.955318039419082
 20
1.808194385892113
 30
0.0
  0
VERTEX
  5
120
  8
0
 10
4.979404039419083
 20
1.805689385892114
 30
0.0
  0
VERTEX
  5
121
  8
0
 10
5.003000039419081
 20
1.800890385892112
 30
0.0
  0
VERTEX
  5
122
  8
0
 10
5.025944039419083
 20
1.793874385892112
 30
0.0
  0
VERTEX
  5
123
  8
0
 10
5.048075039419081
 20
1.784715385892111
 30
0.0
  0
VERTEX
  5
124
  8
0
 10
5.069233039419081
 20
1.773489385892114
 30
0.0
  0
VERTEX
  5
125
  8
0
 10
5.08925703941908
 20
1.760272385892113
 30
0.0
  0
VERTEX
  5
126
  8
0
 10
5.107987039419082
 20
1.745139385892111
 30
0.0
  0
VERTEX
  5
127
  8
0
 10
5.125263039419081
 20
1.728167385892112
 30
0.0
  0
VERTEX
  5
128
  8
0
 10
5.140923039419081
 20
1.709430385892114
 30
0.0
  0
VERTEX
  5
129
  8
0
 10
5.154807039419082
 20
1.689005385892115
 30
0.0
  0
VERTEX
  5
12A
  8
0
 10
5.166754039419081
 20
1.666966385892112
 30
0.0
  0
VERTEX
  5
12B
  8
0
 10
5.176605039419083
 20
1.643389385892112
 30
0.0
  0
VERTEX
  5
12C
  8
0
 10
5.184032039419082
 20
1.618940385892111
 30
0.0
  0
VERTEX
  5
12D
  8
0
 10
5.188863039419082
 20
1.594341385892113
 30
0.0
  0
VERTEX
  5
12E
  8
0
 10
5.191173039419083
 20
1.569751385892113
 30
0.0
  0
VERTEX
  5
12F
  8
0
 10
5.191038039419083
 20
1.545332385892111
 30
0.0
  0
VERTEX
  5
130
  8
0
 10
5.18853303941908
 20
1.521244385892112
 30
0.0
  0
VERTEX
  5
131
  8
0
 10
5.183735039419083
 20
1.497648385892115
 30
0.0
  0
VERTEX
  5
132
  8
0
 10
5.176718039419081
 20
1.474703385892115
 30
0.0
  0
VERTEX
  5
133
  8
0
 10
5.167560039419082
 20
1.452571385892112
 30
0.0
  0
VERTEX
  5
134
  8
0
 10
5.156334039419082
 20
1.431413385892112
 30
0.0
  0
VERTEX
  5
135
  8
0
 10
5.143117039419081
 20
1.411388385892112
 30
0.0
  0
VERTEX
  5
136
  8
0
 10
5.127985039419083
 20
1.392657385892113
 30
0.0
  0
VERTEX
  5
137
  8
0
 10
5.11101303941908
 20
1.375382385892111
 30
0.0
  0
VERTEX
  5
138
  8
0
 10
5.092277039419083
 20
1.359722385892114
 30
0.0
  0
VERTEX
  5
139
  8
0
 10
5.07185203941908
 20
1.345838385892113
 30
0.0
  0
VERTEX
  5
13A
  8
0
 10
5.049815039419083
 20
1.333890385892113
 30
0.0
  0
VERTEX
  5
13B
  8
0
 10
5.026241039419083
 20
1.324040385892113
 30
0.0
  0
VERTEX
  5
13C
  8
0
 10
5.00179003941908
 20
1.316614385892114
 30
0.0
  0
VERTEX
  5
13D
  8
0
 10
4.977189039419083
 20
1.311785385892113
 30
0.0
  0
VERTEX
  5
13E
  8
0
 10
4.952598039419082
 20
1.309476385892113
 30
0.0
  0
VERTEX
  5
13F
  8
0
 10
4.928178039419083
 20
1.309612385892114
 30
0.0
  0
VERTEX
  5
140
  8
0
 10
4.904090039419081
 20
1.312117385892114
 30
0.0
  0
VERTEX
  5
141
  8
0
 10
4.880493039419082
 20
1.316916385892112
 30
0.0
  0
VERTEX
  5
142
  8
0
 10
4.857549039419083
 20
1.323932385892112
 30
0.0
  0
VERTEX
  5
143
  8
0
 10
4.835418039419081
 20
1.333091385892113
 30
0.0
  0
VERTEX
  5
144
  8
0
 10
4.814260039419081
 20
1.344317385892113
 30
0.0
  0
VERTEX
  5
145
  8
0
 10
4.794236039419082
 20
1.357534385892114
 30
0.0
  0
VERTEX
  5
146
  8
0
 10
4.77550603941908
 20
1.372667385892113
 30
0.0
  0
VERTEX
  5
147
  8
0
 10
4.75823203941908
 20
1.389639385892112
 30
0.0
  0
VERTEX
  5
148
  8
0
 10
4.742572039419083
 20
1.408376385892113
 30
0.0
  0
VERTEX
  5
149
  8
0
 10
4.728689039419083
 20
1.428802385892114
 30
0.0
  0
VERTEX
  5
14A
  8
0
 10
4.71674203941908
 20
1.450840385892112
 30
0.0
  0
SEQEND
  5
699
  8
0
  0
POLYLINE
  5
63
  8
0
 66
     1
 10
0.0
 20
0.0
 30
0.0
 70
     1
  0
VERTEX
  5
14B
  8
0
 10
3.812482039419083
 20
2.331541385892114
 30
0.0
  0
VERTEX
  5
14C
  8
0
 10
5.029523039419082
 20
0.4426913858921129
 30
0.0
  0
VERTEX
  5
14D
  8
0
 10
2.169448039419083
 20
0.7671413858921117
 30
0.0
  0
VERTEX
  5
14E
  8
0
 10
2.058520039419082
 20
1.700573385892111
 30
0.0
  0
SEQEND
  5
69A
  8
0
  0
POLYLINE
  5
64
  8
0
 66
     1
 10
0.0
 20
0.0
 30
0.0
 70
     1
  0
VERTEX
  5
14F
  8
0
 10
1.457859039419083
 20
0.8792423858921143
 30
0.0
  0
VERTEX
  5
150
  8
0
 10
1.292196039419081
 20
0.8576493858921115
 30
0.0
  0
VERTEX
  5
151
  8
0
 10
1.133538039419082
 20
0.8080343858921122
 30
0.0
  0
VERTEX
  5
152
  8
0
 10
0.9856160394190807
 20
0.7316053858921112
 30
0.0
  0
VERTEX
  5
153
  8
0
 10
0.8518270394190806
 20
0.630083385892112
 30
0.0
  0
VERTEX
  5
154
  8
0
 10
0.83242403941908
 20
0.7690403858921133
 30
0.0
  0
VERTEX
  5
155
  8
0
 10
0.893541039419083
 20
0.9148193858921143
 30
0.0
  0
VERTEX
  5
156
  8
0
 10
0.9769220394190823
 20
1.044987385892112
 30
0.0
  0
VERTEX
  5
157
  8
0
 10
1.080146039419083
 20
1.155759385892113
 30
0.0
  0
VERTEX
  5
158
  8
0
 10
1.200297039419083
 20
1.244043385892114
 30
0.0
  0
VERTEX
  5
159
  8
0
 10
1.33392403941908
 20
1.307275385892114
 30
0.0
  0
VERTEX
  5
15A
  8
0
 10
2.155851039419082
 20
1.602957385892113
 30
0.0
  0
VERTEX
  5
15B
  8
0
 10
2.236356039419081
 20
1.580876385892113
 30
0.0
  0
VERTEX
  5
15C
  8
0
 10
2.31791903941908
 20
1.575206385892114
 30
0.0
  0
VERTEX
  5
15D
  8
0
 10
2.397767039419082
 20
1.586111385892112
 30
0.0
  0
VERTEX
  5
15E
  8
0
 10
2.473207039419083
 20
1.613251385892111
 30
0.0
  0
VERTEX
  5
15F
  8
0
 10
2.54172203941908
 20
1.655718385892113
 30
0.0
  0
VERTEX
  5
160
  8
0
 10
2.60098703941908
 20
1.712047385892111
 30
0.0
  0
VERTEX
  5
161
  8
0
 10
2.648988039419083
 20
1.780352385892114
 30
0.0
  0
VERTEX
  5
162
  8
0
 10
2.731175039419081
 20
1.809920385892111
 30
0.0
  0
VERTEX
  5
163
  8
0
 10
2.811694039419083
 20
1.787853385892111
 30
0.0
  0
VERTEX
  5
164
  8
0
 10
2.893258039419083
 20
1.782170385892114
 30
0.0
  0
VERTEX
  5
165
  8
0
 10
2.973112039419081
 20
1.793088385892114
 30
0.0
  0
VERTEX
  5
166
  8
0
 10
3.04856503941908
 20
1.820229385892114
 30
0.0
  0
VERTEX
  5
167
  8
0
 10
3.117080039419082
 20
1.862696385892113
 30
0.0
  0
VERTEX
  5
168
  8
0
 10
3.176325039419083
 20
1.919024385892113
 30
0.0
  0
VERTEX
  5
169
  8
0
 10
3.224326039419082
 20
1.987329385892112
 30
0.0
  0
VERTEX
  5
16A
  8
0
 10
3.30650703941908
 20
2.016884385892114
 30
0.0
  0
VERTEX
  5
16B
  8
0
 10
3.387039039419082
 20
1.994816385892113
 30
0.0
  0
VERTEX
  5
16C
  8
0
 10
3.468596039419082
 20
1.989147385892112
 30
0.0
  0
VERTEX
  5
16D
  8
0
 10
3.548457039419083
 20
2.000065385892112
 30
0.0
  0
VERTEX
  5
16E
  8
0
 10
3.623896039419082
 20
2.027206385892113
 30
0.0
  0
VERTEX
  5
16F
  8
0
 10
3.692405039419081
 20
2.069659385892114
 30
0.0
  0
VERTEX
  5
170
  8
0
 10
3.751663039419081
 20
2.125988385892112
 30
0.0
  0
VERTEX
  5
171
  8
0
 10
3.79966403941908
 20
2.194307385892111
 30
0.0
  0
VERTEX
  5
172
  8
0
 10
4.621591039419083
 20
2.489975385892114
 30
0.0
  0
VERTEX
  5
173
  8
0
 10
4.78842103941908
 20
2.529620385892114
 30
0.0
  0
VERTEX
  5
174
  8
0
 10
4.961842039419081
 20
2.531614385892114
 30
0.0
  0
VERTEX
  5
175
  8
0
 10
5.135168039419081
 20
2.495929385892113
 30
0.0
  0
VERTEX
  5
176
  8
0
 10
5.301740039419083
 20
2.423894385892114
 30
0.0
  0
VERTEX
  5
177
  8
0
 10
5.455183039419082
 20
2.318303385892113
 30
0.0
  0
VERTEX
  5
178
  8
0
 10
5.589555039419081
 20
2.183212385892114
 30
0.0
  0
VERTEX
  5
179
  8
0
 10
5.699730039419083
 20
2.023815385892112
 30
0.0
  0
VERTEX
  5
17A
  8
0
 10
5.78145003941908
 20
1.846216385892111
 30
0.0
  0
VERTEX
  5
17B
  8
0
 10
5.831594039419083
 20
1.657265385892112
 30
0.0
  0
VERTEX
  5
17C
  8
0
 10
5.848209039419081
 20
1.464204385892112
 30
0.0
  0
VERTEX
  5
17D
  8
0
 10
5.830685039419083
 20
1.274465385892112
 30
0.0
  0
VERTEX
  5
17E
  8
0
 10
5.779673039419083
 20
1.095334385892114
 30
0.0
  0
VERTEX
  5
17F
  8
0
 10
5.697167039419081
 20
0.9336993858921137
 30
0.0
  0
VERTEX
  5
180
  8
0
 10
5.586300039419082
 20
0.7957733858921134
 30
0.0
  0
VERTEX
  5
181
  8
0
 10
5.451344039419083
 20
0.6868323858921119
 30
0.0
  0
VERTEX
  5
182
  8
0
 10
5.297481039419082
 20
0.6111083858921145
 30
0.0
  0
VERTEX
  5
183
  8
0
 10
5.130652039419082
 20
0.5714763858921135
 30
0.0
  0
VERTEX
  5
184
  8
0
 10
4.957231039419081
 20
0.5694683858921135
 30
0.0
  0
VERTEX
  5
185
  8
0
 10
4.783891039419081
 20
0.6051533858921143
 30
0.0
  0
VERTEX
  5
186
  8
0
 10
4.617332039419082
 20
0.6771893858921114
 30
0.0
  0
VERTEX
  5
187
  8
0
 10
4.463890039419083
 20
0.7827793858921144
 30
0.0
  0
VERTEX
  5
188
  8
0
 10
4.32950403941908
 20
0.9178713858921146
 30
0.0
  0
VERTEX
  5
189
  8
0
 10
4.219342039419081
 20
1.077281385892112
 30
0.0
  0
VERTEX
  5
18A
  8
0
 10
4.137623039419082
 20
1.254866385892113
 30
0.0
  0
VERTEX
  5
18B
  8
0
 10
1.525262039419082
 20
0.7753873858921114
 30
0.0
  0
SEQEND
  5
69B
  8
0
  0
POLYLINE
  5
65
  8
0
 66
     1
 10
0.0
 20
0.0
 30
0.0
 70
     1
  0
VERTEX
  5
18C
  8
0
 10
1.59091603941908
 20
6.776075087136926
 30
0.0
  0
VERTEX
  5
18D
  8
0
 10
1.589627039419081
 20
6.801594087136925
 30
0.0
  0
VERTEX
  5
18E
  8
0
 10
1.585845039419083
 20
6.826376087136927
 30
0.0
  0
VERTEX
  5
18F
  8
0
 10
1.579695039419081
 20
6.850295087136926
 30
0.0
  0
VERTEX
  5
190
  8
0
 10
1.571302039419083
 20
6.873227087136927
 30
0.0
  0
VERTEX
  5
191
  8
0
 10
1.560792039419083
 20
6.895045087136927
 30
0.0
  0
VERTEX
  5
192
  8
0
 10
1.548290039419082
 20
6.915624087136925
 30
0.0
  0
VERTEX
  5
193
  8
0
 10
1.533922039419081
 20
6.934838087136926
 30
0.0
  0
VERTEX
  5
194
  8
0
 10
1.517813039419081
 20
6.952563087136925
 30
0.0
  0
VERTEX
  5
195
  8
0
 10
1.500089039419083
 20
6.968672087136925
 30
0.0
  0
VERTEX
  5
196
  8
0
 10
1.48087403941908
 20
6.983041087136927
 30
0.0
  0
VERTEX
  5
197
  8
0
 10
1.460295039419083
 20
6.995543087136925
 30
0.0
  0
VERTEX
  5
198
  8
0
 10
1.438477039419083
 20
7.006053087136925
 30
0.0
  0
VERTEX
  5
199
  8
0
 10
1.415546039419083
 20
7.014446087136927
 30
0.0
  0
VERTEX
  5
19A
  8
0
 10
1.391626039419083
 20
7.020597087136926
 30
0.0
  0
VERTEX
  5
19B
  8
0
 10
1.366843039419083
 20
7.024379087136927
 30
0.0
  0
VERTEX
  5
19C
  8
0
 10
1.341322039419082
 20
7.025668087136927
 30
0.0
  0
VERTEX
  5
19D
  8
0
 10
1.315803039419083
 20
7.024379087136927
 30
0.0
  0
VERTEX
  5
19E
  8
0
 10
1.291021039419081
 20
7.020597087136926
 30
0.0
  0
VERTEX
  5
19F
  8
0
 10
1.267102039419082
 20
7.014446087136927
 30
0.0
  0
VERTEX
  5
1A0
  8
0
 10
1.244170039419081
 20
7.006053087136925
 30
0.0
  0
VERTEX
  5
1A1
  8
0
 10
1.222352039419081
 20
6.995543087136925
 30
0.0
  0
VERTEX
  5
1A2
  8
0
 10
1.201773039419083
 20
6.983041087136927
 30
0.0
  0
VERTEX
  5
1A3
  8
0
 10
1.182559039419082
 20
6.968672087136925
 30
0.0
  0
VERTEX
  5
1A4
  8
0
 10
1.164834039419083
 20
6.952563087136925
 30
0.0
  0
VERTEX
  5
1A5
  8
0
 10
1.148725039419083
 20
6.934838087136926
 30
0.0
  0
VERTEX
  5
1A6
  8
0
 10
1.134356039419081
 20
6.915624087136925
 30
0.0
  0
VERTEX
  5
1A7
  8
0
 10
1.121854039419083
 20
6.895045087136927
 30
0.0
  0
VERTEX
  5
1A8
  8
0
 10
1.111344039419083
 20
6.873227087136927
 30
0.0
  0
VERTEX
  5
1A9
  8
0
 10
1.102951039419081
 20
6.850295087136926
 30
0.0
  0
VERTEX
  5
1AA
  8
0
 10
1.096800039419082
 20
6.826376087136927
 30
0.0
  0
VERTEX
  5
1AB
  8
0
 10
1.093018039419081
 20
6.801594087136925
 30
0.0
  0
VERTEX
  5
1AC
  8
0
 10
1.091729039419081
 20
6.776075087136926
 30
0.0
  0
VERTEX
  5
1AD
  8
0
 10
1.093018039419081
 20
6.750555087136926
 30
0.0
  0
VERTEX
  5
1AE
  8
0
 10
1.096800039419082
 20
6.725773087136927
 30
0.0
  0
VERTEX
  5
1AF
  8
0
 10
1.102951039419081
 20
6.701854087136924
 30
0.0
  0
VERTEX
  5
1B0
  8
0
 10
1.111344039419083
 20
6.678922087136927
 30
0.0
  0
VERTEX
  5
1B1
  8
0
 10
1.121854039419083
 20
6.657104087136927
 30
0.0
  0
VERTEX
  5
1B2
  8
0
 10
1.134356039419081
 20
6.636525087136926
 30
0.0
  0
VERTEX
  5
1B3
  8
0
 10
1.148725039419083
 20
6.617311087136924
 30
0.0
  0
VERTEX
  5
1B4
  8
0
 10
1.164834039419083
 20
6.599586087136926
 30
0.0
  0
VERTEX
  5
1B5
  8
0
 10
1.182559039419082
 20
6.583477087136925
 30
0.0
  0
VERTEX
  5
1B6
  8
0
 10
1.201773039419083
 20
6.569108087136927
 30
0.0
  0
VERTEX
  5
1B7
  8
0
 10
1.222352039419081
 20
6.556606087136926
 30
0.0
  0
VERTEX
  5
1B8
  8
0
 10
1.244170039419081
 20
6.546096087136926
 30
0.0
  0
VERTEX
  5
1B9
  8
0
 10
1.267102039419082
 20
6.537703087136927
 30
0.0
  0
VERTEX
  5
1BA
  8
0
 10
1.291021039419081
 20
6.531552087136925
 30
0.0
  0
VERTEX
  5
1BB
  8
0
 10
1.315803039419083
 20
6.527770087136927
 30
0.0
  0
VERTEX
  5
1BC
  8
0
 10
1.341322039419082
 20
6.526481087136927
 30
0.0
  0
VERTEX
  5
1BD
  8
0
 10
1.366843039419083
 20
6.527770087136927
 30
0.0
  0
VERTEX
  5
1BE
  8
0
 10
1.391626039419083
 20
6.531552087136925
 30
0.0
  0
VERTEX
  5
1BF
  8
0
 10
1.415546039419083
 20
6.537703087136927
 30
0.0
  0
VERTEX
  5
1C0
  8
0
 10
1.438477039419083
 20
6.546096087136926
 30
0.0
  0
VERTEX
  5
1C1
  8
0
 10
1.460295039419083
 20
6.556606087136926
 30
0.0
  0
VERTEX
  5
1C2
  8
0
 10
1.48087403941908
 20
6.569108087136927
 30
0.0
  0
VERTEX
  5
1C3
  8
0
 10
1.500089039419083
 20
6.583477087136925
 30
0.0
  0
VERTEX
  5
1C4
  8
0
 10
1.517813039419081
 20
6.599586087136926
 30
0.0
  0
VERTEX
  5
1C5
  8
0
 10
1.533922039419081
 20
6.617311087136924
 30
0.0
  0
VERTEX
  5
1C6
  8
0
 10
1.548290039419082
 20
6.636525087136926
 30
0.0
  0
VERTEX
  5
1C7
  8
0
 10
1.560792039419083
 20
6.657104087136927
 30
0.0
  0
VERTEX
  5
1C8
  8
0
 10
1.571302039419083
 20
6.678922087136927
 30
0.0
  0
VERTEX
  5
1C9
  8
0
 10
1.579695039419081
 20
6.701854087136924
 30
0.0
  0
VERTEX
  5
1CA
  8
0
 10
1.585845039419083
 20
6.725773087136927
 30
0.0
  0
VERTEX
  5
1CB
  8
0
 10
1.589627039419081
 20
6.750555087136926
 30
0.0
  0
SEQEND
  5
69C
  8
0
  0
POLYLINE
  5
66
  8
0
 66
     1
 10
0.0
 20
0.0
 30
0.0
 70
     1
  0
VERTEX
  5
1CC
  8
0
 10
2.142382039419082
 20
7.885355087136928
 30
0.0
  0
VERTEX
  5
1CD
  8
0
 10
1.636563039419083
 20
5.696050087136927
 30
0.0
  0
VERTEX
  5
1CE
  8
0
 10
4.21797203941908
 20
6.969488087136925
 30
0.0
  0
VERTEX
  5
1CF
  8
0
 10
4.006384039419081
 20
7.885355087136928
 30
0.0
  0
SEQEND
  5
69D
  8
0
  0
POLYLINE
  5
67
  8
0
 66
     1
 10
0.0
 20
0.0
 30
0.0
 70
     1
  0
VERTEX
  5
1D0
  8
0
 10
4.849605039419081
 20
7.315843087136924
 30
0.0
  0
VERTEX
  5
1D1
  8
0
 10
5.012800039419083
 20
7.351596087136928
 30
0.0
  0
VERTEX
  5
1D2
  8
0
 10
5.178883039419083
 20
7.358622087136927
 30
0.0
  0
VERTEX
  5
1D3
  8
0
 10
5.34395003941908
 20
7.336771087136926
 30
0.0
  0
VERTEX
  5
1D4
  8
0
 10
5.504201039419082
 20
7.286532087136925
 30
0.0
  0
VERTEX
  5
1D5
  8
0
 10
5.475419039419083
 20
7.423861087136926
 30
0.0
  0
VERTEX
  5
1D6
  8
0
 10
5.368567039419083
 20
7.540344087136925
 30
0.0
  0
VERTEX
  5
1D7
  8
0
 10
5.246049039419083
 20
7.634596087136925
 30
0.0
  0
VERTEX
  5
1D8
  8
0
 10
5.111419039419082
 20
7.703891087136926
 30
0.0
  0
VERTEX
  5
1D9
  8
0
 10
4.968475039419082
 20
7.746290087136925
 30
0.0
  0
VERTEX
  5
1DA
  8
0
 10
4.821339039419082
 20
7.760559087136928
 30
0.0
  0
VERTEX
  5
1DB
  8
0
 10
3.94784403941908
 20
7.760559087136928
 30
0.0
  0
VERTEX
  5
1DC
  8
0
 10
3.879566039419081
 20
7.712531087136925
 30
0.0
  0
VERTEX
  5
1DD
  8
0
 10
3.804737039419083
 20
7.679585087136926
 30
0.0
  0
VERTEX
  5
1DE
  8
0
 10
3.725906039419082
 20
7.662821087136924
 30
0.0
  0
VERTEX
  5
1DF
  8
0
 10
3.64573303941908
 20
7.662821087136924
 30
0.0
  0
VERTEX
  5
1E0
  8
0
 10
3.56688903941908
 20
7.679585087136926
 30
0.0
  0
VERTEX
  5
1E1
  8
0
 10
3.492060039419083
 20
7.712531087136925
 30
0.0
  0
VERTEX
  5
1E2
  8
0
 10
3.423769039419081
 20
7.760559087136928
 30
0.0
  0
VERTEX
  5
1E3
  8
0
 10
3.336421039419082
 20
7.760559087136928
 30
0.0
  0
VERTEX
  5
1E4
  8
0
 10
3.268129039419082
 20
7.712531087136925
 30
0.0
  0
VERTEX
  5
1E5
  8
0
 10
3.193300039419081
 20
7.679585087136926
 30
0.0
  0
VERTEX
  5
1E6
  8
0
 10
3.11446903941908
 20
7.662821087136924
 30
0.0
  0
VERTEX
  5
1E7
  8
0
 10
3.034283039419083
 20
7.662821087136924
 30
0.0
  0
VERTEX
  5
1E8
  8
0
 10
2.955439039419082
 20
7.679585087136926
 30
0.0
  0
VERTEX
  5
1E9
  8
0
 10
2.88062303941908
 20
7.712531087136925
 30
0.0
  0
VERTEX
  5
1EA
  8
0
 10
2.812332039419082
 20
7.760559087136928
 30
0.0
  0
VERTEX
  5
1EB
  8
0
 10
2.724990039419082
 20
7.760559087136928
 30
0.0
  0
VERTEX
  5
1EC
  8
0
 10
2.65668503941908
 20
7.712531087136925
 30
0.0
  0
VERTEX
  5
1ED
  8
0
 10
2.581863039419082
 20
7.679585087136926
 30
0.0
  0
VERTEX
  5
1EE
  8
0
 10
2.503032039419081
 20
7.662821087136924
 30
0.0
  0
VERTEX
  5
1EF
  8
0
 10
2.42284603941908
 20
7.662821087136924
 30
0.0
  0
VERTEX
  5
1F0
  8
0
 10
2.344015039419083
 20
7.679585087136926
 30
0.0
  0
VERTEX
  5
1F1
  8
0
 10
2.269186039419082
 20
7.712531087136925
 30
0.0
  0
VERTEX
  5
1F2
  8
0
 10
2.200895039419083
 20
7.760559087136928
 30
0.0
  0
VERTEX
  5
1F3
  8
0
 10
1.32741303941908
 20
7.760559087136928
 30
0.0
  0
VERTEX
  5
1F4
  8
0
 10
1.15700303941908
 20
7.741380087136926
 30
0.0
  0
VERTEX
  5
1F5
  8
0
 10
0.9931440394190814
 20
7.684563087136928
 30
0.0
  0
VERTEX
  5
1F6
  8
0
 10
0.8421290394190803
 20
7.592305087136927
 30
0.0
  0
VERTEX
  5
1F7
  8
0
 10
0.7097710394190804
 20
7.468146087136924
 30
0.0
  0
VERTEX
  5
1F8
  8
0
 10
0.6011420394190834
 20
7.316846087136925
 30
0.0
  0
VERTEX
  5
1F9
  8
0
 10
0.5204260394190809
 20
7.144239087136926
 30
0.0
  0
VERTEX
  5
1FA
  8
0
 10
0.4707160394190799
 20
6.956956087136925
 30
0.0
  0
VERTEX
  5
1FB
  8
0
 10
0.4539320394190822
 20
6.762186087136927
 30
0.0
  0
VERTEX
  5
1FC
  8
0
 10
0.4707160394190799
 20
6.567416087136925
 30
0.0
  0
VERTEX
  5
1FD
  8
0
 10
0.5204260394190809
 20
6.380132087136927
 30
0.0
  0
VERTEX
  5
1FE
  8
0
 10
0.6011420394190834
 20
6.207525087136927
 30
0.0
  0
VERTEX
  5
1FF
  8
0
 10
0.7097710394190804
 20
6.056225087136925
 30
0.0
  0
VERTEX
  5
200
  8
0
 10
0.8421290394190803
 20
5.932066087136926
 30
0.0
  0
VERTEX
  5
201
  8
0
 10
0.9931440394190814
 20
5.839808087136925
 30
0.0
  0
VERTEX
  5
202
  8
0
 10
1.15700303941908
 20
5.782991087136926
 30
0.0
  0
VERTEX
  5
203
  8
0
 10
1.32741303941908
 20
5.763813087136926
 30
0.0
  0
VERTEX
  5
204
  8
0
 10
1.497823039419081
 20
5.782991087136926
 30
0.0
  0
VERTEX
  5
205
  8
0
 10
1.66167603941908
 20
5.839808087136925
 30
0.0
  0
VERTEX
  5
206
  8
0
 10
1.81269003941908
 20
5.932066087136926
 30
0.0
  0
VERTEX
  5
207
  8
0
 10
1.94505503941908
 20
6.056225087136925
 30
0.0
  0
VERTEX
  5
208
  8
0
 10
2.053691039419081
 20
6.207525087136927
 30
0.0
  0
VERTEX
  5
209
  8
0
 10
2.13440703941908
 20
6.380132087136927
 30
0.0
  0
VERTEX
  5
20A
  8
0
 10
2.184110039419081
 20
6.567416087136925
 30
0.0
  0
VERTEX
  5
20B
  8
0
 10
2.200895039419083
 20
6.762186087136927
 30
0.0
  0
VERTEX
  5
20C
  8
0
 10
4.821339039419082
 20
7.195305087136925
 30
0.0
  0
SEQEND
  5
69E
  8
0
  0
POLYLINE
  5
68
  8
0
 66
     1
 10
0.0
 20
0.0
 30
0.0
 70
     1
  0
VERTEX
  5
20D
  8
0
 10
4.706891039419083
 20
5.399609087136925
 30
0.0
  0
VERTEX
  5
20E
  8
0
 10
4.699466039419081
 20
5.424057087136925
 30
0.0
  0
VERTEX
  5
20F
  8
0
 10
4.694636039419083
 20
5.448657087136928
 30
0.0
  0
VERTEX
  5
210
  8
0
 10
4.692327039419083
 20
5.473246087136927
 30
0.0
  0
VERTEX
  5
211
  8
0
 10
4.692462039419083
 20
5.497664087136927
 30
0.0
  0
VERTEX
  5
212
  8
0
 10
4.694966039419081
 20
5.521751087136925
 30
0.0
  0
VERTEX
  5
213
  8
0
 10
4.699764039419082
 20
5.545347087136927
 30
0.0
  0
VERTEX
  5
214
  8
0
 10
4.706780039419082
 20
5.568291087136926
 30
0.0
  0
VERTEX
  5
215
  8
0
 10
4.715938039419082
 20
5.590422087136927
 30
0.0
  0
VERTEX
  5
216
  8
0
 10
4.727163039419081
 20
5.611580087136927
 30
0.0
  0
VERTEX
  5
217
  8
0
 10
4.740380039419082
 20
5.631604087136926
 30
0.0
  0
VERTEX
  5
218
  8
0
 10
4.75551203941908
 20
5.650335087136925
 30
0.0
  0
VERTEX
  5
219
  8
0
 10
4.77248503941908
 20
5.667611087136924
 30
0.0
  0
VERTEX
  5
21A
  8
0
 10
4.791223039419083
 20
5.683271087136925
 30
0.0
  0
VERTEX
  5
21B
  8
0
 10
4.811649039419083
 20
5.697157087136928
 30
0.0
  0
VERTEX
  5
21C
  8
0
 10
4.833690039419081
 20
5.709106087136925
 30
0.0
  0
VERTEX
  5
21D
  8
0
 10
4.857268039419082
 20
5.718958087136928
 30
0.0
  0
VERTEX
  5
21E
  8
0
 10
4.88171503941908
 20
5.726384087136926
 30
0.0
  0
VERTEX
  5
21F
  8
0
 10
4.90631203941908
 20
5.731213087136927
 30
0.0
  0
VERTEX
  5
220
  8
0
 10
4.930900039419082
 20
5.733522087136928
 30
0.0
  0
VERTEX
  5
221
  8
0
 10
4.955318039419082
 20
5.733386087136926
 30
0.0
  0
VERTEX
  5
222
  8
0
 10
4.979404039419083
 20
5.730881087136927
 30
0.0
  0
VERTEX
  5
223
  8
0
 10
5.003000039419081
 20
5.726082087136925
 30
0.0
  0
VERTEX
  5
224
  8
0
 10
5.025944039419083
 20
5.719066087136925
 30
0.0
  0
VERTEX
  5
225
  8
0
 10
5.048075039419081
 20
5.709907087136925
 30
0.0
  0
VERTEX
  5
226
  8
0
 10
5.069233039419081
 20
5.698681087136928
 30
0.0
  0
VERTEX
  5
227
  8
0
 10
5.08925703941908
 20
5.685464087136927
 30
0.0
  0
VERTEX
  5
228
  8
0
 10
5.107987039419082
 20
5.670331087136924
 30
0.0
  0
VERTEX
  5
229
  8
0
 10
5.125263039419081
 20
5.653359087136925
 30
0.0
  0
VERTEX
  5
22A
  8
0
 10
5.140923039419081
 20
5.634622087136927
 30
0.0
  0
VERTEX
  5
22B
  8
0
 10
5.154807039419082
 20
5.614197087136928
 30
0.0
  0
VERTEX
  5
22C
  8
0
 10
5.166754039419081
 20
5.592158087136925
 30
0.0
  0
VERTEX
  5
22D
  8
0
 10
5.176605039419083
 20
5.568581087136925
 30
0.0
  0
VERTEX
  5
22E
  8
0
 10
5.184032039419082
 20
5.544132087136925
 30
0.0
  0
VERTEX
  5
22F
  8
0
 10
5.188863039419082
 20
5.519533087136926
 30
0.0
  0
VERTEX
  5
230
  8
0
 10
5.191173039419083
 20
5.494943087136926
 30
0.0
  0
VERTEX
  5
231
  8
0
 10
5.191038039419083
 20
5.470524087136925
 30
0.0
  0
VERTEX
  5
232
  8
0
 10
5.18853303941908
 20
5.446436087136926
 30
0.0
  0
VERTEX
  5
233
  8
0
 10
5.183735039419083
 20
5.422840087136928
 30
0.0
  0
VERTEX
  5
234
  8
0
 10
5.176718039419081
 20
5.399895087136928
 30
0.0
  0
VERTEX
  5
235
  8
0
 10
5.167560039419082
 20
5.377763087136925
 30
0.0
  0
VERTEX
  5
236
  8
0
 10
5.156334039419082
 20
5.356605087136925
 30
0.0
  0
VERTEX
  5
237
  8
0
 10
5.143117039419081
 20
5.336580087136925
 30
0.0
  0
VERTEX
  5
238
  8
0
 10
5.127985039419083
 20
5.317849087136926
 30
0.0
  0
VERTEX
  5
239
  8
0
 10
5.11101303941908
 20
5.300574087136924
 30
0.0
  0
VERTEX
  5
23A
  8
0
 10
5.092277039419083
 20
5.284914087136928
 30
0.0
  0
VERTEX
  5
23B
  8
0
 10
5.07185203941908
 20
5.271030087136927
 30
0.0
  0
VERTEX
  5
23C
  8
0
 10
5.049815039419083
 20
5.259082087136926
 30
0.0
  0
VERTEX
  5
23D
  8
0
 10
5.026241039419083
 20
5.249232087136926
 30
0.0
  0
VERTEX
  5
23E
  8
0
 10
5.00179003941908
 20
5.241806087136927
 30
0.0
  0
VERTEX
  5
23F
  8
0
 10
4.977189039419083
 20
5.236977087136927
 30
0.0
  0
VERTEX
  5
240
  8
0
 10
4.952598039419082
 20
5.234668087136926
 30
0.0
  0
VERTEX
  5
241
  8
0
 10
4.928178039419083
 20
5.234804087136927
 30
0.0
  0
VERTEX
  5
242
  8
0
 10
4.904090039419081
 20
5.237309087136927
 30
0.0
  0
VERTEX
  5
243
  8
0
 10
4.880493039419082
 20
5.242108087136925
 30
0.0
  0
VERTEX
  5
244
  8
0
 10
4.857549039419083
 20
5.249124087136925
 30
0.0
  0
VERTEX
  5
245
  8
0
 10
4.835418039419081
 20
5.258283087136926
 30
0.0
  0
VERTEX
  5
246
  8
0
 10
4.814260039419081
 20
5.269509087136926
 30
0.0
  0
VERTEX
  5
247
  8
0
 10
4.794236039419082
 20
5.282726087136927
 30
0.0
  0
VERTEX
  5
248
  8
0
 10
4.77550603941908
 20
5.297859087136926
 30
0.0
  0
VERTEX
  5
249
  8
0
 10
4.75823203941908
 20
5.314831087136925
 30
0.0
  0
VERTEX
  5
24A
  8
0
 10
4.742572039419083
 20
5.333568087136927
 30
0.0
  0
VERTEX
  5
24B
  8
0
 10
4.728689039419083
 20
5.353994087136927
 30
0.0
  0
VERTEX
  5
24C
  8
0
 10
4.71674203941908
 20
5.376032087136926
 30
0.0
  0
SEQEND
  5
69F
  8
0
  0
POLYLINE
  5
69
  8
0
 66
     1
 10
0.0
 20
0.0
 30
0.0
 70
     1
  0
VERTEX
  5
24D
  8
0
 10
3.812482039419083
 20
6.256733087136928
 30
0.0
  0
VERTEX
  5
24E
  8
0
 10
5.029523039419082
 20
4.367883087136926
 30
0.0
  0
VERTEX
  5
24F
  8
0
 10
2.169448039419083
 20
4.692333087136925
 30
0.0
  0
VERTEX
  5
250
  8
0
 10
2.058520039419082
 20
5.625765087136925
 30
0.0
  0
SEQEND
  5
6A0
  8
0
  0
POLYLINE
  5
6A
  8
0
 66
     1
 10
0.0
 20
0.0
 30
0.0
 70
     1
  0
VERTEX
  5
251
  8
0
 10
1.457859039419083
 20
4.804434087136928
 30
0.0
  0
VERTEX
  5
252
  8
0
 10
1.292196039419081
 20
4.782841087136925
 30
0.0
  0
VERTEX
  5
253
  8
0
 10
1.133538039419082
 20
4.733226087136925
 30
0.0
  0
VERTEX
  5
254
  8
0
 10
0.9856160394190807
 20
4.656797087136924
 30
0.0
  0
VERTEX
  5
255
  8
0
 10
0.8518270394190806
 20
4.555275087136925
 30
0.0
  0
VERTEX
  5
256
  8
0
 10
0.83242403941908
 20
4.694232087136927
 30
0.0
  0
VERTEX
  5
257
  8
0
 10
0.893541039419083
 20
4.840011087136928
 30
0.0
  0
VERTEX
  5
258
  8
0
 10
0.9769220394190823
 20
4.970179087136925
 30
0.0
  0
VERTEX
  5
259
  8
0
 10
1.080146039419083
 20
5.080951087136926
 30
0.0
  0
VERTEX
  5
25A
  8
0
 10
1.200297039419083
 20
5.169235087136927
 30
0.0
  0
VERTEX
  5
25B
  8
0
 10
1.33392403941908
 20
5.232467087136927
 30
0.0
  0
VERTEX
  5
25C
  8
0
 10
2.155851039419082
 20
5.528149087136926
 30
0.0
  0
VERTEX
  5
25D
  8
0
 10
2.236356039419081
 20
5.506068087136926
 30
0.0
  0
VERTEX
  5
25E
  8
0
 10
2.31791903941908
 20
5.500398087136928
 30
0.0
  0
VERTEX
  5
25F
  8
0
 10
2.397767039419082
 20
5.511303087136925
 30
0.0
  0
VERTEX
  5
260
  8
0
 10
2.473207039419083
 20
5.538443087136924
 30
0.0
  0
VERTEX
  5
261
  8
0
 10
2.54172203941908
 20
5.580910087136926
 30
0.0
  0
VERTEX
  5
262
  8
0
 10
2.60098703941908
 20
5.637239087136924
 30
0.0
  0
VERTEX
  5
263
  8
0
 10
2.648988039419083
 20
5.705544087136927
 30
0.0
  0
VERTEX
  5
264
  8
0
 10
2.731175039419081
 20
5.735112087136924
 30
0.0
  0
VERTEX
  5
265
  8
0
 10
2.811694039419083
 20
5.713045087136924
 30
0.0
  0
VERTEX
  5
266
  8
0
 10
2.893258039419083
 20
5.707362087136927
 30
0.0
  0
VERTEX
  5
267
  8
0
 10
2.973112039419081
 20
5.718280087136927
 30
0.0
  0
VERTEX
  5
268
  8
0
 10
3.04856503941908
 20
5.745421087136927
 30
0.0
  0
VERTEX
  5
269
  8
0
 10
3.117080039419082
 20
5.787888087136926
 30
0.0
  0
VERTEX
  5
26A
  8
0
 10
3.176325039419083
 20
5.844216087136926
 30
0.0
  0
VERTEX
  5
26B
  8
0
 10
3.224326039419082
 20
5.912521087136925
 30
0.0
  0
VERTEX
  5
26C
  8
0
 10
3.30650703941908
 20
5.942076087136927
 30
0.0
  0
VERTEX
  5
26D
  8
0
 10
3.387039039419082
 20
5.920008087136926
 30
0.0
  0
VERTEX
  5
26E
  8
0
 10
3.468596039419082
 20
5.914339087136925
 30
0.0
  0
VERTEX
  5
26F
  8
0
 10
3.548457039419083
 20
5.925257087136925
 30
0.0
  0
VERTEX
  5
270
  8
0
 10
3.623896039419082
 20
5.952398087136926
 30
0.0
  0
VERTEX
  5
271
  8
0
 10
3.692405039419081
 20
5.994851087136928
 30
0.0
  0
VERTEX
  5
272
  8
0
 10
3.751663039419081
 20
6.051180087136926
 30
0.0
  0
VERTEX
  5
273
  8
0
 10
3.79966403941908
 20
6.119499087136925
 30
0.0
  0
VERTEX
  5
274
  8
0
 10
4.621591039419083
 20
6.415167087136927
 30
0.0
  0
VERTEX
  5
275
  8
0
 10
4.78842103941908
 20
6.454812087136927
 30
0.0
  0
VERTEX
  5
276
  8
0
 10
4.961842039419081
 20
6.456806087136927
 30
0.0
  0
VERTEX
  5
277
  8
0
 10
5.135168039419081
 20
6.421121087136926
 30
0.0
  0
VERTEX
  5
278
  8
0
 10
5.301740039419083
 20
6.349086087136927
 30
0.0
  0
VERTEX
  5
279
  8
0
 10
5.455183039419082
 20
6.243495087136926
 30
0.0
  0
VERTEX
  5
27A
  8
0
 10
5.589555039419081
 20
6.108404087136927
 30
0.0
  0
VERTEX
  5
27B
  8
0
 10
5.699730039419083
 20
5.949007087136925
 30
0.0
  0
VERTEX
  5
27C
  8
0
 10
5.78145003941908
 20
5.771408087136924
 30
0.0
  0
VERTEX
  5
27D
  8
0
 10
5.831594039419083
 20
5.582457087136925
 30
0.0
  0
VERTEX
  5
27E
  8
0
 10
5.848209039419081
 20
5.389396087136925
 30
0.0
  0
VERTEX
  5
27F
  8
0
 10
5.830685039419083
 20
5.199657087136925
 30
0.0
  0
VERTEX
  5
280
  8
0
 10
5.779673039419083
 20
5.020526087136927
 30
0.0
  0
VERTEX
  5
281
  8
0
 10
5.697167039419081
 20
4.858891087136927
 30
0.0
  0
VERTEX
  5
282
  8
0
 10
5.586300039419082
 20
4.720965087136927
 30
0.0
  0
VERTEX
  5
283
  8
0
 10
5.451344039419083
 20
4.612024087136925
 30
0.0
  0
VERTEX
  5
284
  8
0
 10
5.297481039419082
 20
4.536300087136928
 30
0.0
  0
VERTEX
  5
285
  8
0
 10
5.130652039419082
 20
4.496668087136927
 30
0.0
  0
VERTEX
  5
286
  8
0
 10
4.957231039419081
 20
4.494660087136927
 30
0.0
  0
VERTEX
  5
287
  8
0
 10
4.783891039419081
 20
4.530345087136928
 30
0.0
  0
VERTEX
  5
288
  8
0
 10
4.617332039419082
 20
4.602381087136925
 30
0.0
  0
VERTEX
  5
289
  8
0
 10
4.463890039419083
 20
4.707971087136928
 30
0.0
  0
VERTEX
  5
28A
  8
0
 10
4.32950403941908
 20
4.843063087136928
 30
0.0
  0
VERTEX
  5
28B
  8
0
 10
4.219342039419081
 20
5.002473087136925
 30
0.0
  0
VERTEX
  5
28C
  8
0
 10
4.137623039419082
 20
5.180058087136926
 30
0.0
  0
VERTEX
  5
28D
  8
0
 10
1.525262039419082
 20
4.700579087136925
 30
0.0
  0
SEQEND
  5
6A1
  8
0
  0
POLYLINE
  5
6B
  8
0
 66
     1
 10
0.0
 20
0.0
 30
0.0
 70
     1
  0
VERTEX
  5
28E
  8
0
 10
1.59091603941908
 20
10.44802861410787
 30
0.0
  0
VERTEX
  5
28F
  8
0
 10
1.589627039419081
 20
10.47354761410788
 30
0.0
  0
VERTEX
  5
290
  8
0
 10
1.585845039419083
 20
10.49832961410788
 30
0.0
  0
VERTEX
  5
291
  8
0
 10
1.579695039419081
 20
10.52224861410788
 30
0.0
  0
VERTEX
  5
292
  8
0
 10
1.571302039419083
 20
10.54518061410788
 30
0.0
  0
VERTEX
  5
293
  8
0
 10
1.560792039419083
 20
10.56699861410788
 30
0.0
  0
VERTEX
  5
294
  8
0
 10
1.548290039419082
 20
10.58757761410788
 30
0.0
  0
VERTEX
  5
295
  8
0
 10
1.533922039419081
 20
10.60679161410788
 30
0.0
  0
VERTEX
  5
296
  8
0
 10
1.517813039419081
 20
10.62451661410787
 30
0.0
  0
VERTEX
  5
297
  8
0
 10
1.500089039419083
 20
10.64062561410787
 30
0.0
  0
VERTEX
  5
298
  8
0
 10
1.48087403941908
 20
10.65499461410788
 30
0.0
  0
VERTEX
  5
299
  8
0
 10
1.460295039419083
 20
10.66749661410787
 30
0.0
  0
VERTEX
  5
29A
  8
0
 10
1.438477039419083
 20
10.67800661410788
 30
0.0
  0
VERTEX
  5
29B
  8
0
 10
1.415546039419083
 20
10.68639961410788
 30
0.0
  0
VERTEX
  5
29C
  8
0
 10
1.391626039419083
 20
10.69255061410788
 30
0.0
  0
VERTEX
  5
29D
  8
0
 10
1.366843039419083
 20
10.69633261410788
 30
0.0
  0
VERTEX
  5
29E
  8
0
 10
1.341322039419082
 20
10.69762161410788
 30
0.0
  0
VERTEX
  5
29F
  8
0
 10
1.315803039419083
 20
10.69633261410788
 30
0.0
  0
VERTEX
  5
2A0
  8
0
 10
1.291021039419081
 20
10.69255061410788
 30
0.0
  0
VERTEX
  5
2A1
  8
0
 10
1.267102039419082
 20
10.68639961410788
 30
0.0
  0
VERTEX
  5
2A2
  8
0
 10
1.244170039419081
 20
10.67800661410788
 30
0.0
  0
VERTEX
  5
2A3
  8
0
 10
1.222352039419081
 20
10.66749661410787
 30
0.0
  0
VERTEX
  5
2A4
  8
0
 10
1.201773039419083
 20
10.65499461410788
 30
0.0
  0
VERTEX
  5
2A5
  8
0
 10
1.182559039419082
 20
10.64062561410787
 30
0.0
  0
VERTEX
  5
2A6
  8
0
 10
1.164834039419083
 20
10.62451661410787
 30
0.0
  0
VERTEX
  5
2A7
  8
0
 10
1.148725039419083
 20
10.60679161410788
 30
0.0
  0
VERTEX
  5
2A8
  8
0
 10
1.134356039419081
 20
10.58757761410788
 30
0.0
  0
VERTEX
  5
2A9
  8
0
 10
1.121854039419083
 20
10.56699861410788
 30
0.0
  0
VERTEX
  5
2AA
  8
0
 10
1.111344039419083
 20
10.54518061410788
 30
0.0
  0
VERTEX
  5
2AB
  8
0
 10
1.102951039419081
 20
10.52224861410788
 30
0.0
  0
VERTEX
  5
2AC
  8
0
 10
1.096800039419082
 20
10.49832961410788
 30
0.0
  0
VERTEX
  5
2AD
  8
0
 10
1.093018039419081
 20
10.47354761410788
 30
0.0
  0
VERTEX
  5
2AE
  8
0
 10
1.091729039419081
 20
10.44802861410787
 30
0.0
  0
VERTEX
  5
2AF
  8
0
 10
1.093018039419081
 20
10.42250861410787
 30
0.0
  0
VERTEX
  5
2B0
  8
0
 10
1.096800039419082
 20
10.39772661410787
 30
0.0
  0
VERTEX
  5
2B1
  8
0
 10
1.102951039419081
 20
10.37380761410787
 30
0.0
  0
VERTEX
  5
2B2
  8
0
 10
1.111344039419083
 20
10.35087561410788
 30
0.0
  0
VERTEX
  5
2B3
  8
0
 10
1.121854039419083
 20
10.32905761410787
 30
0.0
  0
VERTEX
  5
2B4
  8
0
 10
1.134356039419081
 20
10.30847861410787
 30
0.0
  0
VERTEX
  5
2B5
  8
0
 10
1.148725039419083
 20
10.28926461410787
 30
0.0
  0
VERTEX
  5
2B6
  8
0
 10
1.164834039419083
 20
10.27153961410787
 30
0.0
  0
VERTEX
  5
2B7
  8
0
 10
1.182559039419082
 20
10.25543061410787
 30
0.0
  0
VERTEX
  5
2B8
  8
0
 10
1.201773039419083
 20
10.24106161410788
 30
0.0
  0
VERTEX
  5
2B9
  8
0
 10
1.222352039419081
 20
10.22855961410787
 30
0.0
  0
VERTEX
  5
2BA
  8
0
 10
1.244170039419081
 20
10.21804961410787
 30
0.0
  0
VERTEX
  5
2BB
  8
0
 10
1.267102039419082
 20
10.20965661410788
 30
0.0
  0
VERTEX
  5
2BC
  8
0
 10
1.291021039419081
 20
10.20350561410787
 30
0.0
  0
VERTEX
  5
2BD
  8
0
 10
1.315803039419083
 20
10.19972361410787
 30
0.0
  0
VERTEX
  5
2BE
  8
0
 10
1.341322039419082
 20
10.19843461410787
 30
0.0
  0
VERTEX
  5
2BF
  8
0
 10
1.366843039419083
 20
10.19972361410787
 30
0.0
  0
VERTEX
  5
2C0
  8
0
 10
1.391626039419083
 20
10.20350561410787
 30
0.0
  0
VERTEX
  5
2C1
  8
0
 10
1.415546039419083
 20
10.20965661410788
 30
0.0
  0
VERTEX
  5
2C2
  8
0
 10
1.438477039419083
 20
10.21804961410787
 30
0.0
  0
VERTEX
  5
2C3
  8
0
 10
1.460295039419083
 20
10.22855961410787
 30
0.0
  0
VERTEX
  5
2C4
  8
0
 10
1.48087403941908
 20
10.24106161410788
 30
0.0
  0
VERTEX
  5
2C5
  8
0
 10
1.500089039419083
 20
10.25543061410787
 30
0.0
  0
VERTEX
  5
2C6
  8
0
 10
1.517813039419081
 20
10.27153961410787
 30
0.0
  0
VERTEX
  5
2C7
  8
0
 10
1.533922039419081
 20
10.28926461410787
 30
0.0
  0
VERTEX
  5
2C8
  8
0
 10
1.548290039419082
 20
10.30847861410787
 30
0.0
  0
VERTEX
  5
2C9
  8
0
 10
1.560792039419083
 20
10.32905761410787
 30
0.0
  0
VERTEX
  5
2CA
  8
0
 10
1.571302039419083
 20
10.35087561410788
 30
0.0
  0
VERTEX
  5
2CB
  8
0
 10
1.579695039419081
 20
10.37380761410787
 30
0.0
  0
VERTEX
  5
2CC
  8
0
 10
1.585845039419083
 20
10.39772661410787
 30
0.0
  0
VERTEX
  5
2CD
  8
0
 10
1.589627039419081
 20
10.42250861410787
 30
0.0
  0
SEQEND
  5
6A2
  8
0
  0
POLYLINE
  5
6C
  8
0
 66
     1
 10
0.0
 20
0.0
 30
0.0
 70
     1
  0
VERTEX
  5
2CE
  8
0
 10
2.142382039419082
 20
11.55730861410789
 30
0.0
  0
VERTEX
  5
2CF
  8
0
 10
1.636563039419083
 20
9.368003614107872
 30
0.0
  0
VERTEX
  5
2D0
  8
0
 10
4.21797203941908
 20
10.64144161410787
 30
0.0
  0
VERTEX
  5
2D1
  8
0
 10
4.006384039419081
 20
11.55730861410789
 30
0.0
  0
SEQEND
  5
6A3
  8
0
  0
POLYLINE
  5
6D
  8
0
 66
     1
 10
0.0
 20
0.0
 30
0.0
 70
     1
  0
VERTEX
  5
2D2
  8
0
 10
4.849605039419081
 20
10.98779661410788
 30
0.0
  0
VERTEX
  5
2D3
  8
0
 10
5.012800039419083
 20
11.02354961410788
 30
0.0
  0
VERTEX
  5
2D4
  8
0
 10
5.178883039419083
 20
11.03057561410788
 30
0.0
  0
VERTEX
  5
2D5
  8
0
 10
5.34395003941908
 20
11.00872461410788
 30
0.0
  0
VERTEX
  5
2D6
  8
0
 10
5.504201039419082
 20
10.95848561410788
 30
0.0
  0
VERTEX
  5
2D7
  8
0
 10
5.475419039419083
 20
11.09581461410788
 30
0.0
  0
VERTEX
  5
2D8
  8
0
 10
5.368567039419083
 20
11.21229761410788
 30
0.0
  0
VERTEX
  5
2D9
  8
0
 10
5.246049039419083
 20
11.30654961410788
 30
0.0
  0
VERTEX
  5
2DA
  8
0
 10
5.111419039419082
 20
11.37584461410788
 30
0.0
  0
VERTEX
  5
2DB
  8
0
 10
4.968475039419082
 20
11.41824361410788
 30
0.0
  0
VERTEX
  5
2DC
  8
0
 10
4.821339039419082
 20
11.43251261410788
 30
0.0
  0
VERTEX
  5
2DD
  8
0
 10
3.94784403941908
 20
11.43251261410788
 30
0.0
  0
VERTEX
  5
2DE
  8
0
 10
3.879566039419081
 20
11.38448461410788
 30
0.0
  0
VERTEX
  5
2DF
  8
0
 10
3.804737039419083
 20
11.35153861410788
 30
0.0
  0
VERTEX
  5
2E0
  8
0
 10
3.725906039419082
 20
11.33477461410788
 30
0.0
  0
VERTEX
  5
2E1
  8
0
 10
3.64573303941908
 20
11.33477461410788
 30
0.0
  0
VERTEX
  5
2E2
  8
0
 10
3.56688903941908
 20
11.35153861410788
 30
0.0
  0
VERTEX
  5
2E3
  8
0
 10
3.492060039419083
 20
11.38448461410788
 30
0.0
  0
VERTEX
  5
2E4
  8
0
 10
3.423769039419081
 20
11.43251261410788
 30
0.0
  0
VERTEX
  5
2E5
  8
0
 10
3.336421039419082
 20
11.43251261410788
 30
0.0
  0
VERTEX
  5
2E6
  8
0
 10
3.268129039419082
 20
11.38448461410788
 30
0.0
  0
VERTEX
  5
2E7
  8
0
 10
3.193300039419081
 20
11.35153861410788
 30
0.0
  0
VERTEX
  5
2E8
  8
0
 10
3.11446903941908
 20
11.33477461410788
 30
0.0
  0
VERTEX
  5
2E9
  8
0
 10
3.034283039419083
 20
11.33477461410788
 30
0.0
  0
VERTEX
  5
2EA
  8
0
 10
2.955439039419082
 20
11.35153861410788
 30
0.0
  0
VERTEX
  5
2EB
  8
0
 10
2.88062303941908
 20
11.38448461410788
 30
0.0
  0
VERTEX
  5
2EC
  8
0
 10
2.812332039419082
 20
11.43251261410788
 30
0.0
  0
VERTEX
  5
2ED
  8
0
 10
2.724990039419082
 20
11.43251261410788
 30
0.0
  0
VERTEX
  5
2EE
  8
0
 10
2.65668503941908
 20
11.38448461410788
 30
0.0
  0
VERTEX
  5
2EF
  8
0
 10
2.581863039419082
 20
11.35153861410788
 30
0.0
  0
VERTEX
  5
2F0
  8
0
 10
2.503032039419081
 20
11.33477461410788
 30
0.0
  0
VERTEX
  5
2F1
  8
0
 10
2.42284603941908
 20
11.33477461410788
 30
0.0
  0
VERTEX
  5
2F2
  8
0
 10
2.344015039419083
 20
11.35153861410788
 30
0.0
  0
VERTEX
  5
2F3
  8
0
 10
2.269186039419082
 20
11.38448461410788
 30
0.0
  0
VERTEX
  5
2F4
  8
0
 10
2.200895039419083
 20
11.43251261410788
 30
0.0
  0
VERTEX
  5
2F5
  8
0
 10
1.32741303941908
 20
11.43251261410788
 30
0.0
  0
VERTEX
  5
2F6
  8
0
 10
1.15700303941908
 20
11.41333361410788
 30
0.0
  0
VERTEX
  5
2F7
  8
0
 10
0.9931440394190814
 20
11.35651661410788
 30
0.0
  0
VERTEX
  5
2F8
  8
0
 10
0.8421290394190803
 20
11.26425861410788
 30
0.0
  0
VERTEX
  5
2F9
  8
0
 10
0.7097710394190804
 20
11.14009961410788
 30
0.0
  0
VERTEX
  5
2FA
  8
0
 10
0.6011420394190834
 20
10.98879961410788
 30
0.0
  0
VERTEX
  5
2FB
  8
0
 10
0.5204260394190809
 20
10.81619261410787
 30
0.0
  0
VERTEX
  5
2FC
  8
0
 10
0.4707160394190799
 20
10.62890961410787
 30
0.0
  0
VERTEX
  5
2FD
  8
0
 10
0.4539320394190822
 20
10.43413961410788
 30
0.0
  0
VERTEX
  5
2FE
  8
0
 10
0.4707160394190799
 20
10.23936961410787
 30
0.0
  0
VERTEX
  5
2FF
  8
0
 10
0.5204260394190809
 20
10.05208561410787
 30
0.0
  0
VERTEX
  5
300
  8
0
 10
0.6011420394190834
 20
9.879478614107873
 30
0.0
  0
VERTEX
  5
301
  8
0
 10
0.7097710394190804
 20
9.728178614107867
 30
0.0
  0
VERTEX
  5
302
  8
0
 10
0.8421290394190803
 20
9.604019614107871
 30
0.0
  0
VERTEX
  5
303
  8
0
 10
0.9931440394190814
 20
9.511761614107867
 30
0.0
  0
VERTEX
  5
304
  8
0
 10
1.15700303941908
 20
9.454944614107871
 30
0.0
  0
VERTEX
  5
305
  8
0
 10
1.32741303941908
 20
9.435766614107871
 30
0.0
  0
VERTEX
  5
306
  8
0
 10
1.497823039419081
 20
9.454944614107871
 30
0.0
  0
VERTEX
  5
307
  8
0
 10
1.66167603941908
 20
9.511761614107867
 30
0.0
  0
VERTEX
  5
308
  8
0
 10
1.81269003941908
 20
9.604019614107871
 30
0.0
  0
VERTEX
  5
309
  8
0
 10
1.94505503941908
 20
9.728178614107867
 30
0.0
  0
VERTEX
  5
30A
  8
0
 10
2.053691039419081
 20
9.879478614107873
 30
0.0
  0
VERTEX
  5
30B
  8
0
 10
2.13440703941908
 20
10.05208561410787
 30
0.0
  0
VERTEX
  5
30C
  8
0
 10
2.184110039419081
 20
10.23936961410787
 30
0.0
  0
VERTEX
  5
30D
  8
0
 10
2.200895039419083
 20
10.43413961410788
 30
0.0
  0
VERTEX
  5
30E
  8
0
 10
4.821339039419082
 20
10.86725861410787
 30
0.0
  0
SEQEND
  5
6A4
  8
0
  0
POLYLINE
  5
6E
  8
0
 66
     1
 10
0.0
 20
0.0
 30
0.0
 70
     1
  0
VERTEX
  5
30F
  8
0
 10
4.706891039419083
 20
9.07156261410787
 30
0.0
  0
VERTEX
  5
310
  8
0
 10
4.699466039419081
 20
9.09601061410787
 30
0.0
  0
VERTEX
  5
311
  8
0
 10
4.694636039419083
 20
9.120610614107873
 30
0.0
  0
VERTEX
  5
312
  8
0
 10
4.692327039419083
 20
9.145199614107872
 30
0.0
  0
VERTEX
  5
313
  8
0
 10
4.692462039419083
 20
9.169617614107873
 30
0.0
  0
VERTEX
  5
314
  8
0
 10
4.694966039419081
 20
9.19370461410787
 30
0.0
  0
VERTEX
  5
315
  8
0
 10
4.699764039419082
 20
9.217300614107868
 30
0.0
  0
VERTEX
  5
316
  8
0
 10
4.706780039419082
 20
9.240244614107871
 30
0.0
  0
VERTEX
  5
317
  8
0
 10
4.715938039419082
 20
9.262375614107873
 30
0.0
  0
VERTEX
  5
318
  8
0
 10
4.727163039419081
 20
9.283533614107872
 30
0.0
  0
VERTEX
  5
319
  8
0
 10
4.740380039419082
 20
9.303557614107872
 30
0.0
  0
VERTEX
  5
31A
  8
0
 10
4.75551203941908
 20
9.32228861410787
 30
0.0
  0
VERTEX
  5
31B
  8
0
 10
4.77248503941908
 20
9.33956461410787
 30
0.0
  0
VERTEX
  5
31C
  8
0
 10
4.791223039419083
 20
9.35522461410787
 30
0.0
  0
VERTEX
  5
31D
  8
0
 10
4.811649039419083
 20
9.369110614107873
 30
0.0
  0
VERTEX
  5
31E
  8
0
 10
4.833690039419081
 20
9.38105961410787
 30
0.0
  0
VERTEX
  5
31F
  8
0
 10
4.857268039419082
 20
9.390911614107873
 30
0.0
  0
VERTEX
  5
320
  8
0
 10
4.88171503941908
 20
9.398337614107872
 30
0.0
  0
VERTEX
  5
321
  8
0
 10
4.90631203941908
 20
9.403166614107873
 30
0.0
  0
VERTEX
  5
322
  8
0
 10
4.930900039419082
 20
9.405475614107873
 30
0.0
  0
VERTEX
  5
323
  8
0
 10
4.955318039419082
 20
9.405339614107872
 30
0.0
  0
VERTEX
  5
324
  8
0
 10
4.979404039419083
 20
9.402834614107872
 30
0.0
  0
VERTEX
  5
325
  8
0
 10
5.003000039419081
 20
9.39803561410787
 30
0.0
  0
VERTEX
  5
326
  8
0
 10
5.025944039419083
 20
9.39101961410787
 30
0.0
  0
VERTEX
  5
327
  8
0
 10
5.048075039419081
 20
9.38186061410787
 30
0.0
  0
VERTEX
  5
328
  8
0
 10
5.069233039419081
 20
9.370634614107873
 30
0.0
  0
VERTEX
  5
329
  8
0
 10
5.08925703941908
 20
9.357417614107872
 30
0.0
  0
VERTEX
  5
32A
  8
0
 10
5.107987039419082
 20
9.34228461410787
 30
0.0
  0
VERTEX
  5
32B
  8
0
 10
5.125263039419081
 20
9.32531261410787
 30
0.0
  0
VERTEX
  5
32C
  8
0
 10
5.140923039419081
 20
9.306575614107869
 30
0.0
  0
VERTEX
  5
32D
  8
0
 10
5.154807039419082
 20
9.286150614107873
 30
0.0
  0
VERTEX
  5
32E
  8
0
 10
5.166754039419081
 20
9.264111614107867
 30
0.0
  0
VERTEX
  5
32F
  8
0
 10
5.176605039419083
 20
9.24053461410787
 30
0.0
  0
VERTEX
  5
330
  8
0
 10
5.184032039419082
 20
9.216085614107866
 30
0.0
  0
VERTEX
  5
331
  8
0
 10
5.188863039419082
 20
9.191486614107871
 30
0.0
  0
VERTEX
  5
332
  8
0
 10
5.191173039419083
 20
9.166896614107872
 30
0.0
  0
VERTEX
  5
333
  8
0
 10
5.191038039419083
 20
9.14247761410787
 30
0.0
  0
VERTEX
  5
334
  8
0
 10
5.18853303941908
 20
9.11838961410787
 30
0.0
  0
VERTEX
  5
335
  8
0
 10
5.183735039419083
 20
9.094793614107873
 30
0.0
  0
VERTEX
  5
336
  8
0
 10
5.176718039419081
 20
9.071848614107873
 30
0.0
  0
VERTEX
  5
337
  8
0
 10
5.167560039419082
 20
9.04971661410787
 30
0.0
  0
VERTEX
  5
338
  8
0
 10
5.156334039419082
 20
9.02855861410787
 30
0.0
  0
VERTEX
  5
339
  8
0
 10
5.143117039419081
 20
9.008533614107867
 30
0.0
  0
VERTEX
  5
33A
  8
0
 10
5.127985039419083
 20
8.989802614107871
 30
0.0
  0
VERTEX
  5
33B
  8
0
 10
5.11101303941908
 20
8.972527614107866
 30
0.0
  0
VERTEX
  5
33C
  8
0
 10
5.092277039419083
 20
8.95686761410787
 30
0.0
  0
VERTEX
  5
33D
  8
0
 10
5.07185203941908
 20
8.942983614107872
 30
0.0
  0
VERTEX
  5
33E
  8
0
 10
5.049815039419083
 20
8.931035614107872
 30
0.0
  0
VERTEX
  5
33F
  8
0
 10
5.026241039419083
 20
8.921185614107872
 30
0.0
  0
VERTEX
  5
340
  8
0
 10
5.00179003941908
 20
8.913759614107873
 30
0.0
  0
VERTEX
  5
341
  8
0
 10
4.977189039419083
 20
8.908930614107872
 30
0.0
  0
VERTEX
  5
342
  8
0
 10
4.952598039419082
 20
8.906621614107872
 30
0.0
  0
VERTEX
  5
343
  8
0
 10
4.928178039419083
 20
8.906757614107873
 30
0.0
  0
VERTEX
  5
344
  8
0
 10
4.904090039419081
 20
8.909262614107872
 30
0.0
  0
VERTEX
  5
345
  8
0
 10
4.880493039419082
 20
8.91406161410787
 30
0.0
  0
VERTEX
  5
346
  8
0
 10
4.857549039419083
 20
8.92107761410787
 30
0.0
  0
VERTEX
  5
347
  8
0
 10
4.835418039419081
 20
8.930236614107871
 30
0.0
  0
VERTEX
  5
348
  8
0
 10
4.814260039419081
 20
8.941462614107868
 30
0.0
  0
VERTEX
  5
349
  8
0
 10
4.794236039419082
 20
8.954679614107873
 30
0.0
  0
VERTEX
  5
34A
  8
0
 10
4.77550603941908
 20
8.969812614107871
 30
0.0
  0
VERTEX
  5
34B
  8
0
 10
4.75823203941908
 20
8.986784614107867
 30
0.0
  0
VERTEX
  5
34C
  8
0
 10
4.742572039419083
 20
9.005521614107868
 30
0.0
  0
VERTEX
  5
34D
  8
0
 10
4.728689039419083
 20
9.025947614107869
 30
0.0
  0
VERTEX
  5
34E
  8
0
 10
4.71674203941908
 20
9.047985614107871
 30
0.0
  0
SEQEND
  5
6A5
  8
0
  0
POLYLINE
  5
6F
  8
0
 66
     1
 10
0.0
 20
0.0
 30
0.0
 70
     1
  0
VERTEX
  5
34F
  8
0
 10
3.812482039419083
 20
9.928686614107873
 30
0.0
  0
VERTEX
  5
350
  8
0
 10
5.029523039419082
 20
8.039836614107871
 30
0.0
  0
VERTEX
  5
351
  8
0
 10
2.169448039419083
 20
8.36428661410787
 30
0.0
  0
VERTEX
  5
352
  8
0
 10
2.058520039419082
 20
9.29771861410787
 30
0.0
  0
SEQEND
  5
6A6
  8
0
  0
POLYLINE
  5
70
  8
0
 66
     1
 10
0.0
 20
0.0
 30
0.0
 70
     1
  0
VERTEX
  5
353
  8
0
 10
1.457859039419083
 20
8.47638761410787
 30
0.0
  0
VERTEX
  5
354
  8
0
 10
1.292196039419081
 20
8.454794614107866
 30
0.0
  0
VERTEX
  5
355
  8
0
 10
1.133538039419082
 20
8.40517961410787
 30
0.0
  0
VERTEX
  5
356
  8
0
 10
0.9856160394190807
 20
8.32875061410787
 30
0.0
  0
VERTEX
  5
357
  8
0
 10
0.8518270394190806
 20
8.22722861410787
 30
0.0
  0
VERTEX
  5
358
  8
0
 10
0.83242403941908
 20
8.366185614107872
 30
0.0
  0
VERTEX
  5
359
  8
0
 10
0.893541039419083
 20
8.511964614107873
 30
0.0
  0
VERTEX
  5
35A
  8
0
 10
0.9769220394190823
 20
8.64213261410787
 30
0.0
  0
VERTEX
  5
35B
  8
0
 10
1.080146039419083
 20
8.752904614107868
 30
0.0
  0
VERTEX
  5
35C
  8
0
 10
1.200297039419083
 20
8.841188614107873
 30
0.0
  0
VERTEX
  5
35D
  8
0
 10
1.33392403941908
 20
8.904420614107872
 30
0.0
  0
VERTEX
  5
35E
  8
0
 10
2.155851039419082
 20
9.200102614107868
 30
0.0
  0
VERTEX
  5
35F
  8
0
 10
2.236356039419081
 20
9.178021614107871
 30
0.0
  0
VERTEX
  5
360
  8
0
 10
2.31791903941908
 20
9.172351614107873
 30
0.0
  0
VERTEX
  5
361
  8
0
 10
2.397767039419082
 20
9.18325661410787
 30
0.0
  0
VERTEX
  5
362
  8
0
 10
2.473207039419083
 20
9.21039661410787
 30
0.0
  0
VERTEX
  5
363
  8
0
 10
2.54172203941908
 20
9.252863614107872
 30
0.0
  0
VERTEX
  5
364
  8
0
 10
2.60098703941908
 20
9.30919261410787
 30
0.0
  0
VERTEX
  5
365
  8
0
 10
2.648988039419083
 20
9.377497614107872
 30
0.0
  0
VERTEX
  5
366
  8
0
 10
2.731175039419081
 20
9.40706561410787
 30
0.0
  0
VERTEX
  5
367
  8
0
 10
2.811694039419083
 20
9.38499861410787
 30
0.0
  0
VERTEX
  5
368
  8
0
 10
2.893258039419083
 20
9.379315614107872
 30
0.0
  0
VERTEX
  5
369
  8
0
 10
2.973112039419081
 20
9.390233614107872
 30
0.0
  0
VERTEX
  5
36A
  8
0
 10
3.04856503941908
 20
9.417374614107873
 30
0.0
  0
VERTEX
  5
36B
  8
0
 10
3.117080039419082
 20
9.459841614107871
 30
0.0
  0
VERTEX
  5
36C
  8
0
 10
3.176325039419083
 20
9.516169614107872
 30
0.0
  0
VERTEX
  5
36D
  8
0
 10
3.224326039419082
 20
9.58447461410787
 30
0.0
  0
VERTEX
  5
36E
  8
0
 10
3.30650703941908
 20
9.614029614107872
 30
0.0
  0
VERTEX
  5
36F
  8
0
 10
3.387039039419082
 20
9.591961614107872
 30
0.0
  0
VERTEX
  5
370
  8
0
 10
3.468596039419082
 20
9.58629261410787
 30
0.0
  0
VERTEX
  5
371
  8
0
 10
3.548457039419083
 20
9.59721061410787
 30
0.0
  0
VERTEX
  5
372
  8
0
 10
3.623896039419082
 20
9.624351614107871
 30
0.0
  0
VERTEX
  5
373
  8
0
 10
3.692405039419081
 20
9.666804614107873
 30
0.0
  0
VERTEX
  5
374
  8
0
 10
3.751663039419081
 20
9.723133614107871
 30
0.0
  0
VERTEX
  5
375
  8
0
 10
3.79966403941908
 20
9.791452614107866
 30
0.0
  0
VERTEX
  5
376
  8
0
 10
4.621591039419083
 20
10.08712061410787
 30
0.0
  0
VERTEX
  5
377
  8
0
 10
4.78842103941908
 20
10.12676561410787
 30
0.0
  0
VERTEX
  5
378
  8
0
 10
4.961842039419081
 20
10.12875961410788
 30
0.0
  0
VERTEX
  5
379
  8
0
 10
5.135168039419081
 20
10.09307461410788
 30
0.0
  0
VERTEX
  5
37A
  8
0
 10
5.301740039419083
 20
10.02103961410788
 30
0.0
  0
VERTEX
  5
37B
  8
0
 10
5.455183039419082
 20
9.915448614107872
 30
0.0
  0
VERTEX
  5
37C
  8
0
 10
5.589555039419081
 20
9.780357614107869
 30
0.0
  0
VERTEX
  5
37D
  8
0
 10
5.699730039419083
 20
9.62096061410787
 30
0.0
  0
VERTEX
  5
37E
  8
0
 10
5.78145003941908
 20
9.44336161410787
 30
0.0
  0
VERTEX
  5
37F
  8
0
 10
5.831594039419083
 20
9.254410614107867
 30
0.0
  0
VERTEX
  5
380
  8
0
 10
5.848209039419081
 20
9.061349614107867
 30
0.0
  0
VERTEX
  5
381
  8
0
 10
5.830685039419083
 20
8.87161061410787
 30
0.0
  0
VERTEX
  5
382
  8
0
 10
5.779673039419083
 20
8.692479614107873
 30
0.0
  0
VERTEX
  5
383
  8
0
 10
5.697167039419081
 20
8.530844614107869
 30
0.0
  0
VERTEX
  5
384
  8
0
 10
5.586300039419082
 20
8.392918614107872
 30
0.0
  0
VERTEX
  5
385
  8
0
 10
5.451344039419083
 20
8.283977614107867
 30
0.0
  0
VERTEX
  5
386
  8
0
 10
5.297481039419082
 20
8.208253614107873
 30
0.0
  0
VERTEX
  5
387
  8
0
 10
5.130652039419082
 20
8.168621614107872
 30
0.0
  0
VERTEX
  5
388
  8
0
 10
4.957231039419081
 20
8.166613614107872
 30
0.0
  0
VERTEX
  5
389
  8
0
 10
4.783891039419081
 20
8.202298614107873
 30
0.0
  0
VERTEX
  5
38A
  8
0
 10
4.617332039419082
 20
8.27433461410787
 30
0.0
  0
VERTEX
  5
38B
  8
0
 10
4.463890039419083
 20
8.379924614107873
 30
0.0
  0
VERTEX
  5
38C
  8
0
 10
4.32950403941908
 20
8.51501661410787
 30
0.0
  0
VERTEX
  5
38D
  8
0
 10
4.219342039419081
 20
8.67442661410787
 30
0.0
  0
VERTEX
  5
38E
  8
0
 10
4.137623039419082
 20
8.852011614107871
 30
0.0
  0
VERTEX
  5
38F
  8
0
 10
1.525262039419082
 20
8.37253261410787
 30
0.0
  0
SEQEND
  5
6A7
  8
0
  0
POLYLINE
  5
71
  8
0
 66
     1
 10
0.0
 20
0.0
 30
0.0
 70
     1
  0
VERTEX
  5
390
  8
0
 10
7.2887749605809
 20
2.850883385892113
 30
0.0
  0
VERTEX
  5
391
  8
0
 10
7.2874859605809
 20
2.876402385892112
 30
0.0
  0
VERTEX
  5
392
  8
0
 10
7.283703960580903
 20
2.901184385892114
 30
0.0
  0
VERTEX
  5
393
  8
0
 10
7.277553960580901
 20
2.925103385892113
 30
0.0
  0
VERTEX
  5
394
  8
0
 10
7.269160960580903
 20
2.948035385892114
 30
0.0
  0
VERTEX
  5
395
  8
0
 10
7.258650960580903
 20
2.969853385892113
 30
0.0
  0
VERTEX
  5
396
  8
0
 10
7.246148960580902
 20
2.990432385892111
 30
0.0
  0
VERTEX
  5
397
  8
0
 10
7.231780960580901
 20
3.009646385892113
 30
0.0
  0
VERTEX
  5
398
  8
0
 10
7.215671960580901
 20
3.027371385892112
 30
0.0
  0
VERTEX
  5
399
  8
0
 10
7.197947960580903
 20
3.043480385892112
 30
0.0
  0
VERTEX
  5
39A
  8
0
 10
7.1787329605809
 20
3.057849385892114
 30
0.0
  0
VERTEX
  5
39B
  8
0
 10
7.158153960580902
 20
3.070351385892112
 30
0.0
  0
VERTEX
  5
39C
  8
0
 10
7.136335960580903
 20
3.080861385892112
 30
0.0
  0
VERTEX
  5
39D
  8
0
 10
7.113404960580903
 20
3.089254385892113
 30
0.0
  0
VERTEX
  5
39E
  8
0
 10
7.089484960580902
 20
3.095405385892112
 30
0.0
  0
VERTEX
  5
39F
  8
0
 10
7.064701960580903
 20
3.099187385892114
 30
0.0
  0
VERTEX
  5
3A0
  8
0
 10
7.039180960580902
 20
3.100476385892113
 30
0.0
  0
VERTEX
  5
3A1
  8
0
 10
7.013661960580903
 20
3.099187385892114
 30
0.0
  0
VERTEX
  5
3A2
  8
0
 10
6.988879960580901
 20
3.095405385892112
 30
0.0
  0
VERTEX
  5
3A3
  8
0
 10
6.964960960580902
 20
3.089254385892113
 30
0.0
  0
VERTEX
  5
3A4
  8
0
 10
6.942028960580901
 20
3.080861385892112
 30
0.0
  0
VERTEX
  5
3A5
  8
0
 10
6.920210960580901
 20
3.070351385892112
 30
0.0
  0
VERTEX
  5
3A6
  8
0
 10
6.899631960580903
 20
3.057849385892114
 30
0.0
  0
VERTEX
  5
3A7
  8
0
 10
6.880417960580901
 20
3.043480385892112
 30
0.0
  0
VERTEX
  5
3A8
  8
0
 10
6.862692960580903
 20
3.027371385892112
 30
0.0
  0
VERTEX
  5
3A9
  8
0
 10
6.846583960580903
 20
3.009646385892113
 30
0.0
  0
VERTEX
  5
3AA
  8
0
 10
6.832214960580901
 20
2.990432385892111
 30
0.0
  0
VERTEX
  5
3AB
  8
0
 10
6.819712960580903
 20
2.969853385892113
 30
0.0
  0
VERTEX
  5
3AC
  8
0
 10
6.809202960580903
 20
2.948035385892114
 30
0.0
  0
VERTEX
  5
3AD
  8
0
 10
6.800809960580901
 20
2.925103385892113
 30
0.0
  0
VERTEX
  5
3AE
  8
0
 10
6.794658960580902
 20
2.901184385892114
 30
0.0
  0
VERTEX
  5
3AF
  8
0
 10
6.790876960580901
 20
2.876402385892112
 30
0.0
  0
VERTEX
  5
3B0
  8
0
 10
6.789587960580901
 20
2.850883385892113
 30
0.0
  0
VERTEX
  5
3B1
  8
0
 10
6.790876960580901
 20
2.825363385892112
 30
0.0
  0
VERTEX
  5
3B2
  8
0
 10
6.794658960580902
 20
2.800581385892114
 30
0.0
  0
VERTEX
  5
3B3
  8
0
 10
6.800809960580901
 20
2.776662385892111
 30
0.0
  0
VERTEX
  5
3B4
  8
0
 10
6.809202960580903
 20
2.753730385892114
 30
0.0
  0
VERTEX
  5
3B5
  8
0
 10
6.819712960580903
 20
2.731912385892114
 30
0.0
  0
VERTEX
  5
3B6
  8
0
 10
6.832214960580901
 20
2.711333385892113
 30
0.0
  0
VERTEX
  5
3B7
  8
0
 10
6.846583960580903
 20
2.692119385892111
 30
0.0
  0
VERTEX
  5
3B8
  8
0
 10
6.862692960580903
 20
2.674394385892112
 30
0.0
  0
VERTEX
  5
3B9
  8
0
 10
6.880417960580901
 20
2.658285385892112
 30
0.0
  0
VERTEX
  5
3BA
  8
0
 10
6.899631960580903
 20
2.643916385892114
 30
0.0
  0
VERTEX
  5
3BB
  8
0
 10
6.920210960580901
 20
2.631414385892112
 30
0.0
  0
VERTEX
  5
3BC
  8
0
 10
6.942028960580901
 20
2.620904385892112
 30
0.0
  0
VERTEX
  5
3BD
  8
0
 10
6.964960960580902
 20
2.612511385892114
 30
0.0
  0
VERTEX
  5
3BE
  8
0
 10
6.988879960580901
 20
2.606360385892112
 30
0.0
  0
VERTEX
  5
3BF
  8
0
 10
7.013661960580903
 20
2.602578385892114
 30
0.0
  0
VERTEX
  5
3C0
  8
0
 10
7.039180960580902
 20
2.601289385892114
 30
0.0
  0
VERTEX
  5
3C1
  8
0
 10
7.064701960580903
 20
2.602578385892114
 30
0.0
  0
VERTEX
  5
3C2
  8
0
 10
7.089484960580902
 20
2.606360385892112
 30
0.0
  0
VERTEX
  5
3C3
  8
0
 10
7.113404960580903
 20
2.612511385892114
 30
0.0
  0
VERTEX
  5
3C4
  8
0
 10
7.136335960580903
 20
2.620904385892112
 30
0.0
  0
VERTEX
  5
3C5
  8
0
 10
7.158153960580902
 20
2.631414385892112
 30
0.0
  0
VERTEX
  5
3C6
  8
0
 10
7.1787329605809
 20
2.643916385892114
 30
0.0
  0
VERTEX
  5
3C7
  8
0
 10
7.197947960580903
 20
2.658285385892112
 30
0.0
  0
VERTEX
  5
3C8
  8
0
 10
7.215671960580901
 20
2.674394385892112
 30
0.0
  0
VERTEX
  5
3C9
  8
0
 10
7.231780960580901
 20
2.692119385892111
 30
0.0
  0
VERTEX
  5
3CA
  8
0
 10
7.246148960580902
 20
2.711333385892113
 30
0.0
  0
VERTEX
  5
3CB
  8
0
 10
7.258650960580903
 20
2.731912385892114
 30
0.0
  0
VERTEX
  5
3CC
  8
0
 10
7.269160960580903
 20
2.753730385892114
 30
0.0
  0
VERTEX
  5
3CD
  8
0
 10
7.277553960580901
 20
2.776662385892111
 30
0.0
  0
VERTEX
  5
3CE
  8
0
 10
7.283703960580903
 20
2.800581385892114
 30
0.0
  0
VERTEX
  5
3CF
  8
0
 10
7.2874859605809
 20
2.825363385892112
 30
0.0
  0
SEQEND
  5
6A8
  8
0
  0
POLYLINE
  5
72
  8
0
 66
     1
 10
0.0
 20
0.0
 30
0.0
 70
     1
  0
VERTEX
  5
3D0
  8
0
 10
7.840240960580902
 20
3.960163385892114
 30
0.0
  0
VERTEX
  5
3D1
  8
0
 10
7.334421960580903
 20
1.770858385892113
 30
0.0
  0
VERTEX
  5
3D2
  8
0
 10
9.915830960580905
 20
3.044296385892112
 30
0.0
  0
VERTEX
  5
3D3
  8
0
 10
9.704242960580906
 20
3.960163385892114
 30
0.0
  0
SEQEND
  5
6A9
  8
0
  0
POLYLINE
  5
73
  8
0
 66
     1
 10
0.0
 20
0.0
 30
0.0
 70
     1
  0
VERTEX
  5
3D4
  8
0
 10
10.54746396058091
 20
3.390651385892111
 30
0.0
  0
VERTEX
  5
3D5
  8
0
 10
10.71065896058091
 20
3.426404385892114
 30
0.0
  0
VERTEX
  5
3D6
  8
0
 10
10.87674196058092
 20
3.433430385892114
 30
0.0
  0
VERTEX
  5
3D7
  8
0
 10
11.04180896058091
 20
3.411579385892113
 30
0.0
  0
VERTEX
  5
3D8
  8
0
 10
11.20205996058092
 20
3.361340385892111
 30
0.0
  0
VERTEX
  5
3D9
  8
0
 10
11.17327796058092
 20
3.498669385892113
 30
0.0
  0
VERTEX
  5
3DA
  8
0
 10
11.06642596058091
 20
3.615152385892111
 30
0.0
  0
VERTEX
  5
3DB
  8
0
 10
10.94390796058092
 20
3.709404385892112
 30
0.0
  0
VERTEX
  5
3DC
  8
0
 10
10.80927796058091
 20
3.778699385892113
 30
0.0
  0
VERTEX
  5
3DD
  8
0
 10
10.66633396058091
 20
3.821098385892112
 30
0.0
  0
VERTEX
  5
3DE
  8
0
 10
10.51919796058091
 20
3.835367385892114
 30
0.0
  0
VERTEX
  5
3DF
  8
0
 10
9.645702960580902
 20
3.835367385892114
 30
0.0
  0
VERTEX
  5
3E0
  8
0
 10
9.577424960580903
 20
3.787339385892112
 30
0.0
  0
VERTEX
  5
3E1
  8
0
 10
9.502595960580905
 20
3.754393385892113
 30
0.0
  0
VERTEX
  5
3E2
  8
0
 10
9.423764960580904
 20
3.737629385892111
 30
0.0
  0
VERTEX
  5
3E3
  8
0
 10
9.343591960580902
 20
3.737629385892111
 30
0.0
  0
VERTEX
  5
3E4
  8
0
 10
9.264747960580902
 20
3.754393385892113
 30
0.0
  0
VERTEX
  5
3E5
  8
0
 10
9.189918960580904
 20
3.787339385892112
 30
0.0
  0
VERTEX
  5
3E6
  8
0
 10
9.121627960580899
 20
3.835367385892114
 30
0.0
  0
VERTEX
  5
3E7
  8
0
 10
9.0342799605809
 20
3.835367385892114
 30
0.0
  0
VERTEX
  5
3E8
  8
0
 10
8.9659879605809
 20
3.787339385892112
 30
0.0
  0
VERTEX
  5
3E9
  8
0
 10
8.8911589605809
 20
3.754393385892113
 30
0.0
  0
VERTEX
  5
3EA
  8
0
 10
8.812327960580902
 20
3.737629385892111
 30
0.0
  0
VERTEX
  5
3EB
  8
0
 10
8.7321419605809
 20
3.737629385892111
 30
0.0
  0
VERTEX
  5
3EC
  8
0
 10
8.6532979605809
 20
3.754393385892113
 30
0.0
  0
VERTEX
  5
3ED
  8
0
 10
8.578481960580902
 20
3.787339385892112
 30
0.0
  0
VERTEX
  5
3EE
  8
0
 10
8.5101909605809
 20
3.835367385892114
 30
0.0
  0
VERTEX
  5
3EF
  8
0
 10
8.4228489605809
 20
3.835367385892114
 30
0.0
  0
VERTEX
  5
3F0
  8
0
 10
8.354543960580902
 20
3.787339385892112
 30
0.0
  0
VERTEX
  5
3F1
  8
0
 10
8.279721960580904
 20
3.754393385892113
 30
0.0
  0
VERTEX
  5
3F2
  8
0
 10
8.2008909605809
 20
3.737629385892111
 30
0.0
  0
VERTEX
  5
3F3
  8
0
 10
8.120704960580902
 20
3.737629385892111
 30
0.0
  0
VERTEX
  5
3F4
  8
0
 10
8.041873960580904
 20
3.754393385892113
 30
0.0
  0
VERTEX
  5
3F5
  8
0
 10
7.967044960580902
 20
3.787339385892112
 30
0.0
  0
VERTEX
  5
3F6
  8
0
 10
7.898753960580904
 20
3.835367385892114
 30
0.0
  0
VERTEX
  5
3F7
  8
0
 10
7.0252719605809
 20
3.835367385892114
 30
0.0
  0
VERTEX
  5
3F8
  8
0
 10
6.8548619605809
 20
3.816188385892113
 30
0.0
  0
VERTEX
  5
3F9
  8
0
 10
6.691002960580901
 20
3.759371385892115
 30
0.0
  0
VERTEX
  5
3FA
  8
0
 10
6.5399879605809
 20
3.667113385892113
 30
0.0
  0
VERTEX
  5
3FB
  8
0
 10
6.4076299605809
 20
3.542954385892111
 30
0.0
  0
VERTEX
  5
3FC
  8
0
 10
6.299000960580903
 20
3.391654385892112
 30
0.0
  0
VERTEX
  5
3FD
  8
0
 10
6.218284960580901
 20
3.219047385892113
 30
0.0
  0
VERTEX
  5
3FE
  8
0
 10
6.1685749605809
 20
3.031764385892112
 30
0.0
  0
VERTEX
  5
3FF
  8
0
 10
6.151790960580902
 20
2.836994385892114
 30
0.0
  0
VERTEX
  5
400
  8
0
 10
6.1685749605809
 20
2.642224385892112
 30
0.0
  0
VERTEX
  5
401
  8
0
 10
6.218284960580901
 20
2.454940385892113
 30
0.0
  0
VERTEX
  5
402
  8
0
 10
6.299000960580903
 20
2.282333385892114
 30
0.0
  0
VERTEX
  5
403
  8
0
 10
6.4076299605809
 20
2.131033385892112
 30
0.0
  0
VERTEX
  5
404
  8
0
 10
6.5399879605809
 20
2.006874385892113
 30
0.0
  0
VERTEX
  5
405
  8
0
 10
6.691002960580901
 20
1.914616385892112
 30
0.0
  0
VERTEX
  5
406
  8
0
 10
6.8548619605809
 20
1.857799385892113
 30
0.0
  0
VERTEX
  5
407
  8
0
 10
7.0252719605809
 20
1.838621385892113
 30
0.0
  0
VERTEX
  5
408
  8
0
 10
7.195681960580901
 20
1.857799385892113
 30
0.0
  0
VERTEX
  5
409
  8
0
 10
7.3595349605809
 20
1.914616385892112
 30
0.0
  0
VERTEX
  5
40A
  8
0
 10
7.5105489605809
 20
2.006874385892113
 30
0.0
  0
VERTEX
  5
40B
  8
0
 10
7.6429139605809
 20
2.131033385892112
 30
0.0
  0
VERTEX
  5
40C
  8
0
 10
7.751549960580902
 20
2.282333385892114
 30
0.0
  0
VERTEX
  5
40D
  8
0
 10
7.832265960580901
 20
2.454940385892113
 30
0.0
  0
VERTEX
  5
40E
  8
0
 10
7.881968960580902
 20
2.642224385892112
 30
0.0
  0
VERTEX
  5
40F
  8
0
 10
7.898753960580904
 20
2.836994385892114
 30
0.0
  0
VERTEX
  5
410
  8
0
 10
10.51919796058091
 20
3.270113385892111
 30
0.0
  0
SEQEND
  5
6AA
  8
0
  0
POLYLINE
  5
74
  8
0
 66
     1
 10
0.0
 20
0.0
 30
0.0
 70
     1
  0
VERTEX
  5
411
  8
0
 10
10.40474996058091
 20
1.474417385892112
 30
0.0
  0
VERTEX
  5
412
  8
0
 10
10.39732496058091
 20
1.498865385892111
 30
0.0
  0
VERTEX
  5
413
  8
0
 10
10.39249496058091
 20
1.523465385892115
 30
0.0
  0
VERTEX
  5
414
  8
0
 10
10.39018596058091
 20
1.548054385892113
 30
0.0
  0
VERTEX
  5
415
  8
0
 10
10.39032096058091
 20
1.572472385892114
 30
0.0
  0
VERTEX
  5
416
  8
0
 10
10.39282496058091
 20
1.596559385892112
 30
0.0
  0
VERTEX
  5
417
  8
0
 10
10.39762296058091
 20
1.620155385892113
 30
0.0
  0
VERTEX
  5
418
  8
0
 10
10.40463896058091
 20
1.643099385892112
 30
0.0
  0
VERTEX
  5
419
  8
0
 10
10.41379696058091
 20
1.665230385892114
 30
0.0
  0
VERTEX
  5
41A
  8
0
 10
10.42502196058091
 20
1.686388385892114
 30
0.0
  0
VERTEX
  5
41B
  8
0
 10
10.43823896058091
 20
1.706412385892113
 30
0.0
  0
VERTEX
  5
41C
  8
0
 10
10.45337096058091
 20
1.725143385892112
 30
0.0
  0
VERTEX
  5
41D
  8
0
 10
10.47034396058091
 20
1.742419385892111
 30
0.0
  0
VERTEX
  5
41E
  8
0
 10
10.48908196058091
 20
1.758079385892112
 30
0.0
  0
VERTEX
  5
41F
  8
0
 10
10.50950796058091
 20
1.771965385892114
 30
0.0
  0
VERTEX
  5
420
  8
0
 10
10.53154896058091
 20
1.783914385892112
 30
0.0
  0
VERTEX
  5
421
  8
0
 10
10.55512696058091
 20
1.793766385892114
 30
0.0
  0
VERTEX
  5
422
  8
0
 10
10.57957396058091
 20
1.801192385892113
 30
0.0
  0
VERTEX
  5
423
  8
0
 10
10.60417096058091
 20
1.806021385892114
 30
0.0
  0
VERTEX
  5
424
  8
0
 10
10.62875896058091
 20
1.808330385892114
 30
0.0
  0
VERTEX
  5
425
  8
0
 10
10.65317696058091
 20
1.808194385892113
 30
0.0
  0
VERTEX
  5
426
  8
0
 10
10.67726296058092
 20
1.805689385892114
 30
0.0
  0
VERTEX
  5
427
  8
0
 10
10.70085896058091
 20
1.800890385892112
 30
0.0
  0
VERTEX
  5
428
  8
0
 10
10.72380296058092
 20
1.793874385892112
 30
0.0
  0
VERTEX
  5
429
  8
0
 10
10.74593396058091
 20
1.784715385892111
 30
0.0
  0
VERTEX
  5
42A
  8
0
 10
10.76709196058091
 20
1.773489385892114
 30
0.0
  0
VERTEX
  5
42B
  8
0
 10
10.78711596058091
 20
1.760272385892113
 30
0.0
  0
VERTEX
  5
42C
  8
0
 10
10.80584596058091
 20
1.745139385892111
 30
0.0
  0
VERTEX
  5
42D
  8
0
 10
10.82312196058091
 20
1.728167385892112
 30
0.0
  0
VERTEX
  5
42E
  8
0
 10
10.83878196058091
 20
1.709430385892114
 30
0.0
  0
VERTEX
  5
42F
  8
0
 10
10.85266596058091
 20
1.689005385892115
 30
0.0
  0
VERTEX
  5
430
  8
0
 10
10.86461296058091
 20
1.666966385892112
 30
0.0
  0
VERTEX
  5
431
  8
0
 10
10.87446396058091
 20
1.643389385892112
 30
0.0
  0
VERTEX
  5
432
  8
0
 10
10.88189096058091
 20
1.618940385892111
 30
0.0
  0
VERTEX
  5
433
  8
0
 10
10.88672196058091
 20
1.594341385892113
 30
0.0
  0
VERTEX
  5
434
  8
0
 10
10.88903196058092
 20
1.569751385892113
 30
0.0
  0
VERTEX
  5
435
  8
0
 10
10.88889696058092
 20
1.545332385892111
 30
0.0
  0
VERTEX
  5
436
  8
0
 10
10.88639196058091
 20
1.521244385892112
 30
0.0
  0
VERTEX
  5
437
  8
0
 10
10.88159396058091
 20
1.497648385892115
 30
0.0
  0
VERTEX
  5
438
  8
0
 10
10.87457696058091
 20
1.474703385892115
 30
0.0
  0
VERTEX
  5
439
  8
0
 10
10.86541896058091
 20
1.452571385892112
 30
0.0
  0
VERTEX
  5
43A
  8
0
 10
10.85419296058091
 20
1.431413385892112
 30
0.0
  0
VERTEX
  5
43B
  8
0
 10
10.84097596058091
 20
1.411388385892112
 30
0.0
  0
VERTEX
  5
43C
  8
0
 10
10.82584396058092
 20
1.392657385892113
 30
0.0
  0
VERTEX
  5
43D
  8
0
 10
10.80887196058091
 20
1.375382385892111
 30
0.0
  0
VERTEX
  5
43E
  8
0
 10
10.79013596058092
 20
1.359722385892114
 30
0.0
  0
VERTEX
  5
43F
  8
0
 10
10.76971096058091
 20
1.345838385892113
 30
0.0
  0
VERTEX
  5
440
  8
0
 10
10.74767396058092
 20
1.333890385892113
 30
0.0
  0
VERTEX
  5
441
  8
0
 10
10.72409996058092
 20
1.324040385892113
 30
0.0
  0
VERTEX
  5
442
  8
0
 10
10.69964896058091
 20
1.316614385892114
 30
0.0
  0
VERTEX
  5
443
  8
0
 10
10.67504796058092
 20
1.311785385892113
 30
0.0
  0
VERTEX
  5
444
  8
0
 10
10.65045696058091
 20
1.309476385892113
 30
0.0
  0
VERTEX
  5
445
  8
0
 10
10.62603696058091
 20
1.309612385892114
 30
0.0
  0
VERTEX
  5
446
  8
0
 10
10.60194896058091
 20
1.312117385892114
 30
0.0
  0
VERTEX
  5
447
  8
0
 10
10.57835196058091
 20
1.316916385892112
 30
0.0
  0
VERTEX
  5
448
  8
0
 10
10.55540796058091
 20
1.323932385892112
 30
0.0
  0
VERTEX
  5
449
  8
0
 10
10.53327696058091
 20
1.333091385892113
 30
0.0
  0
VERTEX
  5
44A
  8
0
 10
10.51211896058091
 20
1.344317385892113
 30
0.0
  0
VERTEX
  5
44B
  8
0
 10
10.49209496058091
 20
1.357534385892114
 30
0.0
  0
VERTEX
  5
44C
  8
0
 10
10.47336496058091
 20
1.372667385892113
 30
0.0
  0
VERTEX
  5
44D
  8
0
 10
10.45609096058091
 20
1.389639385892112
 30
0.0
  0
VERTEX
  5
44E
  8
0
 10
10.44043096058091
 20
1.408376385892113
 30
0.0
  0
VERTEX
  5
44F
  8
0
 10
10.42654796058091
 20
1.428802385892114
 30
0.0
  0
VERTEX
  5
450
  8
0
 10
10.41460096058091
 20
1.450840385892112
 30
0.0
  0
SEQEND
  5
6AB
  8
0
  0
POLYLINE
  5
75
  8
0
 66
     1
 10
0.0
 20
0.0
 30
0.0
 70
     1
  0
VERTEX
  5
451
  8
0
 10
9.510340960580905
 20
2.331541385892114
 30
0.0
  0
VERTEX
  5
452
  8
0
 10
10.72738196058091
 20
0.4426913858921129
 30
0.0
  0
VERTEX
  5
453
  8
0
 10
7.867306960580904
 20
0.7671413858921117
 30
0.0
  0
VERTEX
  5
454
  8
0
 10
7.756378960580903
 20
1.700573385892111
 30
0.0
  0
SEQEND
  5
6AC
  8
0
  0
POLYLINE
  5
76
  8
0
 66
     1
 10
0.0
 20
0.0
 30
0.0
 70
     1
  0
VERTEX
  5
455
  8
0
 10
7.155717960580903
 20
0.8792423858921143
 30
0.0
  0
VERTEX
  5
456
  8
0
 10
6.990054960580901
 20
0.8576493858921115
 30
0.0
  0
VERTEX
  5
457
  8
0
 10
6.831396960580902
 20
0.8080343858921122
 30
0.0
  0
VERTEX
  5
458
  8
0
 10
6.683474960580901
 20
0.7316053858921112
 30
0.0
  0
VERTEX
  5
459
  8
0
 10
6.5496859605809
 20
0.630083385892112
 30
0.0
  0
VERTEX
  5
45A
  8
0
 10
6.5302829605809
 20
0.7690403858921133
 30
0.0
  0
VERTEX
  5
45B
  8
0
 10
6.591399960580903
 20
0.9148193858921143
 30
0.0
  0
VERTEX
  5
45C
  8
0
 10
6.674780960580902
 20
1.044987385892112
 30
0.0
  0
VERTEX
  5
45D
  8
0
 10
6.778004960580903
 20
1.155759385892113
 30
0.0
  0
VERTEX
  5
45E
  8
0
 10
6.898155960580903
 20
1.244043385892114
 30
0.0
  0
VERTEX
  5
45F
  8
0
 10
7.0317829605809
 20
1.307275385892114
 30
0.0
  0
VERTEX
  5
460
  8
0
 10
7.853709960580903
 20
1.602957385892113
 30
0.0
  0
VERTEX
  5
461
  8
0
 10
7.934214960580902
 20
1.580876385892113
 30
0.0
  0
VERTEX
  5
462
  8
0
 10
8.015777960580902
 20
1.575206385892114
 30
0.0
  0
VERTEX
  5
463
  8
0
 10
8.095625960580904
 20
1.586111385892112
 30
0.0
  0
VERTEX
  5
464
  8
0
 10
8.1710659605809
 20
1.613251385892111
 30
0.0
  0
VERTEX
  5
465
  8
0
 10
8.239580960580899
 20
1.655718385892113
 30
0.0
  0
VERTEX
  5
466
  8
0
 10
8.298845960580902
 20
1.712047385892111
 30
0.0
  0
VERTEX
  5
467
  8
0
 10
8.346846960580905
 20
1.780352385892114
 30
0.0
  0
VERTEX
  5
468
  8
0
 10
8.429033960580899
 20
1.809920385892111
 30
0.0
  0
VERTEX
  5
469
  8
0
 10
8.509552960580901
 20
1.787853385892111
 30
0.0
  0
VERTEX
  5
46A
  8
0
 10
8.591116960580905
 20
1.782170385892114
 30
0.0
  0
VERTEX
  5
46B
  8
0
 10
8.670970960580899
 20
1.793088385892114
 30
0.0
  0
VERTEX
  5
46C
  8
0
 10
8.746423960580898
 20
1.820229385892114
 30
0.0
  0
VERTEX
  5
46D
  8
0
 10
8.814938960580903
 20
1.862696385892113
 30
0.0
  0
VERTEX
  5
46E
  8
0
 10
8.874183960580904
 20
1.919024385892113
 30
0.0
  0
VERTEX
  5
46F
  8
0
 10
8.9221849605809
 20
1.987329385892112
 30
0.0
  0
VERTEX
  5
470
  8
0
 10
9.004365960580898
 20
2.016884385892114
 30
0.0
  0
VERTEX
  5
471
  8
0
 10
9.0848979605809
 20
1.994816385892113
 30
0.0
  0
VERTEX
  5
472
  8
0
 10
9.166454960580904
 20
1.989147385892112
 30
0.0
  0
VERTEX
  5
473
  8
0
 10
9.246315960580905
 20
2.000065385892112
 30
0.0
  0
VERTEX
  5
474
  8
0
 10
9.321754960580904
 20
2.027206385892113
 30
0.0
  0
VERTEX
  5
475
  8
0
 10
9.390263960580903
 20
2.069659385892114
 30
0.0
  0
VERTEX
  5
476
  8
0
 10
9.449521960580903
 20
2.125988385892112
 30
0.0
  0
VERTEX
  5
477
  8
0
 10
9.497522960580902
 20
2.194307385892111
 30
0.0
  0
VERTEX
  5
478
  8
0
 10
10.31944996058091
 20
2.489975385892114
 30
0.0
  0
VERTEX
  5
479
  8
0
 10
10.48627996058091
 20
2.529620385892114
 30
0.0
  0
VERTEX
  5
47A
  8
0
 10
10.65970096058091
 20
2.531614385892114
 30
0.0
  0
VERTEX
  5
47B
  8
0
 10
10.83302696058091
 20
2.495929385892113
 30
0.0
  0
VERTEX
  5
47C
  8
0
 10
10.99959896058092
 20
2.423894385892114
 30
0.0
  0
VERTEX
  5
47D
  8
0
 10
11.15304196058091
 20
2.318303385892113
 30
0.0
  0
VERTEX
  5
47E
  8
0
 10
11.28741396058092
 20
2.183212385892114
 30
0.0
  0
VERTEX
  5
47F
  8
0
 10
11.39758896058092
 20
2.023815385892112
 30
0.0
  0
VERTEX
  5
480
  8
0
 10
11.47930896058092
 20
1.846216385892111
 30
0.0
  0
VERTEX
  5
481
  8
0
 10
11.52945296058092
 20
1.657265385892112
 30
0.0
  0
VERTEX
  5
482
  8
0
 10
11.54606796058092
 20
1.464204385892112
 30
0.0
  0
VERTEX
  5
483
  8
0
 10
11.52854396058092
 20
1.274465385892112
 30
0.0
  0
VERTEX
  5
484
  8
0
 10
11.47753196058092
 20
1.095334385892114
 30
0.0
  0
VERTEX
  5
485
  8
0
 10
11.39502596058092
 20
0.9336993858921137
 30
0.0
  0
VERTEX
  5
486
  8
0
 10
11.28415896058092
 20
0.7957733858921134
 30
0.0
  0
VERTEX
  5
487
  8
0
 10
11.14920296058092
 20
0.6868323858921119
 30
0.0
  0
VERTEX
  5
488
  8
0
 10
10.99533996058091
 20
0.6111083858921145
 30
0.0
  0
VERTEX
  5
489
  8
0
 10
10.82851096058091
 20
0.5714763858921135
 30
0.0
  0
VERTEX
  5
48A
  8
0
 10
10.65508996058091
 20
0.5694683858921135
 30
0.0
  0
VERTEX
  5
48B
  8
0
 10
10.48174996058091
 20
0.6051533858921143
 30
0.0
  0
VERTEX
  5
48C
  8
0
 10
10.31519096058091
 20
0.6771893858921114
 30
0.0
  0
VERTEX
  5
48D
  8
0
 10
10.16174896058091
 20
0.7827793858921144
 30
0.0
  0
VERTEX
  5
48E
  8
0
 10
10.02736296058091
 20
0.9178713858921146
 30
0.0
  0
VERTEX
  5
48F
  8
0
 10
9.917200960580907
 20
1.077281385892112
 30
0.0
  0
VERTEX
  5
490
  8
0
 10
9.835481960580907
 20
1.254866385892113
 30
0.0
  0
VERTEX
  5
491
  8
0
 10
7.223120960580902
 20
0.7753873858921114
 30
0.0
  0
SEQEND
  5
6AD
  8
0
  0
POLYLINE
  5
77
  8
0
 66
     1
 10
0.0
 20
0.0
 30
0.0
 70
     1
  0
VERTEX
  5
492
  8
0
 10
7.2887749605809
 20
6.776075087136926
 30
0.0
  0
VERTEX
  5
493
  8
0
 10
7.2874859605809
 20
6.801594087136925
 30
0.0
  0
VERTEX
  5
494
  8
0
 10
7.283703960580903
 20
6.826376087136927
 30
0.0
  0
VERTEX
  5
495
  8
0
 10
7.277553960580901
 20
6.850295087136926
 30
0.0
  0
VERTEX
  5
496
  8
0
 10
7.269160960580903
 20
6.873227087136927
 30
0.0
  0
VERTEX
  5
497
  8
0
 10
7.258650960580903
 20
6.895045087136927
 30
0.0
  0
VERTEX
  5
498
  8
0
 10
7.246148960580902
 20
6.915624087136925
 30
0.0
  0
VERTEX
  5
499
  8
0
 10
7.231780960580901
 20
6.934838087136926
 30
0.0
  0
VERTEX
  5
49A
  8
0
 10
7.215671960580901
 20
6.952563087136925
 30
0.0
  0
VERTEX
  5
49B
  8
0
 10
7.197947960580903
 20
6.968672087136925
 30
0.0
  0
VERTEX
  5
49C
  8
0
 10
7.1787329605809
 20
6.983041087136927
 30
0.0
  0
VERTEX
  5
49D
  8
0
 10
7.158153960580902
 20
6.995543087136925
 30
0.0
  0
VERTEX
  5
49E
  8
0
 10
7.136335960580903
 20
7.006053087136925
 30
0.0
  0
VERTEX
  5
49F
  8
0
 10
7.113404960580903
 20
7.014446087136927
 30
0.0
  0
VERTEX
  5
4A0
  8
0
 10
7.089484960580902
 20
7.020597087136926
 30
0.0
  0
VERTEX
  5
4A1
  8
0
 10
7.064701960580903
 20
7.024379087136927
 30
0.0
  0
VERTEX
  5
4A2
  8
0
 10
7.039180960580902
 20
7.025668087136927
 30
0.0
  0
VERTEX
  5
4A3
  8
0
 10
7.013661960580903
 20
7.024379087136927
 30
0.0
  0
VERTEX
  5
4A4
  8
0
 10
6.988879960580901
 20
7.020597087136926
 30
0.0
  0
VERTEX
  5
4A5
  8
0
 10
6.964960960580902
 20
7.014446087136927
 30
0.0
  0
VERTEX
  5
4A6
  8
0
 10
6.942028960580901
 20
7.006053087136925
 30
0.0
  0
VERTEX
  5
4A7
  8
0
 10
6.920210960580901
 20
6.995543087136925
 30
0.0
  0
VERTEX
  5
4A8
  8
0
 10
6.899631960580903
 20
6.983041087136927
 30
0.0
  0
VERTEX
  5
4A9
  8
0
 10
6.880417960580901
 20
6.968672087136925
 30
0.0
  0
VERTEX
  5
4AA
  8
0
 10
6.862692960580903
 20
6.952563087136925
 30
0.0
  0
VERTEX
  5
4AB
  8
0
 10
6.846583960580903
 20
6.934838087136926
 30
0.0
  0
VERTEX
  5
4AC
  8
0
 10
6.832214960580901
 20
6.915624087136925
 30
0.0
  0
VERTEX
  5
4AD
  8
0
 10
6.819712960580903
 20
6.895045087136927
 30
0.0
  0
VERTEX
  5
4AE
  8
0
 10
6.809202960580903
 20
6.873227087136927
 30
0.0
  0
VERTEX
  5
4AF
  8
0
 10
6.800809960580901
 20
6.850295087136926
 30
0.0
  0
VERTEX
  5
4B0
  8
0
 10
6.794658960580902
 20
6.826376087136927
 30
0.0
  0
VERTEX
  5
4B1
  8
0
 10
6.790876960580901
 20
6.801594087136925
 30
0.0
  0
VERTEX
  5
4B2
  8
0
 10
6.789587960580901
 20
6.776075087136926
 30
0.0
  0
VERTEX
  5
4B3
  8
0
 10
6.790876960580901
 20
6.750555087136926
 30
0.0
  0
VERTEX
  5
4B4
  8
0
 10
6.794658960580902
 20
6.725773087136927
 30
0.0
  0
VERTEX
  5
4B5
  8
0
 10
6.800809960580901
 20
6.701854087136924
 30
0.0
  0
VERTEX
  5
4B6
  8
0
 10
6.809202960580903
 20
6.678922087136927
 30
0.0
  0
VERTEX
  5
4B7
  8
0
 10
6.819712960580903
 20
6.657104087136927
 30
0.0
  0
VERTEX
  5
4B8
  8
0
 10
6.832214960580901
 20
6.636525087136926
 30
0.0
  0
VERTEX
  5
4B9
  8
0
 10
6.846583960580903
 20
6.617311087136924
 30
0.0
  0
VERTEX
  5
4BA
  8
0
 10
6.862692960580903
 20
6.599586087136926
 30
0.0
  0
VERTEX
  5
4BB
  8
0
 10
6.880417960580901
 20
6.583477087136925
 30
0.0
  0
VERTEX
  5
4BC
  8
0
 10
6.899631960580903
 20
6.569108087136927
 30
0.0
  0
VERTEX
  5
4BD
  8
0
 10
6.920210960580901
 20
6.556606087136926
 30
0.0
  0
VERTEX
  5
4BE
  8
0
 10
6.942028960580901
 20
6.546096087136926
 30
0.0
  0
VERTEX
  5
4BF
  8
0
 10
6.964960960580902
 20
6.537703087136927
 30
0.0
  0
VERTEX
  5
4C0
  8
0
 10
6.988879960580901
 20
6.531552087136925
 30
0.0
  0
VERTEX
  5
4C1
  8
0
 10
7.013661960580903
 20
6.527770087136927
 30
0.0
  0
VERTEX
  5
4C2
  8
0
 10
7.039180960580902
 20
6.526481087136927
 30
0.0
  0
VERTEX
  5
4C3
  8
0
 10
7.064701960580903
 20
6.527770087136927
 30
0.0
  0
VERTEX
  5
4C4
  8
0
 10
7.089484960580902
 20
6.531552087136925
 30
0.0
  0
VERTEX
  5
4C5
  8
0
 10
7.113404960580903
 20
6.537703087136927
 30
0.0
  0
VERTEX
  5
4C6
  8
0
 10
7.136335960580903
 20
6.546096087136926
 30
0.0
  0
VERTEX
  5
4C7
  8
0
 10
7.158153960580902
 20
6.556606087136926
 30
0.0
  0
VERTEX
  5
4C8
  8
0
 10
7.1787329605809
 20
6.569108087136927
 30
0.0
  0
VERTEX
  5
4C9
  8
0
 10
7.197947960580903
 20
6.583477087136925
 30
0.0
  0
VERTEX
  5
4CA
  8
0
 10
7.215671960580901
 20
6.599586087136926
 30
0.0
  0
VERTEX
  5
4CB
  8
0
 10
7.231780960580901
 20
6.617311087136924
 30
0.0
  0
VERTEX
  5
4CC
  8
0
 10
7.246148960580902
 20
6.636525087136926
 30
0.0
  0
VERTEX
  5
4CD
  8
0
 10
7.258650960580903
 20
6.657104087136927
 30
0.0
  0
VERTEX
  5
4CE
  8
0
 10
7.269160960580903
 20
6.678922087136927
 30
0.0
  0
VERTEX
  5
4CF
  8
0
 10
7.277553960580901
 20
6.701854087136924
 30
0.0
  0
VERTEX
  5
4D0
  8
0
 10
7.283703960580903
 20
6.725773087136927
 30
0.0
  0
VERTEX
  5
4D1
  8
0
 10
7.2874859605809
 20
6.750555087136926
 30
0.0
  0
SEQEND
  5
6AE
  8
0
  0
POLYLINE
  5
78
  8
0
 66
     1
 10
0.0
 20
0.0
 30
0.0
 70
     1
  0
VERTEX
  5
4D2
  8
0
 10
7.840240960580902
 20
7.885355087136928
 30
0.0
  0
VERTEX
  5
4D3
  8
0
 10
7.334421960580903
 20
5.696050087136927
 30
0.0
  0
VERTEX
  5
4D4
  8
0
 10
9.915830960580905
 20
6.969488087136925
 30
0.0
  0
VERTEX
  5
4D5
  8
0
 10
9.704242960580906
 20
7.885355087136928
 30
0.0
  0
SEQEND
  5
6AF
  8
0
  0
POLYLINE
  5
79
  8
0
 66
     1
 10
0.0
 20
0.0
 30
0.0
 70
     1
  0
VERTEX
  5
4D6
  8
0
 10
10.54746396058091
 20
7.315843087136924
 30
0.0
  0
VERTEX
  5
4D7
  8
0
 10
10.71065896058091
 20
7.351596087136928
 30
0.0
  0
VERTEX
  5
4D8
  8
0
 10
10.87674196058092
 20
7.358622087136927
 30
0.0
  0
VERTEX
  5
4D9
  8
0
 10
11.04180896058091
 20
7.336771087136926
 30
0.0
  0
VERTEX
  5
4DA
  8
0
 10
11.20205996058092
 20
7.286532087136925
 30
0.0
  0
VERTEX
  5
4DB
  8
0
 10
11.17327796058092
 20
7.423861087136926
 30
0.0
  0
VERTEX
  5
4DC
  8
0
 10
11.06642596058091
 20
7.540344087136925
 30
0.0
  0
VERTEX
  5
4DD
  8
0
 10
10.94390796058092
 20
7.634596087136925
 30
0.0
  0
VERTEX
  5
4DE
  8
0
 10
10.80927796058091
 20
7.703891087136926
 30
0.0
  0
VERTEX
  5
4DF
  8
0
 10
10.66633396058091
 20
7.746290087136925
 30
0.0
  0
VERTEX
  5
4E0
  8
0
 10
10.51919796058091
 20
7.760559087136928
 30
0.0
  0
VERTEX
  5
4E1
  8
0
 10
9.645702960580902
 20
7.760559087136928
 30
0.0
  0
VERTEX
  5
4E2
  8
0
 10
9.577424960580903
 20
7.712531087136925
 30
0.0
  0
VERTEX
  5
4E3
  8
0
 10
9.502595960580905
 20
7.679585087136926
 30
0.0
  0
VERTEX
  5
4E4
  8
0
 10
9.423764960580904
 20
7.662821087136924
 30
0.0
  0
VERTEX
  5
4E5
  8
0
 10
9.343591960580902
 20
7.662821087136924
 30
0.0
  0
VERTEX
  5
4E6
  8
0
 10
9.264747960580902
 20
7.679585087136926
 30
0.0
  0
VERTEX
  5
4E7
  8
0
 10
9.189918960580904
 20
7.712531087136925
 30
0.0
  0
VERTEX
  5
4E8
  8
0
 10
9.121627960580899
 20
7.760559087136928
 30
0.0
  0
VERTEX
  5
4E9
  8
0
 10
9.0342799605809
 20
7.760559087136928
 30
0.0
  0
VERTEX
  5
4EA
  8
0
 10
8.9659879605809
 20
7.712531087136925
 30
0.0
  0
VERTEX
  5
4EB
  8
0
 10
8.8911589605809
 20
7.679585087136926
 30
0.0
  0
VERTEX
  5
4EC
  8
0
 10
8.812327960580902
 20
7.662821087136924
 30
0.0
  0
VERTEX
  5
4ED
  8
0
 10
8.7321419605809
 20
7.662821087136924
 30
0.0
  0
VERTEX
  5
4EE
  8
0
 10
8.6532979605809
 20
7.679585087136926
 30
0.0
  0
VERTEX
  5
4EF
  8
0
 10
8.578481960580902
 20
7.712531087136925
 30
0.0
  0
VERTEX
  5
4F0
  8
0
 10
8.5101909605809
 20
7.760559087136928
 30
0.0
  0
VERTEX
  5
4F1
  8
0
 10
8.4228489605809
 20
7.760559087136928
 30
0.0
  0
VERTEX
  5
4F2
  8
0
 10
8.354543960580902
 20
7.712531087136925
 30
0.0
  0
VERTEX
  5
4F3
  8
0
 10
8.279721960580904
 20
7.679585087136926
 30
0.0
  0
VERTEX
  5
4F4
  8
0
 10
8.2008909605809
 20
7.662821087136924
 30
0.0
  0
VERTEX
  5
4F5
  8
0
 10
8.120704960580902
 20
7.662821087136924
 30
0.0
  0
VERTEX
  5
4F6
  8
0
 10
8.041873960580904
 20
7.679585087136926
 30
0.0
  0
VERTEX
  5
4F7
  8
0
 10
7.967044960580902
 20
7.712531087136925
 30
0.0
  0
VERTEX
  5
4F8
  8
0
 10
7.898753960580904
 20
7.760559087136928
 30
0.0
  0
VERTEX
  5
4F9
  8
0
 10
7.0252719605809
 20
7.760559087136928
 30
0.0
  0
VERTEX
  5
4FA
  8
0
 10
6.8548619605809
 20
7.741380087136926
 30
0.0
  0
VERTEX
  5
4FB
  8
0
 10
6.691002960580901
 20
7.684563087136928
 30
0.0
  0
VERTEX
  5
4FC
  8
0
 10
6.5399879605809
 20
7.592305087136927
 30
0.0
  0
VERTEX
  5
4FD
  8
0
 10
6.4076299605809
 20
7.468146087136924
 30
0.0
  0
VERTEX
  5
4FE
  8
0
 10
6.299000960580903
 20
7.316846087136925
 30
0.0
  0
VERTEX
  5
4FF
  8
0
 10
6.218284960580901
 20
7.144239087136926
 30
0.0
  0
VERTEX
  5
500
  8
0
 10
6.1685749605809
 20
6.956956087136925
 30
0.0
  0
VERTEX
  5
501
  8
0
 10
6.151790960580902
 20
6.762186087136927
 30
0.0
  0
VERTEX
  5
502
  8
0
 10
6.1685749605809
 20
6.567416087136925
 30
0.0
  0
VERTEX
  5
503
  8
0
 10
6.218284960580901
 20
6.380132087136927
 30
0.0
  0
VERTEX
  5
504
  8
0
 10
6.299000960580903
 20
6.207525087136927
 30
0.0
  0
VERTEX
  5
505
  8
0
 10
6.4076299605809
 20
6.056225087136925
 30
0.0
  0
VERTEX
  5
506
  8
0
 10
6.5399879605809
 20
5.932066087136926
 30
0.0
  0
VERTEX
  5
507
  8
0
 10
6.691002960580901
 20
5.839808087136925
 30
0.0
  0
VERTEX
  5
508
  8
0
 10
6.8548619605809
 20
5.782991087136926
 30
0.0
  0
VERTEX
  5
509
  8
0
 10
7.0252719605809
 20
5.763813087136926
 30
0.0
  0
VERTEX
  5
50A
  8
0
 10
7.195681960580901
 20
5.782991087136926
 30
0.0
  0
VERTEX
  5
50B
  8
0
 10
7.3595349605809
 20
5.839808087136925
 30
0.0
  0
VERTEX
  5
50C
  8
0
 10
7.5105489605809
 20
5.932066087136926
 30
0.0
  0
VERTEX
  5
50D
  8
0
 10
7.6429139605809
 20
6.056225087136925
 30
0.0
  0
VERTEX
  5
50E
  8
0
 10
7.751549960580902
 20
6.207525087136927
 30
0.0
  0
VERTEX
  5
50F
  8
0
 10
7.832265960580901
 20
6.380132087136927
 30
0.0
  0
VERTEX
  5
510
  8
0
 10
7.881968960580902
 20
6.567416087136925
 30
0.0
  0
VERTEX
  5
511
  8
0
 10
7.898753960580904
 20
6.762186087136927
 30
0.0
  0
VERTEX
  5
512
  8
0
 10
10.51919796058091
 20
7.195305087136925
 30
0.0
  0
SEQEND
  5
6B0
  8
0
  0
POLYLINE
  5
7A
  8
0
 66
     1
 10
0.0
 20
0.0
 30
0.0
 70
     1
  0
VERTEX
  5
513
  8
0
 10
10.40474996058091
 20
5.399609087136925
 30
0.0
  0
VERTEX
  5
514
  8
0
 10
10.39732496058091
 20
5.424057087136925
 30
0.0
  0
VERTEX
  5
515
  8
0
 10
10.39249496058091
 20
5.448657087136928
 30
0.0
  0
VERTEX
  5
516
  8
0
 10
10.39018596058091
 20
5.473246087136927
 30
0.0
  0
VERTEX
  5
517
  8
0
 10
10.39032096058091
 20
5.497664087136927
 30
0.0
  0
VERTEX
  5
518
  8
0
 10
10.39282496058091
 20
5.521751087136925
 30
0.0
  0
VERTEX
  5
519
  8
0
 10
10.39762296058091
 20
5.545347087136927
 30
0.0
  0
VERTEX
  5
51A
  8
0
 10
10.40463896058091
 20
5.568291087136926
 30
0.0
  0
VERTEX
  5
51B
  8
0
 10
10.41379696058091
 20
5.590422087136927
 30
0.0
  0
VERTEX
  5
51C
  8
0
 10
10.42502196058091
 20
5.611580087136927
 30
0.0
  0
VERTEX
  5
51D
  8
0
 10
10.43823896058091
 20
5.631604087136926
 30
0.0
  0
VERTEX
  5
51E
  8
0
 10
10.45337096058091
 20
5.650335087136925
 30
0.0
  0
VERTEX
  5
51F
  8
0
 10
10.47034396058091
 20
5.667611087136924
 30
0.0
  0
VERTEX
  5
520
  8
0
 10
10.48908196058091
 20
5.683271087136925
 30
0.0
  0
VERTEX
  5
521
  8
0
 10
10.50950796058091
 20
5.697157087136928
 30
0.0
  0
VERTEX
  5
522
  8
0
 10
10.53154896058091
 20
5.709106087136925
 30
0.0
  0
VERTEX
  5
523
  8
0
 10
10.55512696058091
 20
5.718958087136928
 30
0.0
  0
VERTEX
  5
524
  8
0
 10
10.57957396058091
 20
5.726384087136926
 30
0.0
  0
VERTEX
  5
525
  8
0
 10
10.60417096058091
 20
5.731213087136927
 30
0.0
  0
VERTEX
  5
526
  8
0
 10
10.62875896058091
 20
5.733522087136928
 30
0.0
  0
VERTEX
  5
527
  8
0
 10
10.65317696058091
 20
5.733386087136926
 30
0.0
  0
VERTEX
  5
528
  8
0
 10
10.67726296058092
 20
5.730881087136927
 30
0.0
  0
VERTEX
  5
529
  8
0
 10
10.70085896058091
 20
5.726082087136925
 30
0.0
  0
VERTEX
  5
52A
  8
0
 10
10.72380296058092
 20
5.719066087136925
 30
0.0
  0
VERTEX
  5
52B
  8
0
 10
10.74593396058091
 20
5.709907087136925
 30
0.0
  0
VERTEX
  5
52C
  8
0
 10
10.76709196058091
 20
5.698681087136928
 30
0.0
  0
VERTEX
  5
52D
  8
0
 10
10.78711596058091
 20
5.685464087136927
 30
0.0
  0
VERTEX
  5
52E
  8
0
 10
10.80584596058091
 20
5.670331087136924
 30
0.0
  0
VERTEX
  5
52F
  8
0
 10
10.82312196058091
 20
5.653359087136925
 30
0.0
  0
VERTEX
  5
530
  8
0
 10
10.83878196058091
 20
5.634622087136927
 30
0.0
  0
VERTEX
  5
531
  8
0
 10
10.85266596058091
 20
5.614197087136928
 30
0.0
  0
VERTEX
  5
532
  8
0
 10
10.86461296058091
 20
5.592158087136925
 30
0.0
  0
VERTEX
  5
533
  8
0
 10
10.87446396058091
 20
5.568581087136925
 30
0.0
  0
VERTEX
  5
534
  8
0
 10
10.88189096058091
 20
5.544132087136925
 30
0.0
  0
VERTEX
  5
535
  8
0
 10
10.88672196058091
 20
5.519533087136926
 30
0.0
  0
VERTEX
  5
536
  8
0
 10
10.88903196058092
 20
5.494943087136926
 30
0.0
  0
VERTEX
  5
537
  8
0
 10
10.88889696058092
 20
5.470524087136925
 30
0.0
  0
VERTEX
  5
538
  8
0
 10
10.88639196058091
 20
5.446436087136926
 30
0.0
  0
VERTEX
  5
539
  8
0
 10
10.88159396058091
 20
5.422840087136928
 30
0.0
  0
VERTEX
  5
53A
  8
0
 10
10.87457696058091
 20
5.399895087136928
 30
0.0
  0
VERTEX
  5
53B
  8
0
 10
10.86541896058091
 20
5.377763087136925
 30
0.0
  0
VERTEX
  5
53C
  8
0
 10
10.85419296058091
 20
5.356605087136925
 30
0.0
  0
VERTEX
  5
53D
  8
0
 10
10.84097596058091
 20
5.336580087136925
 30
0.0
  0
VERTEX
  5
53E
  8
0
 10
10.82584396058092
 20
5.317849087136926
 30
0.0
  0
VERTEX
  5
53F
  8
0
 10
10.80887196058091
 20
5.300574087136924
 30
0.0
  0
VERTEX
  5
540
  8
0
 10
10.79013596058092
 20
5.284914087136928
 30
0.0
  0
VERTEX
  5
541
  8
0
 10
10.76971096058091
 20
5.271030087136927
 30
0.0
  0
VERTEX
  5
542
  8
0
 10
10.74767396058092
 20
5.259082087136926
 30
0.0
  0
VERTEX
  5
543
  8
0
 10
10.72409996058092
 20
5.249232087136926
 30
0.0
  0
VERTEX
  5
544
  8
0
 10
10.69964896058091
 20
5.241806087136927
 30
0.0
  0
VERTEX
  5
545
  8
0
 10
10.67504796058092
 20
5.236977087136927
 30
0.0
  0
VERTEX
  5
546
  8
0
 10
10.65045696058091
 20
5.234668087136926
 30
0.0
  0
VERTEX
  5
547
  8
0
 10
10.62603696058091
 20
5.234804087136927
 30
0.0
  0
VERTEX
  5
548
  8
0
 10
10.60194896058091
 20
5.237309087136927
 30
0.0
  0
VERTEX
  5
549
  8
0
 10
10.57835196058091
 20
5.242108087136925
 30
0.0
  0
VERTEX
  5
54A
  8
0
 10
10.55540796058091
 20
5.249124087136925
 30
0.0
  0
VERTEX
  5
54B
  8
0
 10
10.53327696058091
 20
5.258283087136926
 30
0.0
  0
VERTEX
  5
54C
  8
0
 10
10.51211896058091
 20
5.269509087136926
 30
0.0
  0
VERTEX
  5
54D
  8
0
 10
10.49209496058091
 20
5.282726087136927
 30
0.0
  0
VERTEX
  5
54E
  8
0
 10
10.47336496058091
 20
5.297859087136926
 30
0.0
  0
VERTEX
  5
54F
  8
0
 10
10.45609096058091
 20
5.314831087136925
 30
0.0
  0
VERTEX
  5
550
  8
0
 10
10.44043096058091
 20
5.333568087136927
 30
0.0
  0
VERTEX
  5
551
  8
0
 10
10.42654796058091
 20
5.353994087136927
 30
0.0
  0
VERTEX
  5
552
  8
0
 10
10.41460096058091
 20
5.376032087136926
 30
0.0
  0
SEQEND
  5
6B1
  8
0
  0
POLYLINE
  5
7B
  8
0
 66
     1
 10
0.0
 20
0.0
 30
0.0
 70
     1
  0
VERTEX
  5
553
  8
0
 10
9.510340960580905
 20
6.256733087136928
 30
0.0
  0
VERTEX
  5
554
  8
0
 10
10.72738196058091
 20
4.367883087136926
 30
0.0
  0
VERTEX
  5
555
  8
0
 10
7.867306960580904
 20
4.692333087136925
 30
0.0
  0
VERTEX
  5
556
  8
0
 10
7.756378960580903
 20
5.625765087136925
 30
0.0
  0
SEQEND
  5
6B2
  8
0
  0
POLYLINE
  5
7C
  8
0
 66
     1
 10
0.0
 20
0.0
 30
0.0
 70
     1
  0
VERTEX
  5
557
  8
0
 10
7.155717960580903
 20
4.804434087136928
 30
0.0
  0
VERTEX
  5
558
  8
0
 10
6.990054960580901
 20
4.782841087136925
 30
0.0
  0
VERTEX
  5
559
  8
0
 10
6.831396960580902
 20
4.733226087136925
 30
0.0
  0
VERTEX
  5
55A
  8
0
 10
6.683474960580901
 20
4.656797087136924
 30
0.0
  0
VERTEX
  5
55B
  8
0
 10
6.5496859605809
 20
4.555275087136925
 30
0.0
  0
VERTEX
  5
55C
  8
0
 10
6.5302829605809
 20
4.694232087136927
 30
0.0
  0
VERTEX
  5
55D
  8
0
 10
6.591399960580903
 20
4.840011087136928
 30
0.0
  0
VERTEX
  5
55E
  8
0
 10
6.674780960580902
 20
4.970179087136925
 30
0.0
  0
VERTEX
  5
55F
  8
0
 10
6.778004960580903
 20
5.080951087136926
 30
0.0
  0
VERTEX
  5
560
  8
0
 10
6.898155960580903
 20
5.169235087136927
 30
0.0
  0
VERTEX
  5
561
  8
0
 10
7.0317829605809
 20
5.232467087136927
 30
0.0
  0
VERTEX
  5
562
  8
0
 10
7.853709960580903
 20
5.528149087136926
 30
0.0
  0
VERTEX
  5
563
  8
0
 10
7.934214960580902
 20
5.506068087136926
 30
0.0
  0
VERTEX
  5
564
  8
0
 10
8.015777960580902
 20
5.500398087136928
 30
0.0
  0
VERTEX
  5
565
  8
0
 10
8.095625960580904
 20
5.511303087136925
 30
0.0
  0
VERTEX
  5
566
  8
0
 10
8.1710659605809
 20
5.538443087136924
 30
0.0
  0
VERTEX
  5
567
  8
0
 10
8.239580960580899
 20
5.580910087136926
 30
0.0
  0
VERTEX
  5
568
  8
0
 10
8.298845960580902
 20
5.637239087136924
 30
0.0
  0
VERTEX
  5
569
  8
0
 10
8.346846960580905
 20
5.705544087136927
 30
0.0
  0
VERTEX
  5
56A
  8
0
 10
8.429033960580899
 20
5.735112087136924
 30
0.0
  0
VERTEX
  5
56B
  8
0
 10
8.509552960580901
 20
5.713045087136924
 30
0.0
  0
VERTEX
  5
56C
  8
0
 10
8.591116960580905
 20
5.707362087136927
 30
0.0
  0
VERTEX
  5
56D
  8
0
 10
8.670970960580899
 20
5.718280087136927
 30
0.0
  0
VERTEX
  5
56E
  8
0
 10
8.746423960580898
 20
5.745421087136927
 30
0.0
  0
VERTEX
  5
56F
  8
0
 10
8.814938960580903
 20
5.787888087136926
 30
0.0
  0
VERTEX
  5
570
  8
0
 10
8.874183960580904
 20
5.844216087136926
 30
0.0
  0
VERTEX
  5
571
  8
0
 10
8.9221849605809
 20
5.912521087136925
 30
0.0
  0
VERTEX
  5
572
  8
0
 10
9.004365960580898
 20
5.942076087136927
 30
0.0
  0
VERTEX
  5
573
  8
0
 10
9.0848979605809
 20
5.920008087136926
 30
0.0
  0
VERTEX
  5
574
  8
0
 10
9.166454960580904
 20
5.914339087136925
 30
0.0
  0
VERTEX
  5
575
  8
0
 10
9.246315960580905
 20
5.925257087136925
 30
0.0
  0
VERTEX
  5
576
  8
0
 10
9.321754960580904
 20
5.952398087136926
 30
0.0
  0
VERTEX
  5
577
  8
0
 10
9.390263960580903
 20
5.994851087136928
 30
0.0
  0
VERTEX
  5
578
  8
0
 10
9.449521960580903
 20
6.051180087136926
 30
0.0
  0
VERTEX
  5
579
  8
0
 10
9.497522960580902
 20
6.119499087136925
 30
0.0
  0
VERTEX
  5
57A
  8
0
 10
10.31944996058091
 20
6.415167087136927
 30
0.0
  0
VERTEX
  5
57B
  8
0
 10
10.48627996058091
 20
6.454812087136927
 30
0.0
  0
VERTEX
  5
57C
  8
0
 10
10.65970096058091
 20
6.456806087136927
 30
0.0
  0
VERTEX
  5
57D
  8
0
 10
10.83302696058091
 20
6.421121087136926
 30
0.0
  0
VERTEX
  5
57E
  8
0
 10
10.99959896058092
 20
6.349086087136927
 30
0.0
  0
VERTEX
  5
57F
  8
0
 10
11.15304196058091
 20
6.243495087136926
 30
0.0
  0
VERTEX
  5
580
  8
0
 10
11.28741396058092
 20
6.108404087136927
 30
0.0
  0
VERTEX
  5
581
  8
0
 10
11.39758896058092
 20
5.949007087136925
 30
0.0
  0
VERTEX
  5
582
  8
0
 10
11.47930896058092
 20
5.771408087136924
 30
0.0
  0
VERTEX
  5
583
  8
0
 10
11.52945296058092
 20
5.582457087136925
 30
0.0
  0
VERTEX
  5
584
  8
0
 10
11.54606796058092
 20
5.389396087136925
 30
0.0
  0
VERTEX
  5
585
  8
0
 10
11.52854396058092
 20
5.199657087136925
 30
0.0
  0
VERTEX
  5
586
  8
0
 10
11.47753196058092
 20
5.020526087136927
 30
0.0
  0
VERTEX
  5
587
  8
0
 10
11.39502596058092
 20
4.858891087136927
 30
0.0
  0
VERTEX
  5
588
  8
0
 10
11.28415896058092
 20
4.720965087136927
 30
0.0
  0
VERTEX
  5
589
  8
0
 10
11.14920296058092
 20
4.612024087136925
 30
0.0
  0
VERTEX
  5
58A
  8
0
 10
10.99533996058091
 20
4.536300087136928
 30
0.0
  0
VERTEX
  5
58B
  8
0
 10
10.82851096058091
 20
4.496668087136927
 30
0.0
  0
VERTEX
  5
58C
  8
0
 10
10.65508996058091
 20
4.494660087136927
 30
0.0
  0
VERTEX
  5
58D
  8
0
 10
10.48174996058091
 20
4.530345087136928
 30
0.0
  0
VERTEX
  5
58E
  8
0
 10
10.31519096058091
 20
4.602381087136925
 30
0.0
  0
VERTEX
  5
58F
  8
0
 10
10.16174896058091
 20
4.707971087136928
 30
0.0
  0
VERTEX
  5
590
  8
0
 10
10.02736296058091
 20
4.843063087136928
 30
0.0
  0
VERTEX
  5
591
  8
0
 10
9.917200960580907
 20
5.002473087136925
 30
0.0
  0
VERTEX
  5
592
  8
0
 10
9.835481960580907
 20
5.180058087136926
 30
0.0
  0
VERTEX
  5
593
  8
0
 10
7.223120960580902
 20
4.700579087136925
 30
0.0
  0
SEQEND
  5
6B3
  8
0
  0
POLYLINE
  5
7D
  8
0
 66
     1
 10
0.0
 20
0.0
 30
0.0
 70
     1
  0
VERTEX
  5
594
  8
0
 10
7.2887749605809
 20
10.44802861410787
 30
0.0
  0
VERTEX
  5
595
  8
0
 10
7.2874859605809
 20
10.47354761410788
 30
0.0
  0
VERTEX
  5
596
  8
0
 10
7.283703960580903
 20
10.49832961410788
 30
0.0
  0
VERTEX
  5
597
  8
0
 10
7.277553960580901
 20
10.52224861410788
 30
0.0
  0
VERTEX
  5
598
  8
0
 10
7.269160960580903
 20
10.54518061410788
 30
0.0
  0
VERTEX
  5
599
  8
0
 10
7.258650960580903
 20
10.56699861410788
 30
0.0
  0
VERTEX
  5
59A
  8
0
 10
7.246148960580902
 20
10.58757761410788
 30
0.0
  0
VERTEX
  5
59B
  8
0
 10
7.231780960580901
 20
10.60679161410788
 30
0.0
  0
VERTEX
  5
59C
  8
0
 10
7.215671960580901
 20
10.62451661410787
 30
0.0
  0
VERTEX
  5
59D
  8
0
 10
7.197947960580903
 20
10.64062561410787
 30
0.0
  0
VERTEX
  5
59E
  8
0
 10
7.1787329605809
 20
10.65499461410788
 30
0.0
  0
VERTEX
  5
59F
  8
0
 10
7.158153960580902
 20
10.66749661410787
 30
0.0
  0
VERTEX
  5
5A0
  8
0
 10
7.136335960580903
 20
10.67800661410788
 30
0.0
  0
VERTEX
  5
5A1
  8
0
 10
7.113404960580903
 20
10.68639961410788
 30
0.0
  0
VERTEX
  5
5A2
  8
0
 10
7.089484960580902
 20
10.69255061410788
 30
0.0
  0
VERTEX
  5
5A3
  8
0
 10
7.064701960580903
 20
10.69633261410788
 30
0.0
  0
VERTEX
  5
5A4
  8
0
 10
7.039180960580902
 20
10.69762161410788
 30
0.0
  0
VERTEX
  5
5A5
  8
0
 10
7.013661960580903
 20
10.69633261410788
 30
0.0
  0
VERTEX
  5
5A6
  8
0
 10
6.988879960580901
 20
10.69255061410788
 30
0.0
  0
VERTEX
  5
5A7
  8
0
 10
6.964960960580902
 20
10.68639961410788
 30
0.0
  0
VERTEX
  5
5A8
  8
0
 10
6.942028960580901
 20
10.67800661410788
 30
0.0
  0
VERTEX
  5
5A9
  8
0
 10
6.920210960580901
 20
10.66749661410787
 30
0.0
  0
VERTEX
  5
5AA
  8
0
 10
6.899631960580903
 20
10.65499461410788
 30
0.0
  0
VERTEX
  5
5AB
  8
0
 10
6.880417960580901
 20
10.64062561410787
 30
0.0
  0
VERTEX
  5
5AC
  8
0
 10
6.862692960580903
 20
10.62451661410787
 30
0.0
  0
VERTEX
  5
5AD
  8
0
 10
6.846583960580903
 20
10.60679161410788
 30
0.0
  0
VERTEX
  5
5AE
  8
0
 10
6.832214960580901
 20
10.58757761410788
 30
0.0
  0
VERTEX
  5
5AF
  8
0
 10
6.819712960580903
 20
10.56699861410788
 30
0.0
  0
VERTEX
  5
5B0
  8
0
 10
6.809202960580903
 20
10.54518061410788
 30
0.0
  0
VERTEX
  5
5B1
  8
0
 10
6.800809960580901
 20
10.52224861410788
 30
0.0
  0
VERTEX
  5
5B2
  8
0
 10
6.794658960580902
 20
10.49832961410788
 30
0.0
  0
VERTEX
  5
5B3
  8
0
 10
6.790876960580901
 20
10.47354761410788
 30
0.0
  0
VERTEX
  5
5B4
  8
0
 10
6.789587960580901
 20
10.44802861410787
 30
0.0
  0
VERTEX
  5
5B5
  8
0
 10
6.790876960580901
 20
10.42250861410787
 30
0.0
  0
VERTEX
  5
5B6
  8
0
 10
6.794658960580902
 20
10.39772661410787
 30
0.0
  0
VERTEX
  5
5B7
  8
0
 10
6.800809960580901
 20
10.37380761410787
 30
0.0
  0
VERTEX
  5
5B8
  8
0
 10
6.809202960580903
 20
10.35087561410788
 30
0.0
  0
VERTEX
  5
5B9
  8
0
 10
6.819712960580903
 20
10.32905761410787
 30
0.0
  0
VERTEX
  5
5BA
  8
0
 10
6.832214960580901
 20
10.30847861410787
 30
0.0
  0
VERTEX
  5
5BB
  8
0
 10
6.846583960580903
 20
10.28926461410787
 30
0.0
  0
VERTEX
  5
5BC
  8
0
 10
6.862692960580903
 20
10.27153961410787
 30
0.0
  0
VERTEX
  5
5BD
  8
0
 10
6.880417960580901
 20
10.25543061410787
 30
0.0
  0
VERTEX
  5
5BE
  8
0
 10
6.899631960580903
 20
10.24106161410788
 30
0.0
  0
VERTEX
  5
5BF
  8
0
 10
6.920210960580901
 20
10.22855961410787
 30
0.0
  0
VERTEX
  5
5C0
  8
0
 10
6.942028960580901
 20
10.21804961410787
 30
0.0
  0
VERTEX
  5
5C1
  8
0
 10
6.964960960580902
 20
10.20965661410788
 30
0.0
  0
VERTEX
  5
5C2
  8
0
 10
6.988879960580901
 20
10.20350561410787
 30
0.0
  0
VERTEX
  5
5C3
  8
0
 10
7.013661960580903
 20
10.19972361410787
 30
0.0
  0
VERTEX
  5
5C4
  8
0
 10
7.039180960580902
 20
10.19843461410787
 30
0.0
  0
VERTEX
  5
5C5
  8
0
 10
7.064701960580903
 20
10.19972361410787
 30
0.0
  0
VERTEX
  5
5C6
  8
0
 10
7.089484960580902
 20
10.20350561410787
 30
0.0
  0
VERTEX
  5
5C7
  8
0
 10
7.113404960580903
 20
10.20965661410788
 30
0.0
  0
VERTEX
  5
5C8
  8
0
 10
7.136335960580903
 20
10.21804961410787
 30
0.0
  0
VERTEX
  5
5C9
  8
0
 10
7.158153960580902
 20
10.22855961410787
 30
0.0
  0
VERTEX
  5
5CA
  8
0
 10
7.1787329605809
 20
10.24106161410788
 30
0.0
  0
VERTEX
  5
5CB
  8
0
 10
7.197947960580903
 20
10.25543061410787
 30
0.0
  0
VERTEX
  5
5CC
  8
0
 10
7.215671960580901
 20
10.27153961410787
 30
0.0
  0
VERTEX
  5
5CD
  8
0
 10
7.231780960580901
 20
10.28926461410787
 30
0.0
  0
VERTEX
  5
5CE
  8
0
 10
7.246148960580902
 20
10.30847861410787
 30
0.0
  0
VERTEX
  5
5CF
  8
0
 10
7.258650960580903
 20
10.32905761410787
 30
0.0
  0
VERTEX
  5
5D0
  8
0
 10
7.269160960580903
 20
10.35087561410788
 30
0.0
  0
VERTEX
  5
5D1
  8
0
 10
7.277553960580901
 20
10.37380761410787
 30
0.0
  0
VERTEX
  5
5D2
  8
0
 10
7.283703960580903
 20
10.39772661410787
 30
0.0
  0
VERTEX
  5
5D3
  8
0
 10
7.2874859605809
 20
10.42250861410787
 30
0.0
  0
SEQEND
  5
6B4
  8
0
  0
POLYLINE
  5
7E
  8
0
 66
     1
 10
0.0
 20
0.0
 30
0.0
 70
     1
  0
VERTEX
  5
5D4
  8
0
 10
7.840240960580902
 20
11.55730861410789
 30
0.0
  0
VERTEX
  5
5D5
  8
0
 10
7.334421960580903
 20
9.368003614107872
 30
0.0
  0
VERTEX
  5
5D6
  8
0
 10
9.915830960580905
 20
10.64144161410787
 30
0.0
  0
VERTEX
  5
5D7
  8
0
 10
9.704242960580906
 20
11.55730861410789
 30
0.0
  0
SEQEND
  5
6B5
  8
0
  0
POLYLINE
  5
7F
  8
0
 66
     1
 10
0.0
 20
0.0
 30
0.0
 70
     1
  0
VERTEX
  5
5D8
  8
0
 10
10.54746396058091
 20
10.98779661410788
 30
0.0
  0
VERTEX
  5
5D9
  8
0
 10
10.71065896058091
 20
11.02354961410788
 30
0.0
  0
VERTEX
  5
5DA
  8
0
 10
10.87674196058092
 20
11.03057561410788
 30
0.0
  0
VERTEX
  5
5DB
  8
0
 10
11.04180896058091
 20
11.00872461410788
 30
0.0
  0
VERTEX
  5
5DC
  8
0
 10
11.20205996058092
 20
10.95848561410788
 30
0.0
  0
VERTEX
  5
5DD
  8
0
 10
11.17327796058092
 20
11.09581461410788
 30
0.0
  0
VERTEX
  5
5DE
  8
0
 10
11.06642596058091
 20
11.21229761410788
 30
0.0
  0
VERTEX
  5
5DF
  8
0
 10
10.94390796058092
 20
11.30654961410788
 30
0.0
  0
VERTEX
  5
5E0
  8
0
 10
10.80927796058091
 20
11.37584461410788
 30
0.0
  0
VERTEX
  5
5E1
  8
0
 10
10.66633396058091
 20
11.41824361410788
 30
0.0
  0
VERTEX
  5
5E2
  8
0
 10
10.51919796058091
 20
11.43251261410788
 30
0.0
  0
VERTEX
  5
5E3
  8
0
 10
9.645702960580902
 20
11.43251261410788
 30
0.0
  0
VERTEX
  5
5E4
  8
0
 10
9.577424960580903
 20
11.38448461410788
 30
0.0
  0
VERTEX
  5
5E5
  8
0
 10
9.502595960580905
 20
11.35153861410788
 30
0.0
  0
VERTEX
  5
5E6
  8
0
 10
9.423764960580904
 20
11.33477461410788
 30
0.0
  0
VERTEX
  5
5E7
  8
0
 10
9.343591960580902
 20
11.33477461410788
 30
0.0
  0
VERTEX
  5
5E8
  8
0
 10
9.264747960580902
 20
11.35153861410788
 30
0.0
  0
VERTEX
  5
5E9
  8
0
 10
9.189918960580904
 20
11.38448461410788
 30
0.0
  0
VERTEX
  5
5EA
  8
0
 10
9.121627960580899
 20
11.43251261410788
 30
0.0
  0
VERTEX
  5
5EB
  8
0
 10
9.0342799605809
 20
11.43251261410788
 30
0.0
  0
VERTEX
  5
5EC
  8
0
 10
8.9659879605809
 20
11.38448461410788
 30
0.0
  0
VERTEX
  5
5ED
  8
0
 10
8.8911589605809
 20
11.35153861410788
 30
0.0
  0
VERTEX
  5
5EE
  8
0
 10
8.812327960580902
 20
11.33477461410788
 30
0.0
  0
VERTEX
  5
5EF
  8
0
 10
8.7321419605809
 20
11.33477461410788
 30
0.0
  0
VERTEX
  5
5F0
  8
0
 10
8.6532979605809
 20
11.35153861410788
 30
0.0
  0
VERTEX
  5
5F1
  8
0
 10
8.578481960580902
 20
11.38448461410788
 30
0.0
  0
VERTEX
  5
5F2
  8
0
 10
8.5101909605809
 20
11.43251261410788
 30
0.0
  0
VERTEX
  5
5F3
  8
0
 10
8.4228489605809
 20
11.43251261410788
 30
0.0
  0
VERTEX
  5
5F4
  8
0
 10
8.354543960580902
 20
11.38448461410788
 30
0.0
  0
VERTEX
  5
5F5
  8
0
 10
8.279721960580904
 20
11.35153861410788
 30
0.0
  0
VERTEX
  5
5F6
  8
0
 10
8.2008909605809
 20
11.33477461410788
 30
0.0
  0
VERTEX
  5
5F7
  8
0
 10
8.120704960580902
 20
11.33477461410788
 30
0.0
  0
VERTEX
  5
5F8
  8
0
 10
8.041873960580904
 20
11.35153861410788
 30
0.0
  0
VERTEX
  5
5F9
  8
0
 10
7.967044960580902
 20
11.38448461410788
 30
0.0
  0
VERTEX
  5
5FA
  8
0
 10
7.898753960580904
 20
11.43251261410788
 30
0.0
  0
VERTEX
  5
5FB
  8
0
 10
7.0252719605809
 20
11.43251261410788
 30
0.0
  0
VERTEX
  5
5FC
  8
0
 10
6.8548619605809
 20
11.41333361410788
 30
0.0
  0
VERTEX
  5
5FD
  8
0
 10
6.691002960580901
 20
11.35651661410788
 30
0.0
  0
VERTEX
  5
5FE
  8
0
 10
6.5399879605809
 20
11.26425861410788
 30
0.0
  0
VERTEX
  5
5FF
  8
0
 10
6.4076299605809
 20
11.14009961410788
 30
0.0
  0
VERTEX
  5
600
  8
0
 10
6.299000960580903
 20
10.98879961410788
 30
0.0
  0
VERTEX
  5
601
  8
0
 10
6.218284960580901
 20
10.81619261410787
 30
0.0
  0
VERTEX
  5
602
  8
0
 10
6.1685749605809
 20
10.62890961410787
 30
0.0
  0
VERTEX
  5
603
  8
0
 10
6.151790960580902
 20
10.43413961410788
 30
0.0
  0
VERTEX
  5
604
  8
0
 10
6.1685749605809
 20
10.23936961410787
 30
0.0
  0
VERTEX
  5
605
  8
0
 10
6.218284960580901
 20
10.05208561410787
 30
0.0
  0
VERTEX
  5
606
  8
0
 10
6.299000960580903
 20
9.879478614107873
 30
0.0
  0
VERTEX
  5
607
  8
0
 10
6.4076299605809
 20
9.728178614107867
 30
0.0
  0
VERTEX
  5
608
  8
0
 10
6.5399879605809
 20
9.604019614107871
 30
0.0
  0
VERTEX
  5
609
  8
0
 10
6.691002960580901
 20
9.511761614107867
 30
0.0
  0
VERTEX
  5
60A
  8
0
 10
6.8548619605809
 20
9.454944614107871
 30
0.0
  0
VERTEX
  5
60B
  8
0
 10
7.0252719605809
 20
9.435766614107871
 30
0.0
  0
VERTEX
  5
60C
  8
0
 10
7.195681960580901
 20
9.454944614107871
 30
0.0
  0
VERTEX
  5
60D
  8
0
 10
7.3595349605809
 20
9.511761614107867
 30
0.0
  0
VERTEX
  5
60E
  8
0
 10
7.5105489605809
 20
9.604019614107871
 30
0.0
  0
VERTEX
  5
60F
  8
0
 10
7.6429139605809
 20
9.728178614107867
 30
0.0
  0
VERTEX
  5
610
  8
0
 10
7.751549960580902
 20
9.879478614107873
 30
0.0
  0
VERTEX
  5
611
  8
0
 10
7.832265960580901
 20
10.05208561410787
 30
0.0
  0
VERTEX
  5
612
  8
0
 10
7.881968960580902
 20
10.23936961410787
 30
0.0
  0
VERTEX
  5
613
  8
0
 10
7.898753960580904
 20
10.43413961410788
 30
0.0
  0
VERTEX
  5
614
  8
0
 10
10.51919796058091
 20
10.86725861410787
 30
0.0
  0
SEQEND
  5
6B6
  8
0
  0
POLYLINE
  5
80
  8
0
 66
     1
 10
0.0
 20
0.0
 30
0.0
 70
     1
  0
VERTEX
  5
615
  8
0
 10
10.40474996058091
 20
9.07156261410787
 30
0.0
  0
VERTEX
  5
616
  8
0
 10
10.39732496058091
 20
9.09601061410787
 30
0.0
  0
VERTEX
  5
617
  8
0
 10
10.39249496058091
 20
9.120610614107873
 30
0.0
  0
VERTEX
  5
618
  8
0
 10
10.39018596058091
 20
9.145199614107872
 30
0.0
  0
VERTEX
  5
619
  8
0
 10
10.39032096058091
 20
9.169617614107873
 30
0.0
  0
VERTEX
  5
61A
  8
0
 10
10.39282496058091
 20
9.19370461410787
 30
0.0
  0
VERTEX
  5
61B
  8
0
 10
10.39762296058091
 20
9.217300614107868
 30
0.0
  0
VERTEX
  5
61C
  8
0
 10
10.40463896058091
 20
9.240244614107871
 30
0.0
  0
VERTEX
  5
61D
  8
0
 10
10.41379696058091
 20
9.262375614107873
 30
0.0
  0
VERTEX
  5
61E
  8
0
 10
10.42502196058091
 20
9.283533614107872
 30
0.0
  0
VERTEX
  5
61F
  8
0
 10
10.43823896058091
 20
9.303557614107872
 30
0.0
  0
VERTEX
  5
620
  8
0
 10
10.45337096058091
 20
9.32228861410787
 30
0.0
  0
VERTEX
  5
621
  8
0
 10
10.47034396058091
 20
9.33956461410787
 30
0.0
  0
VERTEX
  5
622
  8
0
 10
10.48908196058091
 20
9.35522461410787
 30
0.0
  0
VERTEX
  5
623
  8
0
 10
10.50950796058091
 20
9.369110614107873
 30
0.0
  0
VERTEX
  5
624
  8
0
 10
10.53154896058091
 20
9.38105961410787
 30
0.0
  0
VERTEX
  5
625
  8
0
 10
10.55512696058091
 20
9.390911614107873
 30
0.0
  0
VERTEX
  5
626
  8
0
 10
10.57957396058091
 20
9.398337614107872
 30
0.0
  0
VERTEX
  5
627
  8
0
 10
10.60417096058091
 20
9.403166614107873
 30
0.0
  0
VERTEX
  5
628
  8
0
 10
10.62875896058091
 20
9.405475614107873
 30
0.0
  0
VERTEX
  5
629
  8
0
 10
10.65317696058091
 20
9.405339614107872
 30
0.0
  0
VERTEX
  5
62A
  8
0
 10
10.67726296058092
 20
9.402834614107872
 30
0.0
  0
VERTEX
  5
62B
  8
0
 10
10.70085896058091
 20
9.39803561410787
 30
0.0
  0
VERTEX
  5
62C
  8
0
 10
10.72380296058092
 20
9.39101961410787
 30
0.0
  0
VERTEX
  5
62D
  8
0
 10
10.74593396058091
 20
9.38186061410787
 30
0.0
  0
VERTEX
  5
62E
  8
0
 10
10.76709196058091
 20
9.370634614107873
 30
0.0
  0
VERTEX
  5
62F
  8
0
 10
10.78711596058091
 20
9.357417614107872
 30
0.0
  0
VERTEX
  5
630
  8
0
 10
10.80584596058091
 20
9.34228461410787
 30
0.0
  0
VERTEX
  5
631
  8
0
 10
10.82312196058091
 20
9.32531261410787
 30
0.0
  0
VERTEX
  5
632
  8
0
 10
10.83878196058091
 20
9.306575614107869
 30
0.0
  0
VERTEX
  5
633
  8
0
 10
10.85266596058091
 20
9.286150614107873
 30
0.0
  0
VERTEX
  5
634
  8
0
 10
10.86461296058091
 20
9.264111614107867
 30
0.0
  0
VERTEX
  5
635
  8
0
 10
10.87446396058091
 20
9.24053461410787
 30
0.0
  0
VERTEX
  5
636
  8
0
 10
10.88189096058091
 20
9.216085614107866
 30
0.0
  0
VERTEX
  5
637
  8
0
 10
10.88672196058091
 20
9.191486614107871
 30
0.0
  0
VERTEX
  5
638
  8
0
 10
10.88903196058092
 20
9.166896614107872
 30
0.0
  0
VERTEX
  5
639
  8
0
 10
10.88889696058092
 20
9.14247761410787
 30
0.0
  0
VERTEX
  5
63A
  8
0
 10
10.88639196058091
 20
9.11838961410787
 30
0.0
  0
VERTEX
  5
63B
  8
0
 10
10.88159396058091
 20
9.094793614107873
 30
0.0
  0
VERTEX
  5
63C
  8
0
 10
10.87457696058091
 20
9.071848614107873
 30
0.0
  0
VERTEX
  5
63D
  8
0
 10
10.86541896058091
 20
9.04971661410787
 30
0.0
  0
VERTEX
  5
63E
  8
0
 10
10.85419296058091
 20
9.02855861410787
 30
0.0
  0
VERTEX
  5
63F
  8
0
 10
10.84097596058091
 20
9.008533614107867
 30
0.0
  0
VERTEX
  5
640
  8
0
 10
10.82584396058092
 20
8.989802614107871
 30
0.0
  0
VERTEX
  5
641
  8
0
 10
10.80887196058091
 20
8.972527614107866
 30
0.0
  0
VERTEX
  5
642
  8
0
 10
10.79013596058092
 20
8.95686761410787
 30
0.0
  0
VERTEX
  5
643
  8
0
 10
10.76971096058091
 20
8.942983614107872
 30
0.0
  0
VERTEX
  5
644
  8
0
 10
10.74767396058092
 20
8.931035614107872
 30
0.0
  0
VERTEX
  5
645
  8
0
 10
10.72409996058092
 20
8.921185614107872
 30
0.0
  0
VERTEX
  5
646
  8
0
 10
10.69964896058091
 20
8.913759614107873
 30
0.0
  0
VERTEX
  5
647
  8
0
 10
10.67504796058092
 20
8.908930614107872
 30
0.0
  0
VERTEX
  5
648
  8
0
 10
10.65045696058091
 20
8.906621614107872
 30
0.0
  0
VERTEX
  5
649
  8
0
 10
10.62603696058091
 20
8.906757614107873
 30
0.0
  0
VERTEX
  5
64A
  8
0
 10
10.60194896058091
 20
8.909262614107872
 30
0.0
  0
VERTEX
  5
64B
  8
0
 10
10.57835196058091
 20
8.91406161410787
 30
0.0
  0
VERTEX
  5
64C
  8
0
 10
10.55540796058091
 20
8.92107761410787
 30
0.0
  0
VERTEX
  5
64D
  8
0
 10
10.53327696058091
 20
8.930236614107871
 30
0.0
  0
VERTEX
  5
64E
  8
0
 10
10.51211896058091
 20
8.941462614107868
 30
0.0
  0
VERTEX
  5
64F
  8
0
 10
10.49209496058091
 20
8.954679614107873
 30
0.0
  0
VERTEX
  5
650
  8
0
 10
10.47336496058091
 20
8.969812614107871
 30
0.0
  0
VERTEX
  5
651
  8
0
 10
10.45609096058091
 20
8.986784614107867
 30
0.0
  0
VERTEX
  5
652
  8
0
 10
10.44043096058091
 20
9.005521614107868
 30
0.0
  0
VERTEX
  5
653
  8
0
 10
10.42654796058091
 20
9.025947614107869
 30
0.0
  0
VERTEX
  5
654
  8
0
 10
10.41460096058091
 20
9.047985614107871
 30
0.0
  0
SEQEND
  5
6B7
  8
0
  0
POLYLINE
  5
81
  8
0
 66
     1
 10
0.0
 20
0.0
 30
0.0
 70
     1
  0
VERTEX
  5
655
  8
0
 10
9.510340960580905
 20
9.928686614107873
 30
0.0
  0
VERTEX
  5
656
  8
0
 10
10.72738196058091
 20
8.039836614107871
 30
0.0
  0
VERTEX
  5
657
  8
0
 10
7.867306960580904
 20
8.36428661410787
 30
0.0
  0
VERTEX
  5
658
  8
0
 10
7.756378960580903
 20
9.29771861410787
 30
0.0
  0
SEQEND
  5
6B8
  8
0
  0
POLYLINE
  5
82
  8
0
 66
     1
 10
0.0
 20
0.0
 30
0.0
 70
     1
  0
VERTEX
  5
659
  8
0
 10
7.155717960580903
 20
8.47638761410787
 30
0.0
  0
VERTEX
  5
65A
  8
0
 10
6.990054960580901
 20
8.454794614107866
 30
0.0
  0
VERTEX
  5
65B
  8
0
 10
6.831396960580902
 20
8.40517961410787
 30
0.0
  0
VERTEX
  5
65C
  8
0
 10
6.683474960580901
 20
8.32875061410787
 30
0.0
  0
VERTEX
  5
65D
  8
0
 10
6.5496859605809
 20
8.22722861410787
 30
0.0
  0
VERTEX
  5
65E
  8
0
 10
6.5302829605809
 20
8.366185614107872
 30
0.0
  0
VERTEX
  5
65F
  8
0
 10
6.591399960580903
 20
8.511964614107873
 30
0.0
  0
VERTEX
  5
660
  8
0
 10
6.674780960580902
 20
8.64213261410787
 30
0.0
  0
VERTEX
  5
661
  8
0
 10
6.778004960580903
 20
8.752904614107868
 30
0.0
  0
VERTEX
  5
662
  8
0
 10
6.898155960580903
 20
8.841188614107873
 30
0.0
  0
VERTEX
  5
663
  8
0
 10
7.0317829605809
 20
8.904420614107872
 30
0.0
  0
VERTEX
  5
664
  8
0
 10
7.853709960580903
 20
9.200102614107868
 30
0.0
  0
VERTEX
  5
665
  8
0
 10
7.934214960580902
 20
9.178021614107871
 30
0.0
  0
VERTEX
  5
666
  8
0
 10
8.015777960580902
 20
9.172351614107873
 30
0.0
  0
VERTEX
  5
667
  8
0
 10
8.095625960580904
 20
9.18325661410787
 30
0.0
  0
VERTEX
  5
668
  8
0
 10
8.1710659605809
 20
9.21039661410787
 30
0.0
  0
VERTEX
  5
669
  8
0
 10
8.239580960580899
 20
9.252863614107872
 30
0.0
  0
VERTEX
  5
66A
  8
0
 10
8.298845960580902
 20
9.30919261410787
 30
0.0
  0
VERTEX
  5
66B
  8
0
 10
8.346846960580905
 20
9.377497614107872
 30
0.0
  0
VERTEX
  5
66C
  8
0
 10
8.429033960580899
 20
9.40706561410787
 30
0.0
  0
VERTEX
  5
66D
  8
0
 10
8.509552960580901
 20
9.38499861410787
 30
0.0
  0
VERTEX
  5
66E
  8
0
 10
8.591116960580905
 20
9.379315614107872
 30
0.0
  0
VERTEX
  5
66F
  8
0
 10
8.670970960580899
 20
9.390233614107872
 30
0.0
  0
VERTEX
  5
670
  8
0
 10
8.746423960580898
 20
9.417374614107873
 30
0.0
  0
VERTEX
  5
671
  8
0
 10
8.814938960580903
 20
9.459841614107871
 30
0.0
  0
VERTEX
  5
672
  8
0
 10
8.874183960580904
 20
9.516169614107872
 30
0.0
  0
VERTEX
  5
673
  8
0
 10
8.9221849605809
 20
9.58447461410787
 30
0.0
  0
VERTEX
  5
674
  8
0
 10
9.004365960580898
 20
9.614029614107872
 30
0.0
  0
VERTEX
  5
675
  8
0
 10
9.0848979605809
 20
9.591961614107872
 30
0.0
  0
VERTEX
  5
676
  8
0
 10
9.166454960580904
 20
9.58629261410787
 30
0.0
  0
VERTEX
  5
677
  8
0
 10
9.246315960580905
 20
9.59721061410787
 30
0.0
  0
VERTEX
  5
678
  8
0
 10
9.321754960580904
 20
9.624351614107871
 30
0.0
  0
VERTEX
  5
679
  8
0
 10
9.390263960580903
 20
9.666804614107873
 30
0.0
  0
VERTEX
  5
67A
  8
0
 10
9.449521960580903
 20
9.723133614107871
 30
0.0
  0
VERTEX
  5
67B
  8
0
 10
9.497522960580902
 20
9.791452614107866
 30
0.0
  0
VERTEX
  5
67C
  8
0
 10
10.31944996058091
 20
10.08712061410787
 30
0.0
  0
VERTEX
  5
67D
  8
0
 10
10.48627996058091
 20
10.12676561410787
 30
0.0
  0
VERTEX
  5
67E
  8
0
 10
10.65970096058091
 20
10.12875961410788
 30
0.0
  0
VERTEX
  5
67F
  8
0
 10
10.83302696058091
 20
10.09307461410788
 30
0.0
  0
VERTEX
  5
680
  8
0
 10
10.99959896058092
 20
10.02103961410788
 30
0.0
  0
VERTEX
  5
681
  8
0
 10
11.15304196058091
 20
9.915448614107872
 30
0.0
  0
VERTEX
  5
682
  8
0
 10
11.28741396058092
 20
9.780357614107869
 30
0.0
  0
VERTEX
  5
683
  8
0
 10
11.39758896058092
 20
9.62096061410787
 30
0.0
  0
VERTEX
  5
684
  8
0
 10
11.47930896058092
 20
9.44336161410787
 30
0.0
  0
VERTEX
  5
685
  8
0
 10
11.52945296058092
 20
9.254410614107867
 30
0.0
  0
VERTEX
  5
686
  8
0
 10
11.54606796058092
 20
9.061349614107867
 30
0.0
  0
VERTEX
  5
687
  8
0
 10
11.52854396058092
 20
8.87161061410787
 30
0.0
  0
VERTEX
  5
688
  8
0
 10
11.47753196058092
 20
8.692479614107873
 30
0.0
  0
VERTEX
  5
689
  8
0
 10
11.39502596058092
 20
8.530844614107869
 30
0.0
  0
VERTEX
  5
68A
  8
0
 10
11.28415896058092
 20
8.392918614107872
 30
0.0
  0
VERTEX
  5
68B
  8
0
 10
11.14920296058092
 20
8.283977614107867
 30
0.0
  0
VERTEX
  5
68C
  8
0
 10
10.99533996058091
 20
8.208253614107873
 30
0.0
  0
VERTEX
  5
68D
  8
0
 10
10.82851096058091
 20
8.168621614107872
 30
0.0
  0
VERTEX
  5
68E
  8
0
 10
10.65508996058091
 20
8.166613614107872
 30
0.0
  0
VERTEX
  5
68F
  8
0
 10
10.48174996058091
 20
8.202298614107873
 30
0.0
  0
VERTEX
  5
690
  8
0
 10
10.31519096058091
 20
8.27433461410787
 30
0.0
  0
VERTEX
  5
691
  8
0
 10
10.16174896058091
 20
8.379924614107873
 30
0.0
  0
VERTEX
  5
692
  8
0
 10
10.02736296058091
 20
8.51501661410787
 30
0.0
  0
VERTEX
  5
693
  8
0
 10
9.917200960580907
 20
8.67442661410787
 30
0.0
  0
VERTEX
  5
694
  8
0
 10
9.835481960580907
 20
8.852011614107871
 30
0.0
  0
VERTEX
  5
695
  8
0
 10
7.223120960580902
 20
8.37253261410787
 30
0.0
  0
SEQEND
  5
6B9
  8
0
  0
ENDSEC
  0
EOF
